  0
SECTION
  2
HEADER
  9
$EXTMAX
 10
0
 20
297
  9
$EXTMIN
 10
-210
 20
0
  0
ENDSEC
  0
SECTION
  2
TABLES
  0
TABLE
  2
LTYPE
 70
    22
  0
LTYPE
  2
CONTINUOUS
 70
    64
  3
Solid line
 72
    65
 73
     0
 40
0.000000
  0
LTYPE
  2
DASHED
 70
    64
  3
__ __ __ __ __ __ __ __ __ __ __ __ __ __ __
 72
    65
 73
     2
 40
3.500000
 49
2.000000
 49
-1.500000
  0
LTYPE
  2
CENTER
 70
    64
  3
____ _ ____ _ ____ _ ____ _ ____ _ ____ _ ____
 72
    65
 73
     4
 40
17.500000
 49
13.000000
 49
-1.500000
 49
1.500000
 49
-1.500000
  0
LTYPE
  2
PHANTOM
 70
    64
  3
_____ _ _ _____ _ _ _____ _ _ _____ _ _ ____  
 72
    65
 73
     6
 40
15.500000
 49
8.000000
 49
-1.500000
 49
1.500000
 49
-1.500000
 49
1.500000
 49
-1.500000
  0
LTYPE
  2
DOT
 70
    64
  3
. . . . . . . . . . . . . . . . . . . . . . . .
 72
    65
 73
     2
 40
0.25
 49
0.0
 49
-0.25
  0
ENDTAB
  0
TABLE
  2
LAYER
 70
     2
  0
LAYER
  2
0
 70
     0
 62
     7
  6
CONTINUOUS
  0
LAYER
  2
1
 70
     0
 62
     7
  6
CONTINUOUS
  0
ENDTAB
  0
TABLE
  2
STYLE
 70
     1
  0
STYLE
  2
STANDARD
 70
     0
 40
0.000000
 41
1.000000
 50
0.000000
 71
     0
 42
0.200000
  3
txt
  4
BIGFONT
  0
ENDTAB
  0
TABLE
  2
VIEW
 70
     0
  0
ENDTAB
  0
ENDSEC
  0
SECTION
  2
BLOCKS
  0
ENDSEC
  0
SECTION
  2
ENTITIES
  0
POINT
  8
0
  6
CONTINUOUS
 62
     7
 10
-108.64156
 20
141.80652
  0
POINT
  8
0
  6
CONTINUOUS
 62
     7
 10
-108.64156
 20
66.806519
  0
POINT
  8
0
  6
CONTINUOUS
 62
     7
 10
-108.64156
 20
216.80652
  0
POINT
  8
0
  6
CONTINUOUS
 62
     7
 10
-108.64156
 20
216.80652
  0
POINT
  8
0
  6
CONTINUOUS
 62
     7
 10
-108.64156
 20
66.806519
  0
LINE
  8
0
  6
CONTINUOUS
 62
     7
 10
-154.17996
 20
271.4249
 11
-152.17996
 21
271.4249
  0
LINE
  8
0
  6
CONTINUOUS
 62
     7
 10
-154.17996
 20
276.28983
 11
-152.17996
 21
276.28983
  0
LINE
  8
0
  6
CONTINUOUS
 62
     7
 10
-152.67996
 20
276.28983
 11
-152.67996
 21
271.4249
  0
LINE
  8
0
  6
CONTINUOUS
 62
     7
 10
-153.67996
 20
276.28983
 11
-153.67996
 21
271.4249
  0
LINE
  8
0
  6
CONTINUOUS
 62
     7
 10
-102.29796
 20
152.30653
 11
-100.89154
 21
151.49453
  0
LINE
  8
0
  6
CONTINUOUS
 62
     7
 10
-100.89154
 20
141.80652
 11
-100.89154
 21
152.30653
  0
LINE
  8
0
  6
CONTINUOUS
 62
     7
 10
-102.73097
 20
152.55653
 11
-102.29796
 21
152.30653
  0
LINE
  8
0
  6
CONTINUOUS
 62
     7
 10
-100.89154
 20
151.49452
 11
-99.641541
 21
151.49452
  0
LINE
  8
0
  6
CONTINUOUS
 62
     7
 10
-102.29797
 20
152.30653
 11
-99.641541
 21
152.30653
  0
LINE
  8
0
  6
CONTINUOUS
 62
     7
 10
-104.89156
 20
152.55653
 11
-102.73099
 21
152.55653
  0
LINE
  8
0
  6
CONTINUOUS
 62
     7
 10
-106.49924
 20
162.59112
 11
-104.89154
 21
159.80651
  0
LINE
  8
0
  6
CONTINUOUS
 62
     7
 10
-118.39156
 20
141.80652
 11
-118.39156
 21
159.80653
  0
LINE
  8
0
  6
CONTINUOUS
 62
     7
 10
-120.64156
 20
158.99452
 11
-117.50606
 21
158.99452
  0
LINE
  8
0
  6
CONTINUOUS
 62
     7
 10
-120.64156
 20
159.80653
 11
-118.39156
 21
159.80653
  0
LINE
  8
0
  6
CONTINUOUS
 62
     7
 10
-116.6595
 20
158.80653
 11
-112.89154
 21
158.80653
  0
LINE
  8
0
  6
CONTINUOUS
 62
     7
 10
-104.89156
 20
141.80652
 11
-104.89156
 21
159.80653
  0
LINE
  8
0
  6
CONTINUOUS
 62
     7
 10
-112.89154
 20
141.80652
 11
-112.89154
 21
159.80653
  0
LINE
  8
0
  6
CONTINUOUS
 62
     7
 10
-112.89155
 20
159.80653
 11
-111.28385
 21
162.59114
  0
LINE
  8
0
  6
CONTINUOUS
 62
     7
 10
-111.28384
 20
162.59114
 11
-106.49924
 21
162.59114
  0
LINE
  8
0
  6
CONTINUOUS
 62
     7
 10
-111.28384
 20
152.19884
 11
-106.49924
 21
152.19884
  0
LINE
  8
0
  6
CENTER
 62
     7
 10
-142.94154
 20
141.80652
 11
-79.241547
 21
141.80652
  0
LINE
  8
0
  6
CONTINUOUS
 62
     7
 10
-102.29797
 20
131.30651
 11
-100.89155
 21
132.11851
  0
LINE
  8
0
  6
CONTINUOUS
 62
     7
 10
-100.89154
 20
141.80652
 11
-100.89154
 21
131.30652
  0
LINE
  8
0
  6
CONTINUOUS
 62
     7
 10
-102.73098
 20
131.05651
 11
-102.29797
 21
131.30651
  0
LINE
  8
0
  6
CONTINUOUS
 62
     7
 10
-100.89154
 20
132.11852
 11
-99.641541
 21
132.11852
  0
LINE
  8
0
  6
CONTINUOUS
 62
     7
 10
-102.29797
 20
131.30652
 11
-99.641541
 21
131.30652
  0
LINE
  8
0
  6
CONTINUOUS
 62
     7
 10
-104.89156
 20
131.05652
 11
-102.73099
 21
131.05652
  0
LINE
  8
0
  6
CONTINUOUS
 62
     7
 10
-106.49923
 20
121.0219
 11
-104.89153
 21
123.80652
  0
LINE
  8
0
  6
CONTINUOUS
 62
     7
 10
-118.39156
 20
141.80652
 11
-118.39156
 21
123.80652
  0
LINE
  8
0
  6
CONTINUOUS
 62
     7
 10
-120.64156
 20
124.61852
 11
-117.50606
 21
124.61852
  0
LINE
  8
0
  6
CONTINUOUS
 62
     7
 10
-120.64156
 20
123.80652
 11
-118.39156
 21
123.80652
  0
LINE
  8
0
  6
CONTINUOUS
 62
     7
 10
-116.6595
 20
124.80652
 11
-112.89154
 21
124.80652
  0
LINE
  8
0
  6
CONTINUOUS
 62
     7
 10
-104.89156
 20
141.80652
 11
-104.89156
 21
123.80652
  0
LINE
  8
0
  6
CONTINUOUS
 62
     7
 10
-112.89154
 20
141.80652
 11
-112.89154
 21
123.80652
  0
LINE
  8
0
  6
CONTINUOUS
 62
     7
 10
-112.89155
 20
123.80651
 11
-111.28385
 21
121.0219
  0
LINE
  8
0
  6
CONTINUOUS
 62
     7
 10
-111.28384
 20
121.02191
 11
-106.49924
 21
121.02191
  0
LINE
  8
0
  6
CONTINUOUS
 62
     7
 10
-111.28384
 20
131.41422
 11
-106.49924
 21
131.41422
  0
LINE
  8
0
  6
CONTINUOUS
 62
     7
 10
-101.54797
 20
80.806503
 11
-100.14156
 21
79.994522
  0
LINE
  8
0
  6
CONTINUOUS
 62
     7
 10
-100.14156
 20
66.806519
 11
-100.14156
 21
80.806519
  0
LINE
  8
0
  6
CONTINUOUS
 62
     7
 10
-101.98098
 20
81.056503
 11
-101.54797
 21
80.806503
  0
LINE
  8
0
  6
CONTINUOUS
 62
     7
 10
-100.14156
 20
79.994507
 11
-98.641571
 21
79.994507
  0
LINE
  8
0
  6
CONTINUOUS
 62
     7
 10
-104.64156
 20
81.056519
 11
-101.98099
 21
81.056519
  0
LINE
  8
0
  6
CONTINUOUS
 62
     7
 10
-101.54797
 20
80.806519
 11
-98.641571
 21
80.806519
  0
LINE
  8
0
  6
CONTINUOUS
 62
     7
 10
-106.24924
 20
87.591125
 11
-104.64155
 21
84.806519
  0
LINE
  8
0
  6
CONTINUOUS
 62
     7
 10
-118.14156
 20
66.806519
 11
-118.14156
 21
84.806519
  0
LINE
  8
0
  6
CONTINUOUS
 62
     7
 10
-120.64156
 20
83.994507
 11
-117.25609
 21
83.994507
  0
LINE
  8
0
  6
CONTINUOUS
 62
     7
 10
-120.64156
 20
84.806519
 11
-118.14156
 21
84.806519
  0
LINE
  8
0
  6
CONTINUOUS
 62
     7
 10
-116.40952
 20
83.806519
 11
-112.64156
 21
83.806519
  0
LINE
  8
0
  6
CONTINUOUS
 62
     7
 10
-104.64157
 20
66.806519
 11
-104.64157
 21
84.806519
  0
LINE
  8
0
  6
CONTINUOUS
 62
     7
 10
-112.64156
 20
66.806519
 11
-112.64156
 21
84.806519
  0
LINE
  8
0
  6
CONTINUOUS
 62
     7
 10
-112.64155
 20
84.806519
 11
-111.03385
 21
87.591141
  0
LINE
  8
0
  6
CONTINUOUS
 62
     7
 10
-111.03386
 20
87.591125
 11
-106.24925
 21
87.591125
  0
LINE
  8
0
  6
CONTINUOUS
 62
     7
 10
-111.03386
 20
77.198822
 11
-106.24925
 21
77.198822
  0
LINE
  8
0
  6
CONTINUOUS
 62
     7
 10
-102.29797
 20
227.30654
 11
-100.89155
 21
226.49454
  0
LINE
  8
0
  6
CONTINUOUS
 62
     7
 10
-100.89156
 20
216.80652
 11
-100.89156
 21
227.3065
  0
LINE
  8
0
  6
CONTINUOUS
 62
     7
 10
-102.73098
 20
227.55654
 11
-102.29797
 21
227.30654
  0
LINE
  8
0
  6
CONTINUOUS
 62
     7
 10
-100.89156
 20
226.49452
 11
-99.141556
 21
226.49452
  0
LINE
  8
0
  6
CONTINUOUS
 62
     7
 10
-102.29799
 20
227.3065
 11
-99.141556
 21
227.3065
  0
LINE
  8
0
  6
CONTINUOUS
 62
     7
 10
-104.89156
 20
227.5565
 11
-102.731
 21
227.5565
  0
LINE
  8
0
  6
CONTINUOUS
 62
     7
 10
-106.2313
 20
234.12702
 11
-104.89156
 21
231.80653
  0
LINE
  8
0
  6
CONTINUOUS
 62
     7
 10
-114.98513
 20
230.8065
 11
-114.55212
 21
231.0565
  0
LINE
  8
0
  6
CONTINUOUS
 62
     7
 10
-116.39156
 20
216.80652
 11
-116.39156
 21
230.8065
  0
LINE
  8
0
  6
CONTINUOUS
 62
     7
 10
-116.39155
 20
229.99451
 11
-114.98513
 21
230.8065
  0
LINE
  8
0
  6
CONTINUOUS
 62
     7
 10
-118.14156
 20
230.8065
 11
-114.98512
 21
230.8065
  0
LINE
  8
0
  6
CONTINUOUS
 62
     7
 10
-118.14156
 20
229.99452
 11
-116.39156
 21
229.99452
  0
LINE
  8
0
  6
CONTINUOUS
 62
     7
 10
-114.55211
 20
231.0565
 11
-111.89156
 21
231.0565
  0
LINE
  8
0
  6
CONTINUOUS
 62
     7
 10
-104.89156
 20
216.80652
 11
-104.89156
 21
231.8065
  0
LINE
  8
0
  6
CONTINUOUS
 62
     7
 10
-111.89156
 20
216.80652
 11
-111.89156
 21
231.8065
  0
LINE
  8
0
  6
CONTINUOUS
 62
     7
 10
-111.89154
 20
231.80656
 11
-110.55181
 21
234.12705
  0
LINE
  8
0
  6
CONTINUOUS
 62
     7
 10
-110.5518
 20
225.46677
 11
-106.23128
 21
225.46677
  0
LINE
  8
0
  6
CONTINUOUS
 62
     7
 10
-110.5518
 20
234.12703
 11
-106.23128
 21
234.12703
  0
LINE
  8
0
  6
CENTER
 62
     7
 10
-143.64156
 20
66.806519
 11
-78.191559
 21
66.806519
  0
LINE
  8
0
  6
CONTINUOUS
 62
     7
 10
-101.54799
 20
52.806534
 11
-100.14156
 21
53.61853
  0
LINE
  8
0
  6
CONTINUOUS
 62
     7
 10
-100.14156
 20
66.806519
 11
-100.14156
 21
52.806519
  0
LINE
  8
0
  6
CONTINUOUS
 62
     7
 10
-101.981
 20
52.556534
 11
-101.54799
 21
52.806534
  0
LINE
  8
0
  6
CONTINUOUS
 62
     7
 10
-100.14156
 20
53.618515
 11
-98.641571
 21
53.618515
  0
LINE
  8
0
  6
CONTINUOUS
 62
     7
 10
-104.64156
 20
52.556519
 11
-101.98099
 21
52.556519
  0
LINE
  8
0
  6
CONTINUOUS
 62
     7
 10
-101.54797
 20
52.806519
 11
-98.641571
 21
52.806519
  0
LINE
  8
0
  6
CONTINUOUS
 62
     7
 10
-106.24925
 20
46.021912
 11
-104.64155
 21
48.806519
  0
LINE
  8
0
  6
CONTINUOUS
 62
     7
 10
-118.14156
 20
66.806519
 11
-118.14156
 21
48.806519
  0
LINE
  8
0
  6
CONTINUOUS
 62
     7
 10
-120.64156
 20
49.618515
 11
-117.25609
 21
49.618515
  0
LINE
  8
0
  6
CONTINUOUS
 62
     7
 10
-120.64156
 20
48.806519
 11
-118.14156
 21
48.806519
  0
LINE
  8
0
  6
CONTINUOUS
 62
     7
 10
-116.40952
 20
49.806519
 11
-112.64156
 21
49.806519
  0
LINE
  8
0
  6
CONTINUOUS
 62
     7
 10
-104.64157
 20
66.806519
 11
-104.64157
 21
48.806519
  0
LINE
  8
0
  6
CONTINUOUS
 62
     7
 10
-112.64156
 20
66.806519
 11
-112.64156
 21
48.806519
  0
LINE
  8
0
  6
CONTINUOUS
 62
     7
 10
-112.64156
 20
48.806519
 11
-111.03386
 21
46.021896
  0
LINE
  8
0
  6
CONTINUOUS
 62
     7
 10
-111.03386
 20
46.021912
 11
-106.24925
 21
46.021912
  0
LINE
  8
0
  6
CONTINUOUS
 62
     7
 10
-111.03386
 20
56.414215
 11
-106.24925
 21
56.414215
  0
LINE
  8
0
  6
CENTER
 62
     7
 10
-136.9478
 20
216.80652
 11
-77.956894
 21
216.80652
  0
LINE
  8
0
  6
CONTINUOUS
 62
     7
 10
-102.29798
 20
206.3065
 11
-100.89155
 21
207.1185
  0
LINE
  8
0
  6
CONTINUOUS
 62
     7
 10
-100.89156
 20
216.80652
 11
-100.89156
 21
206.30652
  0
LINE
  8
0
  6
CONTINUOUS
 62
     7
 10
-102.73099
 20
206.0565
 11
-102.29798
 21
206.3065
  0
LINE
  8
0
  6
CONTINUOUS
 62
     7
 10
-100.89156
 20
207.11852
 11
-99.141556
 21
207.11852
  0
LINE
  8
0
  6
CONTINUOUS
 62
     7
 10
-102.29799
 20
206.30652
 11
-99.141556
 21
206.30652
  0
LINE
  8
0
  6
CONTINUOUS
 62
     7
 10
-104.89156
 20
206.05652
 11
-102.731
 21
206.05652
  0
LINE
  8
0
  6
CONTINUOUS
 62
     7
 10
-106.23129
 20
199.48601
 11
-104.89155
 21
201.80651
  0
LINE
  8
0
  6
CONTINUOUS
 62
     7
 10
-114.98513
 20
202.80652
 11
-114.55212
 21
202.55652
  0
LINE
  8
0
  6
CONTINUOUS
 62
     7
 10
-116.39156
 20
216.80652
 11
-116.39156
 21
202.80652
  0
LINE
  8
0
  6
CONTINUOUS
 62
     7
 10
-116.39155
 20
203.61852
 11
-114.98513
 21
202.80652
  0
LINE
  8
0
  6
CONTINUOUS
 62
     7
 10
-118.14156
 20
202.80652
 11
-114.98512
 21
202.80652
  0
LINE
  8
0
  6
CONTINUOUS
 62
     7
 10
-118.45423
 20
203.61852
 11
-116.39156
 21
203.61852
  0
LINE
  8
0
  6
CONTINUOUS
 62
     7
 10
-114.55211
 20
202.55652
 11
-111.89156
 21
202.55652
  0
LINE
  8
0
  6
CONTINUOUS
 62
     7
 10
-104.89156
 20
216.80652
 11
-104.89156
 21
201.80652
  0
LINE
  8
0
  6
CONTINUOUS
 62
     7
 10
-111.89156
 20
216.80652
 11
-111.89156
 21
201.80652
  0
LINE
  8
0
  6
CONTINUOUS
 62
     7
 10
-111.89154
 20
201.80649
 11
-110.5518
 21
199.486
  0
LINE
  8
0
  6
CONTINUOUS
 62
     7
 10
-110.5518
 20
208.14627
 11
-106.23128
 21
208.14627
  0
LINE
  8
0
  6
CONTINUOUS
 62
     7
 10
-110.5518
 20
199.48601
 11
-106.23128
 21
199.48601
  0
LINE
  8
0
  6
CONTINUOUS
 62
     7
 10
-84.892105
 20
211.07153
 11
-84.892105
 21
209.28171
  0
LINE
  8
0
  6
CONTINUOUS
 62
     7
 10
-84.141556
 20
216.80652
 11
-84.141556
 21
228.8065
  0
LINE
  8
0
  6
CONTINUOUS
 62
     7
 10
-84.14155
 20
228.80649
 11
-84.892115
 21
230.10651
  0
LINE
  8
0
  6
CONTINUOUS
 62
     7
 10
-84.892105
 20
230.10652
 11
-98.391006
 21
230.10652
  0
LINE
  8
0
  6
CONTINUOUS
 62
     7
 10
-98.390993
 20
230.10649
 11
-99.14155
 21
228.80648
  0
LINE
  8
0
  6
CONTINUOUS
 62
     7
 10
-99.141556
 20
216.80652
 11
-99.141556
 21
228.8065
  0
LINE
  8
0
  6
CONTINUOUS
 62
     7
 10
-98.391006
 20
222.5415
 11
-98.391006
 21
224.33133
  0
LINE
  8
0
  6
CONTINUOUS
 62
     7
 10
-84.892105
 20
224.33133
 11
-98.391006
 21
224.33133
  0
LINE
  8
0
  6
CONTINUOUS
 62
     7
 10
-84.892105
 20
222.5415
 11
-98.391006
 21
222.5415
  0
LINE
  8
0
  6
CONTINUOUS
 62
     7
 10
-84.892105
 20
222.5415
 11
-84.892105
 21
224.33133
  0
LINE
  8
0
  6
CONTINUOUS
 62
     7
 10
-84.738525
 20
58.780945
 11
-84.738525
 21
56.962906
  0
LINE
  8
0
  6
CONTINUOUS
 62
     7
 10
-83.641556
 20
66.806519
 11
-83.641556
 21
50.806519
  0
LINE
  8
0
  6
CONTINUOUS
 62
     7
 10
-97.544601
 20
58.780945
 11
-84.738525
 21
58.780945
  0
LINE
  8
0
  6
CONTINUOUS
 62
     7
 10
-97.544601
 20
56.962906
 11
-84.738525
 21
56.962906
  0
LINE
  8
0
  6
CONTINUOUS
 62
     7
 10
-97.544601
 20
58.780945
 11
-97.544601
 21
56.962906
  0
LINE
  8
0
  6
CONTINUOUS
 62
     7
 10
-98.641559
 20
50.806519
 11
-97.54459
 21
48.906509
  0
LINE
  8
0
  6
CONTINUOUS
 62
     7
 10
-97.544601
 20
48.906525
 11
-84.738525
 21
48.906525
  0
LINE
  8
0
  6
CONTINUOUS
 62
     7
 10
-84.73852
 20
48.906509
 11
-83.64155
 21
50.806519
  0
LINE
  8
0
  6
CONTINUOUS
 62
     7
 10
-84.738525
 20
74.832092
 11
-84.738525
 21
76.650116
  0
LINE
  8
0
  6
CONTINUOUS
 62
     7
 10
-83.641556
 20
66.806519
 11
-83.641556
 21
82.806519
  0
LINE
  8
0
  6
CONTINUOUS
 62
     7
 10
-97.544601
 20
74.832092
 11
-84.738525
 21
74.832092
  0
LINE
  8
0
  6
CONTINUOUS
 62
     7
 10
-97.544601
 20
76.650116
 11
-84.738525
 21
76.650116
  0
LINE
  8
0
  6
CONTINUOUS
 62
     7
 10
-97.544601
 20
74.832092
 11
-97.544601
 21
76.650116
  0
LINE
  8
0
  6
CONTINUOUS
 62
     7
 10
-98.641571
 20
66.806519
 11
-98.641571
 21
82.806519
  0
LINE
  8
0
  6
CONTINUOUS
 62
     7
 10
-98.641561
 20
82.806503
 11
-97.5446
 21
84.706497
  0
LINE
  8
0
  6
CONTINUOUS
 62
     7
 10
-97.544601
 20
84.706512
 11
-84.738525
 21
84.706512
  0
LINE
  8
0
  6
CONTINUOUS
 62
     7
 10
-84.738523
 20
84.706512
 11
-83.641554
 21
82.806503
  0
LINE
  8
0
  6
CONTINUOUS
 62
     7
 10
-132.0446
 20
224.83209
 11
-132.0446
 21
226.65013
  0
LINE
  8
0
  6
CONTINUOUS
 62
     7
 10
-133.14156
 20
216.80652
 11
-133.14156
 21
232.8065
  0
LINE
  8
0
  6
CONTINUOUS
 62
     7
 10
-119.23851
 20
224.83209
 11
-132.0446
 21
224.83209
  0
LINE
  8
0
  6
CONTINUOUS
 62
     7
 10
-119.23851
 20
226.65013
 11
-132.0446
 21
226.65013
  0
LINE
  8
0
  6
CONTINUOUS
 62
     7
 10
-119.23851
 20
224.83209
 11
-119.23851
 21
226.65013
  0
LINE
  8
0
  6
CONTINUOUS
 62
     7
 10
-118.14156
 20
216.80652
 11
-118.14156
 21
232.8065
  0
LINE
  8
0
  6
CONTINUOUS
 62
     7
 10
-118.14156
 20
232.80651
 11
-119.23851
 21
234.7065
  0
LINE
  8
0
  6
CONTINUOUS
 62
     7
 10
-119.23851
 20
234.70653
 11
-132.0446
 21
234.70653
  0
LINE
  8
0
  6
CONTINUOUS
 62
     7
 10
-132.04459
 20
234.70652
 11
-133.14156
 21
232.80652
  0
LINE
  8
0
  6
CONTINUOUS
 62
     7
 10
-132.0446
 20
208.78094
 11
-132.0446
 21
206.96291
  0
LINE
  8
0
  6
CONTINUOUS
 62
     7
 10
-136.64156
 20
141.80652
 11
-136.64156
 21
121.30652
  0
LINE
  8
0
  6
CONTINUOUS
 62
     7
 10
-135.14046
 20
131.15945
 11
-135.14046
 21
129.37654
  0
LINE
  8
0
  6
CONTINUOUS
 62
     7
 10
-122.14268
 20
131.15945
 11
-135.14046
 21
131.15945
  0
LINE
  8
0
  6
CONTINUOUS
 62
     7
 10
-122.14268
 20
129.37654
 11
-135.14046
 21
129.37654
  0
LINE
  8
0
  6
CONTINUOUS
 62
     7
 10
-122.14268
 20
131.15945
 11
-122.14268
 21
129.37654
  0
LINE
  8
0
  6
CONTINUOUS
 62
     7
 10
-120.64156
 20
141.80652
 11
-120.64156
 21
121.30652
  0
LINE
  8
0
  6
CONTINUOUS
 62
     7
 10
-120.64154
 20
121.30651
 11
-122.14266
 21
118.7065
  0
LINE
  8
0
  6
CONTINUOUS
 62
     7
 10
-122.14268
 20
118.70653
 11
-135.14046
 21
118.70653
  0
LINE
  8
0
  6
CONTINUOUS
 62
     7
 10
-135.14045
 20
118.70653
 11
-136.64156
 21
121.30653
  0
LINE
  8
0
  6
CONTINUOUS
 62
     7
 10
-136.64156
 20
141.80652
 11
-136.64156
 21
162.30653
  0
LINE
  8
0
  6
CONTINUOUS
 62
     7
 10
-135.14046
 20
152.45357
 11
-135.14046
 21
154.2365
  0
LINE
  8
0
  6
CONTINUOUS
 62
     7
 10
-122.14268
 20
152.45357
 11
-135.14046
 21
152.45357
  0
LINE
  8
0
  6
CONTINUOUS
 62
     7
 10
-122.14268
 20
154.2365
 11
-135.14046
 21
154.2365
  0
LINE
  8
0
  6
CONTINUOUS
 62
     7
 10
-122.14268
 20
152.45357
 11
-122.14268
 21
154.2365
  0
LINE
  8
0
  6
CONTINUOUS
 62
     7
 10
-120.64156
 20
141.80652
 11
-120.64156
 21
162.30653
  0
LINE
  8
0
  6
CONTINUOUS
 62
     7
 10
-120.64154
 20
162.30652
 11
-122.14265
 21
164.90652
  0
LINE
  8
0
  6
CONTINUOUS
 62
     7
 10
-122.14268
 20
164.90651
 11
-135.14046
 21
164.90651
  0
LINE
  8
0
  6
CONTINUOUS
 62
     7
 10
-135.14045
 20
164.9065
 11
-136.64156
 21
162.3065
  0
LINE
  8
0
  6
CONTINUOUS
 62
     7
 10
-136.64156
 20
66.806519
 11
-136.64156
 21
46.306519
  0
LINE
  8
0
  6
CONTINUOUS
 62
     7
 10
-135.14046
 20
56.159454
 11
-135.14046
 21
54.376541
  0
LINE
  8
0
  6
CONTINUOUS
 62
     7
 10
-122.14267
 20
56.159454
 11
-135.14046
 21
56.159454
  0
LINE
  8
0
  6
CONTINUOUS
 62
     7
 10
-122.14267
 20
54.376541
 11
-135.14046
 21
54.376541
  0
LINE
  8
0
  6
CONTINUOUS
 62
     7
 10
-122.14267
 20
56.159454
 11
-122.14267
 21
54.376541
  0
LINE
  8
0
  6
CONTINUOUS
 62
     7
 10
-120.64156
 20
66.806519
 11
-120.64156
 21
46.306519
  0
LINE
  8
0
  6
CONTINUOUS
 62
     7
 10
-120.64154
 20
46.306519
 11
-122.14266
 21
43.706512
  0
LINE
  8
0
  6
CONTINUOUS
 62
     7
 10
-122.14267
 20
43.706528
 11
-135.14046
 21
43.706528
  0
LINE
  8
0
  6
CONTINUOUS
 62
     7
 10
-135.14046
 20
43.706528
 11
-136.64157
 21
46.306534
  0
LINE
  8
0
  6
CONTINUOUS
 62
     7
 10
-136.64156
 20
66.806519
 11
-136.64156
 21
87.306519
  0
LINE
  8
0
  6
CONTINUOUS
 62
     7
 10
-135.14046
 20
77.453583
 11
-135.14046
 21
79.236481
  0
LINE
  8
0
  6
CONTINUOUS
 62
     7
 10
-122.14267
 20
77.453583
 11
-135.14046
 21
77.453583
  0
LINE
  8
0
  6
CONTINUOUS
 62
     7
 10
-122.14267
 20
79.236481
 11
-135.14046
 21
79.236481
  0
LINE
  8
0
  6
CONTINUOUS
 62
     7
 10
-122.14267
 20
77.453583
 11
-122.14267
 21
79.236481
  0
LINE
  8
0
  6
CONTINUOUS
 62
     7
 10
-120.64156
 20
66.806519
 11
-120.64156
 21
87.306519
  0
LINE
  8
0
  6
CONTINUOUS
 62
     7
 10
-120.64154
 20
87.306519
 11
-122.14265
 21
89.906525
  0
LINE
  8
0
  6
CONTINUOUS
 62
     7
 10
-122.14267
 20
89.906525
 11
-135.14046
 21
89.906525
  0
LINE
  8
0
  6
CONTINUOUS
 62
     7
 10
-135.14044
 20
89.906509
 11
-136.64156
 21
87.306503
  0
LINE
  8
0
  6
CONTINUOUS
 62
     7
 10
-132.04458
 20
198.90651
 11
-133.14155
 21
200.80652
  0
LINE
  8
0
  6
CONTINUOUS
 62
     7
 10
-119.23851
 20
198.90652
 11
-132.0446
 21
198.90652
  0
LINE
  8
0
  6
CONTINUOUS
 62
     7
 10
-118.14154
 20
200.80653
 11
-119.23851
 21
198.90653
  0
LINE
  8
0
  6
CONTINUOUS
 62
     7
 10
-118.14156
 20
216.80652
 11
-118.14156
 21
200.80652
  0
LINE
  8
0
  6
CONTINUOUS
 62
     7
 10
-119.23851
 20
208.78094
 11
-119.23851
 21
206.96291
  0
LINE
  8
0
  6
CONTINUOUS
 62
     7
 10
-119.23851
 20
206.96291
 11
-132.0446
 21
206.96291
  0
LINE
  8
0
  6
CONTINUOUS
 62
     7
 10
-119.23851
 20
208.78094
 11
-132.0446
 21
208.78094
  0
LINE
  8
0
  6
CONTINUOUS
 62
     7
 10
-133.14156
 20
216.80652
 11
-133.14156
 21
200.80652
  0
LINE
  8
0
  6
CONTINUOUS
 62
     7
 10
-84.641541
 20
141.80652
 11
-84.641541
 21
129.80652
  0
LINE
  8
0
  6
CONTINUOUS
 62
     7
 10
-84.641539
 20
129.80653
 11
-85.392096
 21
128.50652
  0
LINE
  8
0
  6
CONTINUOUS
 62
     7
 10
-85.39209
 20
128.5065
 11
-98.890976
 21
128.5065
  0
LINE
  8
0
  6
CONTINUOUS
 62
     7
 10
-98.890981
 20
128.50652
 11
-99.641546
 21
129.80653
  0
LINE
  8
0
  6
CONTINUOUS
 62
     7
 10
-99.641541
 20
141.80652
 11
-99.641541
 21
129.80652
  0
LINE
  8
0
  6
CONTINUOUS
 62
     7
 10
-98.890991
 20
136.07153
 11
-98.890991
 21
134.28171
  0
LINE
  8
0
  6
CONTINUOUS
 62
     7
 10
-85.39209
 20
134.28171
 11
-98.890976
 21
134.28171
  0
LINE
  8
0
  6
CONTINUOUS
 62
     7
 10
-85.39209
 20
136.07153
 11
-98.890976
 21
136.07153
  0
LINE
  8
0
  6
CONTINUOUS
 62
     7
 10
-85.39209
 20
136.07153
 11
-85.39209
 21
134.28171
  0
LINE
  8
0
  6
CONTINUOUS
 62
     7
 10
-84.641541
 20
141.80652
 11
-84.641541
 21
153.80653
  0
LINE
  8
0
  6
CONTINUOUS
 62
     7
 10
-84.641537
 20
153.8065
 11
-85.392086
 21
155.10648
  0
LINE
  8
0
  6
CONTINUOUS
 62
     7
 10
-85.39209
 20
155.10652
 11
-98.890991
 21
155.10652
  0
LINE
  8
0
  6
CONTINUOUS
 62
     7
 10
-98.890977
 20
155.10649
 11
-99.641534
 21
153.80649
  0
LINE
  8
0
  6
CONTINUOUS
 62
     7
 10
-99.641541
 20
141.80652
 11
-99.641541
 21
153.8065
  0
LINE
  8
0
  6
CONTINUOUS
 62
     7
 10
-98.890991
 20
147.5415
 11
-98.890991
 21
149.33133
  0
LINE
  8
0
  6
CONTINUOUS
 62
     7
 10
-85.39209
 20
149.33133
 11
-98.890991
 21
149.33133
  0
LINE
  8
0
  6
CONTINUOUS
 62
     7
 10
-85.39209
 20
147.5415
 11
-98.890991
 21
147.5415
  0
LINE
  8
0
  6
CONTINUOUS
 62
     7
 10
-85.39209
 20
147.5415
 11
-85.39209
 21
149.33133
  0
LINE
  8
0
  6
CONTINUOUS
 62
     7
 10
-84.141556
 20
216.80652
 11
-84.141556
 21
204.80652
  0
LINE
  8
0
  6
CONTINUOUS
 62
     7
 10
-84.141556
 20
204.80653
 11
-84.892113
 21
203.50652
  0
LINE
  8
0
  6
CONTINUOUS
 62
     7
 10
-84.892105
 20
203.5065
 11
-98.391006
 21
203.5065
  0
LINE
  8
0
  6
CONTINUOUS
 62
     7
 10
-98.391009
 20
203.50653
 11
-99.141558
 21
204.80652
  0
LINE
  8
0
  6
CONTINUOUS
 62
     7
 10
-99.141556
 20
216.80652
 11
-99.141556
 21
204.80652
  0
LINE
  8
0
  6
CONTINUOUS
 62
     7
 10
-98.391006
 20
211.07153
 11
-98.391006
 21
209.28171
  0
LINE
  8
0
  6
CONTINUOUS
 62
     7
 10
-84.892105
 20
209.28171
 11
-98.391006
 21
209.28171
  0
LINE
  8
0
  6
CONTINUOUS
 62
     7
 10
-84.892105
 20
211.07153
 11
-98.391006
 21
211.07153
  0
LINE
  8
0
  6
CONTINUOUS
 62
     7
 10
-98.641571
 20
66.806519
 11
-98.641571
 21
50.806519
  0
ARC
  8
0
  6
CONTINUOUS
 62
     7
 10
-116.40952
 20
47.806519
 40
2
 50
90.000003
 51
150
  0
ARC
  8
0
  6
CONTINUOUS
 62
     7
 10
-116.40952
 20
85.806519
 40
2
 50
210
 51
270
  0
ARC
  8
0
  6
CONTINUOUS
 62
     7
 10
-116.6595
 20
122.80652
 40
2
 50
90.000003
 51
150
  0
ARC
  8
0
  6
CONTINUOUS
 62
     7
 10
-116.6595
 20
160.80653
 40
2
 50
210
 51
270
  0
POLYLINE
  8
0
  6
CONTINUOUS
 62
     7
 66
     1
 10
0
 20
0
  0
VERTEX
  8
0
  6
CONTINUOUS
 62
     7
 10
-135.14046
 20
129.37654
 42
0.067337396
  0
VERTEX
  8
0
  6
CONTINUOUS
 62
     7
 10
-136.20657
 20
125.8713
 42
0.080050489
  0
VERTEX
  8
0
  6
CONTINUOUS
 62
     7
 10
-136.20628
 20
122.21188
 42
0.067283306
  0
VERTEX
  8
0
  6
CONTINUOUS
 62
     7
 10
-135.14046
 20
118.70653
 42
0
  0
SEQEND
  8
0
  0
POLYLINE
  8
0
  6
CONTINUOUS
 62
     7
 66
     1
 10
0
 20
0
  0
VERTEX
  8
0
  6
CONTINUOUS
 62
     7
 10
-122.14268
 20
129.37654
 42
-0.067337903
  0
VERTEX
  8
0
  6
CONTINUOUS
 62
     7
 10
-121.07654
 20
125.8713
 42
-0.080053242
  0
VERTEX
  8
0
  6
CONTINUOUS
 62
     7
 10
-121.07684
 20
122.21188
 42
-0.067283804
  0
VERTEX
  8
0
  6
CONTINUOUS
 62
     7
 10
-122.14268
 20
118.70653
 42
0
  0
SEQEND
  8
0
  0
POLYLINE
  8
0
  6
CONTINUOUS
 62
     7
 66
     1
 10
0
 20
0
  0
VERTEX
  8
0
  6
CONTINUOUS
 62
     7
 10
-120.93022
 20
141.80652
 42
-0.019162739
  0
VERTEX
  8
0
  6
CONTINUOUS
 62
     7
 10
-121.0681
 20
138.23064
 42
-0.018603809
  0
VERTEX
  8
0
  6
CONTINUOUS
 62
     7
 10
-121.47526
 20
134.67529
 42
-0.018212435
  0
VERTEX
  8
0
  6
CONTINUOUS
 62
     7
 10
-122.14268
 20
131.15945
 42
0
  0
SEQEND
  8
0
  0
POLYLINE
  8
0
  6
CONTINUOUS
 62
     7
 66
     1
 10
0
 20
0
  0
VERTEX
  8
0
  6
CONTINUOUS
 62
     7
 10
-136.35289
 20
141.80652
 42
-0.019162168
  0
VERTEX
  8
0
  6
CONTINUOUS
 62
     7
 10
-136.21502
 20
145.38239
 42
-0.018603522
  0
VERTEX
  8
0
  6
CONTINUOUS
 62
     7
 10
-135.80787
 20
148.93774
 42
-0.018212281
  0
VERTEX
  8
0
  6
CONTINUOUS
 62
     7
 10
-135.14046
 20
152.45357
 42
0
  0
SEQEND
  8
0
  0
POLYLINE
  8
0
  6
CONTINUOUS
 62
     7
 66
     1
 10
0
 20
0
  0
VERTEX
  8
0
  6
CONTINUOUS
 62
     7
 10
-135.14046
 20
154.2365
 42
-0.067337545
  0
VERTEX
  8
0
  6
CONTINUOUS
 62
     7
 10
-136.20658
 20
157.74174
 42
-0.080050485
  0
VERTEX
  8
0
  6
CONTINUOUS
 62
     7
 10
-136.20628
 20
161.40115
 42
-0.06728316
  0
VERTEX
  8
0
  6
CONTINUOUS
 62
     7
 10
-135.14046
 20
164.90651
 42
0
  0
SEQEND
  8
0
  0
POLYLINE
  8
0
  6
CONTINUOUS
 62
     7
 66
     1
 10
0
 20
0
  0
VERTEX
  8
0
  6
CONTINUOUS
 62
     7
 10
-122.14268
 20
154.2365
 42
0.067338052
  0
VERTEX
  8
0
  6
CONTINUOUS
 62
     7
 10
-121.07654
 20
157.74174
 42
0.080053238
  0
VERTEX
  8
0
  6
CONTINUOUS
 62
     7
 10
-121.07684
 20
161.40115
 42
0.067283659
  0
VERTEX
  8
0
  6
CONTINUOUS
 62
     7
 10
-122.14268
 20
164.90651
 42
0
  0
SEQEND
  8
0
  0
POLYLINE
  8
0
  6
CONTINUOUS
 62
     7
 66
     1
 10
0
 20
0
  0
VERTEX
  8
0
  6
CONTINUOUS
 62
     7
 10
-120.93022
 20
141.80652
 42
0.019162773
  0
VERTEX
  8
0
  6
CONTINUOUS
 62
     7
 10
-121.0681
 20
145.38239
 42
0.018603858
  0
VERTEX
  8
0
  6
CONTINUOUS
 62
     7
 10
-121.47526
 20
148.93774
 42
0.018212361
  0
VERTEX
  8
0
  6
CONTINUOUS
 62
     7
 10
-122.14268
 20
152.45357
 42
0
  0
SEQEND
  8
0
  0
POLYLINE
  8
0
  6
CONTINUOUS
 62
     7
 66
     1
 10
0
 20
0
  0
VERTEX
  8
0
  6
CONTINUOUS
 62
     7
 10
-136.35287
 20
66.806519
 42
0.01916166
  0
VERTEX
  8
0
  6
CONTINUOUS
 62
     7
 10
-136.21501
 20
63.230639
 42
0.018603478
  0
VERTEX
  8
0
  6
CONTINUOUS
 62
     7
 10
-135.80787
 20
59.675288
 42
0.018212825
  0
VERTEX
  8
0
  6
CONTINUOUS
 62
     7
 10
-135.14046
 20
56.159454
 42
0
  0
SEQEND
  8
0
  0
POLYLINE
  8
0
  6
CONTINUOUS
 62
     7
 66
     1
 10
0
 20
0
  0
VERTEX
  8
0
  6
CONTINUOUS
 62
     7
 10
-135.14046
 20
54.376541
 42
0.06733835
  0
VERTEX
  8
0
  6
CONTINUOUS
 62
     7
 10
-136.20656
 20
50.871296
 42
0.080048299
  0
VERTEX
  8
0
  6
CONTINUOUS
 62
     7
 10
-136.20627
 20
47.211885
 42
0.067284259
  0
VERTEX
  8
0
  6
CONTINUOUS
 62
     7
 10
-135.14046
 20
43.706528
 42
0
  0
SEQEND
  8
0
  0
POLYLINE
  8
0
  6
CONTINUOUS
 62
     7
 66
     1
 10
0
 20
0
  0
VERTEX
  8
0
  6
CONTINUOUS
 62
     7
 10
-122.14267
 20
54.376541
 42
-0.06733981
  0
VERTEX
  8
0
  6
CONTINUOUS
 62
     7
 10
-121.07655
 20
50.871297
 42
-0.080048861
  0
VERTEX
  8
0
  6
CONTINUOUS
 62
     7
 10
-121.07685
 20
47.211883
 42
-0.067285709
  0
VERTEX
  8
0
  6
CONTINUOUS
 62
     7
 10
-122.14267
 20
43.706528
 42
0
  0
SEQEND
  8
0
  0
POLYLINE
  8
0
  6
CONTINUOUS
 62
     7
 66
     1
 10
0
 20
0
  0
VERTEX
  8
0
  6
CONTINUOUS
 62
     7
 10
-120.93024
 20
66.806519
 42
-0.019161791
  0
VERTEX
  8
0
  6
CONTINUOUS
 62
     7
 10
-121.0681
 20
63.230638
 42
-0.018603818
  0
VERTEX
  8
0
  6
CONTINUOUS
 62
     7
 10
-121.47525
 20
59.675287
 42
-0.018213376
  0
VERTEX
  8
0
  6
CONTINUOUS
 62
     7
 10
-122.14267
 20
56.159454
 42
0
  0
SEQEND
  8
0
  0
POLYLINE
  8
0
  6
CONTINUOUS
 62
     7
 66
     1
 10
0
 20
0
  0
VERTEX
  8
0
  6
CONTINUOUS
 62
     7
 10
-136.35287
 20
66.806519
 42
-0.01916166
  0
VERTEX
  8
0
  6
CONTINUOUS
 62
     7
 10
-136.21501
 20
70.382398
 42
-0.018603478
  0
VERTEX
  8
0
  6
CONTINUOUS
 62
     7
 10
-135.80787
 20
73.937749
 42
-0.018212825
  0
VERTEX
  8
0
  6
CONTINUOUS
 62
     7
 10
-135.14046
 20
77.453583
 42
0
  0
SEQEND
  8
0
  0
POLYLINE
  8
0
  6
CONTINUOUS
 62
     7
 66
     1
 10
0
 20
0
  0
VERTEX
  8
0
  6
CONTINUOUS
 62
     7
 10
-135.14046
 20
79.236481
 42
-0.067338399
  0
VERTEX
  8
0
  6
CONTINUOUS
 62
     7
 10
-136.20656
 20
82.741736
 42
-0.080048168
  0
VERTEX
  8
0
  6
CONTINUOUS
 62
     7
 10
-136.20627
 20
86.401157
 42
-0.06728431
  0
VERTEX
  8
0
  6
CONTINUOUS
 62
     7
 10
-135.14046
 20
89.906525
 42
0
  0
SEQEND
  8
0
  0
POLYLINE
  8
0
  6
CONTINUOUS
 62
     7
 66
     1
 10
0
 20
0
  0
VERTEX
  8
0
  6
CONTINUOUS
 62
     7
 10
-122.14267
 20
79.236481
 42
0.067339859
  0
VERTEX
  8
0
  6
CONTINUOUS
 62
     7
 10
-121.07655
 20
82.741735
 42
0.08004873
  0
VERTEX
  8
0
  6
CONTINUOUS
 62
     7
 10
-121.07685
 20
86.401159
 42
0.067285761
  0
VERTEX
  8
0
  6
CONTINUOUS
 62
     7
 10
-122.14267
 20
89.906525
 42
0
  0
SEQEND
  8
0
  0
POLYLINE
  8
0
  6
CONTINUOUS
 62
     7
 66
     1
 10
0
 20
0
  0
VERTEX
  8
0
  6
CONTINUOUS
 62
     7
 10
-120.93024
 20
66.806519
 42
0.019161791
  0
VERTEX
  8
0
  6
CONTINUOUS
 62
     7
 10
-121.0681
 20
70.382399
 42
0.018603818
  0
VERTEX
  8
0
  6
CONTINUOUS
 62
     7
 10
-121.47525
 20
73.937751
 42
0.018213376
  0
VERTEX
  8
0
  6
CONTINUOUS
 62
     7
 10
-122.14267
 20
77.453583
 42
0
  0
SEQEND
  8
0
  0
POLYLINE
  8
0
  6
CONTINUOUS
 62
     7
 66
     1
 10
0
 20
0
  0
VERTEX
  8
0
  6
CONTINUOUS
 62
     7
 10
-118.43022
 20
216.80652
 42
-0.016924364
  0
VERTEX
  8
0
  6
CONTINUOUS
 62
     7
 10
-118.52181
 20
214.11364
 42
-0.01653495
  0
VERTEX
  8
0
  6
CONTINUOUS
 62
     7
 10
-118.79316
 20
211.43296
 42
-0.016230051
  0
VERTEX
  8
0
  6
CONTINUOUS
 62
     7
 10
-119.23851
 20
208.78094
 42
0
  0
SEQEND
  8
0
  0
POLYLINE
  8
0
  6
CONTINUOUS
 62
     7
 66
     1
 10
0
 20
0
  0
VERTEX
  8
0
  6
CONTINUOUS
 62
     7
 10
-132.0446
 20
198.90652
 42
-0.060911984
  0
VERTEX
  8
0
  6
CONTINUOUS
 62
     7
 10
-132.75676
 20
201.56165
 42
-0.069925443
  0
VERTEX
  8
0
  6
CONTINUOUS
 62
     7
 10
-132.75698
 20
204.30833
 42
-0.060971265
  0
VERTEX
  8
0
  6
CONTINUOUS
 62
     7
 10
-132.0446
 20
206.96291
 42
0
  0
SEQEND
  8
0
  0
POLYLINE
  8
0
  6
CONTINUOUS
 62
     7
 66
     1
 10
0
 20
0
  0
VERTEX
  8
0
  6
CONTINUOUS
 62
     7
 10
-119.23851
 20
206.96291
 42
-0.060980192
  0
VERTEX
  8
0
  6
CONTINUOUS
 62
     7
 10
-118.52607
 20
204.30791
 42
-0.069926221
  0
VERTEX
  8
0
  6
CONTINUOUS
 62
     7
 10
-118.52642
 20
201.56123
 42
-0.060900827
  0
VERTEX
  8
0
  6
CONTINUOUS
 62
     7
 10
-119.23851
 20
198.90652
 42
0
  0
SEQEND
  8
0
  0
POLYLINE
  8
0
  6
CONTINUOUS
 62
     7
 66
     1
 10
0
 20
0
  0
VERTEX
  8
0
  6
CONTINUOUS
 62
     7
 10
-132.0446
 20
208.78094
 42
-0.016246285
  0
VERTEX
  8
0
  6
CONTINUOUS
 62
     7
 10
-132.4903
 20
211.43552
 42
-0.016520534
  0
VERTEX
  8
0
  6
CONTINUOUS
 62
     7
 10
-132.76132
 20
214.11383
 42
-0.016923018
  0
VERTEX
  8
0
  6
CONTINUOUS
 62
     7
 10
-132.85289
 20
216.80652
 42
0
  0
SEQEND
  8
0
  0
POLYLINE
  8
0
  6
CONTINUOUS
 62
     7
 66
     1
 10
0
 20
0
  0
VERTEX
  8
0
  6
CONTINUOUS
 62
     7
 10
-118.43022
 20
216.80652
 42
0.016924364
  0
VERTEX
  8
0
  6
CONTINUOUS
 62
     7
 10
-118.52181
 20
219.4994
 42
0.01653495
  0
VERTEX
  8
0
  6
CONTINUOUS
 62
     7
 10
-118.79316
 20
222.18008
 42
0.016230051
  0
VERTEX
  8
0
  6
CONTINUOUS
 62
     7
 10
-119.23851
 20
224.83209
 42
0
  0
SEQEND
  8
0
  0
POLYLINE
  8
0
  6
CONTINUOUS
 62
     7
 66
     1
 10
0
 20
0
  0
VERTEX
  8
0
  6
CONTINUOUS
 62
     7
 10
-132.0446
 20
234.70653
 42
0.060911958
  0
VERTEX
  8
0
  6
CONTINUOUS
 62
     7
 10
-132.75676
 20
232.0514
 42
0.069925366
  0
VERTEX
  8
0
  6
CONTINUOUS
 62
     7
 10
-132.75698
 20
229.30471
 42
0.060971343
  0
VERTEX
  8
0
  6
CONTINUOUS
 62
     7
 10
-132.0446
 20
226.65013
 42
0
  0
SEQEND
  8
0
  0
POLYLINE
  8
0
  6
CONTINUOUS
 62
     7
 66
     1
 10
0
 20
0
  0
VERTEX
  8
0
  6
CONTINUOUS
 62
     7
 10
-119.23851
 20
226.65013
 42
0.060980309
  0
VERTEX
  8
0
  6
CONTINUOUS
 62
     7
 10
-118.52607
 20
229.30513
 42
0.069926141
  0
VERTEX
  8
0
  6
CONTINUOUS
 62
     7
 10
-118.52642
 20
232.05182
 42
0.060900766
  0
VERTEX
  8
0
  6
CONTINUOUS
 62
     7
 10
-119.23851
 20
234.70653
 42
0
  0
SEQEND
  8
0
  0
POLYLINE
  8
0
  6
CONTINUOUS
 62
     7
 66
     1
 10
0
 20
0
  0
VERTEX
  8
0
  6
CONTINUOUS
 62
     7
 10
-132.0446
 20
224.83209
 42
0.016246285
  0
VERTEX
  8
0
  6
CONTINUOUS
 62
     7
 10
-132.4903
 20
222.17752
 42
0.016520534
  0
VERTEX
  8
0
  6
CONTINUOUS
 62
     7
 10
-132.76132
 20
219.49921
 42
0.016923018
  0
VERTEX
  8
0
  6
CONTINUOUS
 62
     7
 10
-132.85289
 20
216.80652
 42
0
  0
SEQEND
  8
0
  0
POLYLINE
  8
0
  6
CONTINUOUS
 62
     7
 66
     1
 10
0
 20
0
  0
VERTEX
  8
0
  6
CONTINUOUS
 62
     7
 10
-98.35289
 20
66.806519
 42
-0.016924364
  0
VERTEX
  8
0
  6
CONTINUOUS
 62
     7
 10
-98.261304
 20
69.499396
 42
-0.01653495
  0
VERTEX
  8
0
  6
CONTINUOUS
 62
     7
 10
-97.989949
 20
72.18008
 42
-0.016230051
  0
VERTEX
  8
0
  6
CONTINUOUS
 62
     7
 10
-97.544601
 20
74.832092
 42
0
  0
SEQEND
  8
0
  0
POLYLINE
  8
0
  6
CONTINUOUS
 62
     7
 66
     1
 10
0
 20
0
  0
VERTEX
  8
0
  6
CONTINUOUS
 62
     7
 10
-84.738525
 20
84.706512
 42
-0.060912244
  0
VERTEX
  8
0
  6
CONTINUOUS
 62
     7
 10
-84.026369
 20
82.051385
 42
-0.069925376
  0
VERTEX
  8
0
  6
CONTINUOUS
 62
     7
 10
-84.026148
 20
79.304699
 42
-0.060971052
  0
VERTEX
  8
0
  6
CONTINUOUS
 62
     7
 10
-84.738525
 20
76.650116
 42
0
  0
SEQEND
  8
0
  0
POLYLINE
  8
0
  6
CONTINUOUS
 62
     7
 66
     1
 10
0
 20
0
  0
VERTEX
  8
0
  6
CONTINUOUS
 62
     7
 10
-97.544601
 20
76.650116
 42
-0.060980309
  0
VERTEX
  8
0
  6
CONTINUOUS
 62
     7
 10
-98.257038
 20
79.305115
 42
-0.069926141
  0
VERTEX
  8
0
  6
CONTINUOUS
 62
     7
 10
-98.256696
 20
82.051803
 42
-0.060900766
  0
VERTEX
  8
0
  6
CONTINUOUS
 62
     7
 10
-97.544601
 20
84.706512
 42
0
  0
SEQEND
  8
0
  0
POLYLINE
  8
0
  6
CONTINUOUS
 62
     7
 66
     1
 10
0
 20
0
  0
VERTEX
  8
0
  6
CONTINUOUS
 62
     7
 10
-84.738525
 20
74.832092
 42
-0.016246285
  0
VERTEX
  8
0
  6
CONTINUOUS
 62
     7
 10
-84.29283
 20
72.177518
 42
-0.016520534
  0
VERTEX
  8
0
  6
CONTINUOUS
 62
     7
 10
-84.021809
 20
69.499212
 42
-0.016923018
  0
VERTEX
  8
0
  6
CONTINUOUS
 62
     7
 10
-83.930237
 20
66.806519
 42
0
  0
SEQEND
  8
0
  0
POLYLINE
  8
0
  6
CONTINUOUS
 62
     7
 66
     1
 10
0
 20
0
  0
VERTEX
  8
0
  6
CONTINUOUS
 62
     7
 10
-98.35289
 20
66.806519
 42
0.016924364
  0
VERTEX
  8
0
  6
CONTINUOUS
 62
     7
 10
-98.261304
 20
64.113641
 42
0.01653495
  0
VERTEX
  8
0
  6
CONTINUOUS
 62
     7
 10
-97.989949
 20
61.432957
 42
0.016230051
  0
VERTEX
  8
0
  6
CONTINUOUS
 62
     7
 10
-97.544601
 20
58.780945
 42
0
  0
SEQEND
  8
0
  0
POLYLINE
  8
0
  6
CONTINUOUS
 62
     7
 66
     1
 10
0
 20
0
  0
VERTEX
  8
0
  6
CONTINUOUS
 62
     7
 10
-84.738525
 20
48.906525
 42
0.060910734
  0
VERTEX
  8
0
  6
CONTINUOUS
 62
     7
 10
-84.02636
 20
51.56165
 42
0.069928351
  0
VERTEX
  8
0
  6
CONTINUOUS
 62
     7
 10
-84.026135
 20
54.308331
 42
0.060969987
  0
VERTEX
  8
0
  6
CONTINUOUS
 62
     7
 10
-84.738525
 20
56.962906
 42
0
  0
SEQEND
  8
0
  0
POLYLINE
  8
0
  6
CONTINUOUS
 62
     7
 66
     1
 10
0
 20
0
  0
VERTEX
  8
0
  6
CONTINUOUS
 62
     7
 10
-97.544601
 20
56.962906
 42
0.060980192
  0
VERTEX
  8
0
  6
CONTINUOUS
 62
     7
 10
-98.257038
 20
54.307912
 42
0.069926221
  0
VERTEX
  8
0
  6
CONTINUOUS
 62
     7
 10
-98.256696
 20
51.561229
 42
0.060900827
  0
VERTEX
  8
0
  6
CONTINUOUS
 62
     7
 10
-97.544601
 20
48.906525
 42
0
  0
SEQEND
  8
0
  0
POLYLINE
  8
0
  6
CONTINUOUS
 62
     7
 66
     1
 10
0
 20
0
  0
VERTEX
  8
0
  6
CONTINUOUS
 62
     7
 10
-84.738525
 20
58.780945
 42
0.016246285
  0
VERTEX
  8
0
  6
CONTINUOUS
 62
     7
 10
-84.29283
 20
61.435519
 42
0.016520534
  0
VERTEX
  8
0
  6
CONTINUOUS
 62
     7
 10
-84.021809
 20
64.113825
 42
0.016923018
  0
VERTEX
  8
0
  6
CONTINUOUS
 62
     7
 10
-83.930237
 20
66.806519
 42
0
  0
SEQEND
  8
0
  0
POLYLINE
  8
0
  6
CONTINUOUS
 62
     7
 66
     1
 10
0
 20
0
  0
VERTEX
  8
0
  6
CONTINUOUS
 62
     7
 10
-84.892105
 20
224.33133
 42
0.050243315
  0
VERTEX
  8
0
  6
CONTINUOUS
 62
     7
 10
-84.483761
 20
226.24203
 42
0.054947223
  0
VERTEX
  8
0
  6
CONTINUOUS
 62
     7
 10
-84.484033
 20
228.19643
 42
0.050155784
  0
VERTEX
  8
0
  6
CONTINUOUS
 62
     7
 10
-84.892105
 20
230.10652
 42
0
  0
SEQEND
  8
0
  0
POLYLINE
  8
0
  6
CONTINUOUS
 62
     7
 66
     1
 10
0
 20
0
  0
VERTEX
  8
0
  6
CONTINUOUS
 62
     7
 10
-84.892105
 20
222.5415
 42
-0.013138069
  0
VERTEX
  8
0
  6
CONTINUOUS
 62
     7
 10
-84.636826
 20
220.64011
 42
-0.013285875
  0
VERTEX
  8
0
  6
CONTINUOUS
 62
     7
 10
-84.482236
 20
218.72704
 42
-0.013500074
  0
VERTEX
  8
0
  6
CONTINUOUS
 62
     7
 10
-84.430222
 20
216.80652
 42
0
  0
SEQEND
  8
0
  0
POLYLINE
  8
0
  6
CONTINUOUS
 62
     7
 66
     1
 10
0
 20
0
  0
VERTEX
  8
0
  6
CONTINUOUS
 62
     7
 10
-98.391006
 20
222.5415
 42
0.013138069
  0
VERTEX
  8
0
  6
CONTINUOUS
 62
     7
 10
-98.646286
 20
220.64011
 42
0.013285875
  0
VERTEX
  8
0
  6
CONTINUOUS
 62
     7
 10
-98.800875
 20
218.72704
 42
0.013500074
  0
VERTEX
  8
0
  6
CONTINUOUS
 62
     7
 10
-98.85289
 20
216.80652
 42
0
  0
SEQEND
  8
0
  0
POLYLINE
  8
0
  6
CONTINUOUS
 62
     7
 66
     1
 10
0
 20
0
  0
VERTEX
  8
0
  6
CONTINUOUS
 62
     7
 10
-98.391006
 20
224.33133
 42
-0.050243677
  0
VERTEX
  8
0
  6
CONTINUOUS
 62
     7
 10
-98.799353
 20
226.24202
 42
-0.05494714
  0
VERTEX
  8
0
  6
CONTINUOUS
 62
     7
 10
-98.799077
 20
228.19643
 42
-0.050155504
  0
VERTEX
  8
0
  6
CONTINUOUS
 62
     7
 10
-98.391006
 20
230.10652
 42
0
  0
SEQEND
  8
0
  0
POLYLINE
  8
0
  6
CONTINUOUS
 62
     7
 66
     1
 10
0
 20
0
  0
VERTEX
  8
0
  6
CONTINUOUS
 62
     7
 10
-84.892105
 20
209.28171
 42
-0.050243631
  0
VERTEX
  8
0
  6
CONTINUOUS
 62
     7
 10
-84.483759
 20
207.37101
 42
-0.054947064
  0
VERTEX
  8
0
  6
CONTINUOUS
 62
     7
 10
-84.484034
 20
205.4166
 42
-0.050155593
  0
VERTEX
  8
0
  6
CONTINUOUS
 62
     7
 10
-84.892105
 20
203.5065
 42
0
  0
SEQEND
  8
0
  0
POLYLINE
  8
0
  6
CONTINUOUS
 62
     7
 66
     1
 10
0
 20
0
  0
VERTEX
  8
0
  6
CONTINUOUS
 62
     7
 10
-84.892105
 20
211.07153
 42
0.013138069
  0
VERTEX
  8
0
  6
CONTINUOUS
 62
     7
 10
-84.636826
 20
212.97293
 42
0.013285875
  0
VERTEX
  8
0
  6
CONTINUOUS
 62
     7
 10
-84.482236
 20
214.886
 42
0.013500074
  0
VERTEX
  8
0
  6
CONTINUOUS
 62
     7
 10
-84.430222
 20
216.80652
 42
0
  0
SEQEND
  8
0
  0
POLYLINE
  8
0
  6
CONTINUOUS
 62
     7
 66
     1
 10
0
 20
0
  0
VERTEX
  8
0
  6
CONTINUOUS
 62
     7
 10
-98.391006
 20
211.07153
 42
-0.013138069
  0
VERTEX
  8
0
  6
CONTINUOUS
 62
     7
 10
-98.646286
 20
212.97293
 42
-0.013285875
  0
VERTEX
  8
0
  6
CONTINUOUS
 62
     7
 10
-98.800875
 20
214.886
 42
-0.013500074
  0
VERTEX
  8
0
  6
CONTINUOUS
 62
     7
 10
-98.85289
 20
216.80652
 42
0
  0
SEQEND
  8
0
  0
POLYLINE
  8
0
  6
CONTINUOUS
 62
     7
 66
     1
 10
0
 20
0
  0
VERTEX
  8
0
  6
CONTINUOUS
 62
     7
 10
-98.391006
 20
209.28171
 42
0.050247136
  0
VERTEX
  8
0
  6
CONTINUOUS
 62
     7
 10
-98.79933
 20
207.37101
 42
0.054938951
  0
VERTEX
  8
0
  6
CONTINUOUS
 62
     7
 10
-98.799055
 20
205.4166
 42
0.050159115
  0
VERTEX
  8
0
  6
CONTINUOUS
 62
     7
 10
-98.391006
 20
203.5065
 42
0
  0
SEQEND
  8
0
  0
POLYLINE
  8
0
  6
CONTINUOUS
 62
     7
 66
     1
 10
0
 20
0
  0
VERTEX
  8
0
  6
CONTINUOUS
 62
     7
 10
-85.39209
 20
149.33133
 42
0.05024543
  0
VERTEX
  8
0
  6
CONTINUOUS
 62
     7
 10
-84.983755
 20
151.24202
 42
0.054943083
  0
VERTEX
  8
0
  6
CONTINUOUS
 62
     7
 10
-84.984031
 20
153.19643
 42
0.050157265
  0
VERTEX
  8
0
  6
CONTINUOUS
 62
     7
 10
-85.39209
 20
155.10652
 42
0
  0
SEQEND
  8
0
  0
POLYLINE
  8
0
  6
CONTINUOUS
 62
     7
 66
     1
 10
0
 20
0
  0
VERTEX
  8
0
  6
CONTINUOUS
 62
     7
 10
-85.39209
 20
147.5415
 42
-0.013138948
  0
VERTEX
  8
0
  6
CONTINUOUS
 62
     7
 10
-85.136814
 20
145.64011
 42
-0.013285878
  0
VERTEX
  8
0
  6
CONTINUOUS
 62
     7
 10
-84.982232
 20
143.72704
 42
-0.013499193
  0
VERTEX
  8
0
  6
CONTINUOUS
 62
     7
 10
-84.930222
 20
141.80652
 42
0
  0
SEQEND
  8
0
  0
POLYLINE
  8
0
  6
CONTINUOUS
 62
     7
 66
     1
 10
0
 20
0
  0
VERTEX
  8
0
  6
CONTINUOUS
 62
     7
 10
-98.890991
 20
147.5415
 42
0.013138948
  0
VERTEX
  8
0
  6
CONTINUOUS
 62
     7
 10
-99.146267
 20
145.64011
 42
0.013285878
  0
VERTEX
  8
0
  6
CONTINUOUS
 62
     7
 10
-99.300849
 20
143.72704
 42
0.013499193
  0
VERTEX
  8
0
  6
CONTINUOUS
 62
     7
 10
-99.352859
 20
141.80652
 42
0
  0
SEQEND
  8
0
  0
POLYLINE
  8
0
  6
CONTINUOUS
 62
     7
 66
     1
 10
0
 20
0
  0
VERTEX
  8
0
  6
CONTINUOUS
 62
     7
 10
-98.890991
 20
149.33133
 42
-0.05024543
  0
VERTEX
  8
0
  6
CONTINUOUS
 62
     7
 10
-99.299326
 20
151.24202
 42
-0.054943083
  0
VERTEX
  8
0
  6
CONTINUOUS
 62
     7
 10
-99.299051
 20
153.19643
 42
-0.050157265
  0
VERTEX
  8
0
  6
CONTINUOUS
 62
     7
 10
-98.890991
 20
155.10652
 42
0
  0
SEQEND
  8
0
  0
POLYLINE
  8
0
  6
CONTINUOUS
 62
     7
 66
     1
 10
0
 20
0
  0
VERTEX
  8
0
  6
CONTINUOUS
 62
     7
 10
-85.39209
 20
134.28171
 42
-0.050243631
  0
VERTEX
  8
0
  6
CONTINUOUS
 62
     7
 10
-84.983744
 20
132.37101
 42
-0.054947064
  0
VERTEX
  8
0
  6
CONTINUOUS
 62
     7
 10
-84.984019
 20
130.4166
 42
-0.050155593
  0
VERTEX
  8
0
  6
CONTINUOUS
 62
     7
 10
-85.39209
 20
128.5065
 42
0
  0
SEQEND
  8
0
  0
POLYLINE
  8
0
  6
CONTINUOUS
 62
     7
 66
     1
 10
0
 20
0
  0
VERTEX
  8
0
  6
CONTINUOUS
 62
     7
 10
-85.39209
 20
136.07153
 42
0.013138948
  0
VERTEX
  8
0
  6
CONTINUOUS
 62
     7
 10
-85.136814
 20
137.97293
 42
0.013285878
  0
VERTEX
  8
0
  6
CONTINUOUS
 62
     7
 10
-84.982232
 20
139.886
 42
0.013499193
  0
VERTEX
  8
0
  6
CONTINUOUS
 62
     7
 10
-84.930222
 20
141.80652
 42
0
  0
SEQEND
  8
0
  0
POLYLINE
  8
0
  6
CONTINUOUS
 62
     7
 66
     1
 10
0
 20
0
  0
VERTEX
  8
0
  6
CONTINUOUS
 62
     7
 10
-98.890976
 20
136.07153
 42
-0.013138069
  0
VERTEX
  8
0
  6
CONTINUOUS
 62
     7
 10
-99.146256
 20
137.97293
 42
-0.013285875
  0
VERTEX
  8
0
  6
CONTINUOUS
 62
     7
 10
-99.300845
 20
139.886
 42
-0.013500074
  0
VERTEX
  8
0
  6
CONTINUOUS
 62
     7
 10
-99.352859
 20
141.80652
 42
0
  0
SEQEND
  8
0
  0
POLYLINE
  8
0
  6
CONTINUOUS
 62
     7
 66
     1
 10
0
 20
0
  0
VERTEX
  8
0
  6
CONTINUOUS
 62
     7
 10
-98.890976
 20
134.28171
 42
0.050243631
  0
VERTEX
  8
0
  6
CONTINUOUS
 62
     7
 10
-99.299322
 20
132.37101
 42
0.054947064
  0
VERTEX
  8
0
  6
CONTINUOUS
 62
     7
 10
-99.299047
 20
130.4166
 42
0.050155593
  0
VERTEX
  8
0
  6
CONTINUOUS
 62
     7
 10
-98.890976
 20
128.5065
 42
0
  0
SEQEND
  8
0
  0
POLYLINE
  8
0
  6
CONTINUOUS
 62
     7
 66
     1
 10
0
 20
0
  0
VERTEX
  8
0
  6
CONTINUOUS
 62
     7
 10
-110.5518
 20
208.14627
 42
0.083553144
  0
VERTEX
  8
0
  6
CONTINUOUS
 62
     7
 10
-111.72013
 20
205.33345
 42
0.11298475
  0
VERTEX
  8
0
  6
CONTINUOUS
 62
     7
 10
-111.72012
 20
202.29882
 42
0.083552429
  0
VERTEX
  8
0
  6
CONTINUOUS
 62
     7
 10
-110.5518
 20
199.48601
 42
0
  0
SEQEND
  8
0
  0
POLYLINE
  8
0
  6
CONTINUOUS
 62
     7
 66
     1
 10
0
 20
0
  0
VERTEX
  8
0
  6
CONTINUOUS
 62
     7
 10
-106.23128
 20
208.14627
 42
-0.083555473
  0
VERTEX
  8
0
  6
CONTINUOUS
 62
     7
 10
-105.06298
 20
205.33344
 42
-0.11297938
  0
VERTEX
  8
0
  6
CONTINUOUS
 62
     7
 10
-105.06298
 20
202.29882
 42
-0.083554758
  0
VERTEX
  8
0
  6
CONTINUOUS
 62
     7
 10
-106.23128
 20
199.48601
 42
0
  0
SEQEND
  8
0
  0
POLYLINE
  8
0
  6
CONTINUOUS
 62
     7
 66
     1
 10
0
 20
0
  0
VERTEX
  8
0
  6
CONTINUOUS
 62
     7
 10
-111.89156
 20
216.80652
 42
0.026227037
  0
VERTEX
  8
0
  6
CONTINUOUS
 62
     7
 10
-111.73639
 20
213.87995
 42
0.024858878
  0
VERTEX
  8
0
  6
CONTINUOUS
 62
     7
 10
-111.28386
 20
210.98428
 42
0.023918472
  0
VERTEX
  8
0
  6
CONTINUOUS
 62
     7
 10
-110.5518
 20
208.14627
 42
0
  0
SEQEND
  8
0
  0
POLYLINE
  8
0
  6
CONTINUOUS
 62
     7
 66
     1
 10
0
 20
0
  0
VERTEX
  8
0
  6
CONTINUOUS
 62
     7
 10
-104.89156
 20
216.80652
 42
-0.026225878
  0
VERTEX
  8
0
  6
CONTINUOUS
 62
     7
 10
-105.04671
 20
213.87995
 42
-0.0248589
  0
VERTEX
  8
0
  6
CONTINUOUS
 62
     7
 10
-105.49923
 20
210.98428
 42
-0.023919611
  0
VERTEX
  8
0
  6
CONTINUOUS
 62
     7
 10
-106.23128
 20
208.14627
 42
0
  0
SEQEND
  8
0
  0
POLYLINE
  8
0
  6
CONTINUOUS
 62
     7
 66
     1
 10
0
 20
0
  0
VERTEX
  8
0
  6
CONTINUOUS
 62
     7
 10
-111.03386
 20
56.414215
 42
0.083553383
  0
VERTEX
  8
0
  6
CONTINUOUS
 62
     7
 10
-112.43584
 20
53.038828
 42
0.1129842
  0
VERTEX
  8
0
  6
CONTINUOUS
 62
     7
 10
-112.43583
 20
49.39727
 42
0.083552622
  0
VERTEX
  8
0
  6
CONTINUOUS
 62
     7
 10
-111.03386
 20
46.021912
 42
0
  0
SEQEND
  8
0
  0
POLYLINE
  8
0
  6
CONTINUOUS
 62
     7
 66
     1
 10
0
 20
0
  0
VERTEX
  8
0
  6
CONTINUOUS
 62
     7
 10
-106.24925
 20
56.414215
 42
-0.083554353
  0
VERTEX
  8
0
  6
CONTINUOUS
 62
     7
 10
-104.84728
 20
53.038828
 42
-0.11298196
  0
VERTEX
  8
0
  6
CONTINUOUS
 62
     7
 10
-104.84729
 20
49.397271
 42
-0.083553593
  0
VERTEX
  8
0
  6
CONTINUOUS
 62
     7
 10
-106.24925
 20
46.021912
 42
0
  0
SEQEND
  8
0
  0
POLYLINE
  8
0
  6
CONTINUOUS
 62
     7
 66
     1
 10
0
 20
0
  0
VERTEX
  8
0
  6
CONTINUOUS
 62
     7
 10
-112.64156
 20
66.806519
 42
0.026226826
  0
VERTEX
  8
0
  6
CONTINUOUS
 62
     7
 10
-112.45536
 20
63.294634
 42
0.024858854
  0
VERTEX
  8
0
  6
CONTINUOUS
 62
     7
 10
-111.91232
 20
59.819829
 42
0.0239187
  0
VERTEX
  8
0
  6
CONTINUOUS
 62
     7
 10
-111.03386
 20
56.414215
 42
0
  0
SEQEND
  8
0
  0
POLYLINE
  8
0
  6
CONTINUOUS
 62
     7
 66
     1
 10
0
 20
0
  0
VERTEX
  8
0
  6
CONTINUOUS
 62
     7
 10
-104.64157
 20
66.806519
 42
-0.026226343
  0
VERTEX
  8
0
  6
CONTINUOUS
 62
     7
 10
-104.82777
 20
63.294635
 42
-0.024858864
  0
VERTEX
  8
0
  6
CONTINUOUS
 62
     7
 10
-105.3708
 20
59.819829
 42
-0.023919175
  0
VERTEX
  8
0
  6
CONTINUOUS
 62
     7
 10
-106.24925
 20
56.414215
 42
0
  0
SEQEND
  8
0
  0
POLYLINE
  8
0
  6
CONTINUOUS
 62
     7
 66
     1
 10
0
 20
0
  0
VERTEX
  8
0
  6
CONTINUOUS
 62
     7
 10
-110.5518
 20
225.46677
 42
-0.083553144
  0
VERTEX
  8
0
  6
CONTINUOUS
 62
     7
 10
-111.72013
 20
228.27959
 42
-0.11298475
  0
VERTEX
  8
0
  6
CONTINUOUS
 62
     7
 10
-111.72012
 20
231.31422
 42
-0.083552429
  0
VERTEX
  8
0
  6
CONTINUOUS
 62
     7
 10
-110.5518
 20
234.12703
 42
0
  0
SEQEND
  8
0
  0
POLYLINE
  8
0
  6
CONTINUOUS
 62
     7
 66
     1
 10
0
 20
0
  0
VERTEX
  8
0
  6
CONTINUOUS
 62
     7
 10
-106.23128
 20
225.46677
 42
0.083555473
  0
VERTEX
  8
0
  6
CONTINUOUS
 62
     7
 10
-105.06298
 20
228.27959
 42
0.11297938
  0
VERTEX
  8
0
  6
CONTINUOUS
 62
     7
 10
-105.06298
 20
231.31422
 42
0.083554758
  0
VERTEX
  8
0
  6
CONTINUOUS
 62
     7
 10
-106.23128
 20
234.12703
 42
0
  0
SEQEND
  8
0
  0
POLYLINE
  8
0
  6
CONTINUOUS
 62
     7
 66
     1
 10
0
 20
0
  0
VERTEX
  8
0
  6
CONTINUOUS
 62
     7
 10
-111.89156
 20
216.80652
 42
-0.026227037
  0
VERTEX
  8
0
  6
CONTINUOUS
 62
     7
 10
-111.73639
 20
219.73309
 42
-0.024858878
  0
VERTEX
  8
0
  6
CONTINUOUS
 62
     7
 10
-111.28386
 20
222.62876
 42
-0.023918472
  0
VERTEX
  8
0
  6
CONTINUOUS
 62
     7
 10
-110.5518
 20
225.46677
 42
0
  0
SEQEND
  8
0
  0
POLYLINE
  8
0
  6
CONTINUOUS
 62
     7
 66
     1
 10
0
 20
0
  0
VERTEX
  8
0
  6
CONTINUOUS
 62
     7
 10
-104.89156
 20
216.80652
 42
0.026225878
  0
VERTEX
  8
0
  6
CONTINUOUS
 62
     7
 10
-105.04671
 20
219.73309
 42
0.0248589
  0
VERTEX
  8
0
  6
CONTINUOUS
 62
     7
 10
-105.49923
 20
222.62876
 42
0.023919611
  0
VERTEX
  8
0
  6
CONTINUOUS
 62
     7
 10
-106.23128
 20
225.46677
 42
0
  0
SEQEND
  8
0
  0
POLYLINE
  8
0
  6
CONTINUOUS
 62
     7
 66
     1
 10
0
 20
0
  0
VERTEX
  8
0
  6
CONTINUOUS
 62
     7
 10
-111.03386
 20
77.198822
 42
-0.083553543
  0
VERTEX
  8
0
  6
CONTINUOUS
 62
     7
 10
-112.43584
 20
80.574208
 42
-0.11298378
  0
VERTEX
  8
0
  6
CONTINUOUS
 62
     7
 10
-112.43583
 20
84.215752
 42
-0.083552858
  0
VERTEX
  8
0
  6
CONTINUOUS
 62
     7
 10
-111.03386
 20
87.591125
 42
0
  0
SEQEND
  8
0
  0
POLYLINE
  8
0
  6
CONTINUOUS
 62
     7
 66
     1
 10
0
 20
0
  0
VERTEX
  8
0
  6
CONTINUOUS
 62
     7
 10
-106.24925
 20
77.198822
 42
0.083554514
  0
VERTEX
  8
0
  6
CONTINUOUS
 62
     7
 10
-104.84728
 20
80.574209
 42
0.11298154
  0
VERTEX
  8
0
  6
CONTINUOUS
 62
     7
 10
-104.84729
 20
84.215751
 42
0.083553829
  0
VERTEX
  8
0
  6
CONTINUOUS
 62
     7
 10
-106.24925
 20
87.591125
 42
0
  0
SEQEND
  8
0
  0
POLYLINE
  8
0
  6
CONTINUOUS
 62
     7
 66
     1
 10
0
 20
0
  0
VERTEX
  8
0
  6
CONTINUOUS
 62
     7
 10
-112.64156
 20
66.806519
 42
-0.026226826
  0
VERTEX
  8
0
  6
CONTINUOUS
 62
     7
 10
-112.45536
 20
70.318403
 42
-0.024858854
  0
VERTEX
  8
0
  6
CONTINUOUS
 62
     7
 10
-111.91232
 20
73.793208
 42
-0.0239187
  0
VERTEX
  8
0
  6
CONTINUOUS
 62
     7
 10
-111.03386
 20
77.198822
 42
0
  0
SEQEND
  8
0
  0
POLYLINE
  8
0
  6
CONTINUOUS
 62
     7
 66
     1
 10
0
 20
0
  0
VERTEX
  8
0
  6
CONTINUOUS
 62
     7
 10
-104.64157
 20
66.806519
 42
0.026226343
  0
VERTEX
  8
0
  6
CONTINUOUS
 62
     7
 10
-104.82777
 20
70.318402
 42
0.024858864
  0
VERTEX
  8
0
  6
CONTINUOUS
 62
     7
 10
-105.3708
 20
73.793208
 42
0.023919175
  0
VERTEX
  8
0
  6
CONTINUOUS
 62
     7
 10
-106.24925
 20
77.198822
 42
0
  0
SEQEND
  8
0
  0
POLYLINE
  8
0
  6
CONTINUOUS
 62
     7
 66
     1
 10
0
 20
0
  0
VERTEX
  8
0
  6
CONTINUOUS
 62
     7
 10
-111.28384
 20
131.41422
 42
0.083553383
  0
VERTEX
  8
0
  6
CONTINUOUS
 62
     7
 10
-112.68582
 20
128.03883
 42
0.1129842
  0
VERTEX
  8
0
  6
CONTINUOUS
 62
     7
 10
-112.68582
 20
124.39727
 42
0.083552622
  0
VERTEX
  8
0
  6
CONTINUOUS
 62
     7
 10
-111.28384
 20
121.02191
 42
0
  0
SEQEND
  8
0
  0
POLYLINE
  8
0
  6
CONTINUOUS
 62
     7
 66
     1
 10
0
 20
0
  0
VERTEX
  8
0
  6
CONTINUOUS
 62
     7
 10
-106.49924
 20
131.41422
 42
-0.083554353
  0
VERTEX
  8
0
  6
CONTINUOUS
 62
     7
 10
-105.09727
 20
128.03883
 42
-0.11298196
  0
VERTEX
  8
0
  6
CONTINUOUS
 62
     7
 10
-105.09727
 20
124.39727
 42
-0.083553593
  0
VERTEX
  8
0
  6
CONTINUOUS
 62
     7
 10
-106.49924
 20
121.02191
 42
0
  0
SEQEND
  8
0
  0
POLYLINE
  8
0
  6
CONTINUOUS
 62
     7
 66
     1
 10
0
 20
0
  0
VERTEX
  8
0
  6
CONTINUOUS
 62
     7
 10
-112.89154
 20
141.80652
 42
0.026226826
  0
VERTEX
  8
0
  6
CONTINUOUS
 62
     7
 10
-112.70534
 20
138.29463
 42
0.024858854
  0
VERTEX
  8
0
  6
CONTINUOUS
 62
     7
 10
-112.16231
 20
134.81983
 42
0.0239187
  0
VERTEX
  8
0
  6
CONTINUOUS
 62
     7
 10
-111.28384
 20
131.41422
 42
0
  0
SEQEND
  8
0
  0
POLYLINE
  8
0
  6
CONTINUOUS
 62
     7
 66
     1
 10
0
 20
0
  0
VERTEX
  8
0
  6
CONTINUOUS
 62
     7
 10
-104.89156
 20
141.80652
 42
-0.026226343
  0
VERTEX
  8
0
  6
CONTINUOUS
 62
     7
 10
-105.07775
 20
138.29463
 42
-0.024858864
  0
VERTEX
  8
0
  6
CONTINUOUS
 62
     7
 10
-105.62078
 20
134.81983
 42
-0.023919175
  0
VERTEX
  8
0
  6
CONTINUOUS
 62
     7
 10
-106.49924
 20
131.41422
 42
0
  0
SEQEND
  8
0
  0
POLYLINE
  8
0
  6
CONTINUOUS
 62
     7
 66
     1
 10
0
 20
0
  0
VERTEX
  8
0
  6
CONTINUOUS
 62
     7
 10
-111.28384
 20
152.19884
 42
-0.083553543
  0
VERTEX
  8
0
  6
CONTINUOUS
 62
     7
 10
-112.68583
 20
155.57422
 42
-0.11298378
  0
VERTEX
  8
0
  6
CONTINUOUS
 62
     7
 10
-112.68582
 20
159.21577
 42
-0.083552858
  0
VERTEX
  8
0
  6
CONTINUOUS
 62
     7
 10
-111.28384
 20
162.59114
 42
0
  0
SEQEND
  8
0
  0
POLYLINE
  8
0
  6
CONTINUOUS
 62
     7
 66
     1
 10
0
 20
0
  0
VERTEX
  8
0
  6
CONTINUOUS
 62
     7
 10
-106.49924
 20
152.19884
 42
0.083554514
  0
VERTEX
  8
0
  6
CONTINUOUS
 62
     7
 10
-105.09727
 20
155.57422
 42
0.11298154
  0
VERTEX
  8
0
  6
CONTINUOUS
 62
     7
 10
-105.09727
 20
159.21577
 42
0.083553829
  0
VERTEX
  8
0
  6
CONTINUOUS
 62
     7
 10
-106.49924
 20
162.59114
 42
0
  0
SEQEND
  8
0
  0
POLYLINE
  8
0
  6
CONTINUOUS
 62
     7
 66
     1
 10
0
 20
0
  0
VERTEX
  8
0
  6
CONTINUOUS
 62
     7
 10
-112.89154
 20
141.80652
 42
-0.026226778
  0
VERTEX
  8
0
  6
CONTINUOUS
 62
     7
 10
-112.70534
 20
145.31841
 42
-0.024858787
  0
VERTEX
  8
0
  6
CONTINUOUS
 62
     7
 10
-112.16231
 20
148.79322
 42
-0.023918803
  0
VERTEX
  8
0
  6
CONTINUOUS
 62
     7
 10
-111.28384
 20
152.19884
 42
0
  0
SEQEND
  8
0
  0
POLYLINE
  8
0
  6
CONTINUOUS
 62
     7
 66
     1
 10
0
 20
0
  0
VERTEX
  8
0
  6
CONTINUOUS
 62
     7
 10
-104.89156
 20
141.80652
 42
0.026226295
  0
VERTEX
  8
0
  6
CONTINUOUS
 62
     7
 10
-105.07775
 20
145.31841
 42
0.024858796
  0
VERTEX
  8
0
  6
CONTINUOUS
 62
     7
 10
-105.62078
 20
148.79322
 42
0.023919277
  0
VERTEX
  8
0
  6
CONTINUOUS
 62
     7
 10
-106.49924
 20
152.19884
 42
0
  0
SEQEND
  8
0
  0
POLYLINE
  8
0
  6
CONTINUOUS
 62
     7
 66
     1
 10
0
 20
0
  0
VERTEX
  8
0
  6
CONTINUOUS
 62
     7
 10
-136.35289
 20
141.80652
 42
0.019162134
  0
VERTEX
  8
0
  6
CONTINUOUS
 62
     7
 10
-136.21502
 20
138.23064
 42
0.018603473
  0
VERTEX
  8
0
  6
CONTINUOUS
 62
     7
 10
-135.80787
 20
134.67529
 42
0.018212355
  0
VERTEX
  8
0
  6
CONTINUOUS
 62
     7
 10
-135.14046
 20
131.15945
 42
0
  0
SEQEND
  8
0
  0
TEXT
  8
0
  6
CONTINUOUS
 62
     7
 10
-176.10388
 20
271.3978
 40
5
 41
0.84349531
  1
ＭＲ－Ｊ　　径違いソケット
  0
TEXT
  8
0
  6
CONTINUOUS
 62
     7
 10
-118.34914
 20
240.25096
 40
4.8000002
 41
1.0102042
  1
20X13
  0
TEXT
  8
0
  6
CONTINUOUS
 62
     7
 10
-119.56673
 20
92.517206
 40
4.8000002
 41
1.0102042
  1
25X20
  0
TEXT
  8
0
  6
CONTINUOUS
 62
     7
 10
-119.56673
 20
169.63098
 40
4.8000002
 41
1.0102042
  1
25X13
  0
LINE
  8
1
  6
CONTINUOUS
 62
     7
 10
-210
 20
0
 11
0
 21
0
  0
LINE
  8
1
  6
CONTINUOUS
 62
     7
 10
-210
 20
297
 11
0
 21
297
  0
LINE
  8
1
  6
CONTINUOUS
 62
     7
 10
0
 20
297
 11
0
 21
0
  0
LINE
  8
1
  6
CONTINUOUS
 62
     7
 10
-210
 20
297
 11
-210
 21
0
  0
ENDSEC
  0
EOF
