  0
SECTION
  2
HEADER
  9
$EXTMAX
 10
0
 20
297
  9
$EXTMIN
 10
-210
 20
0
  0
ENDSEC
  0
SECTION
  2
TABLES
  0
TABLE
  2
LTYPE
 70
    22
  0
LTYPE
  2
CONTINUOUS
 70
    64
  3
Solid line
 72
    65
 73
     0
 40
0.000000
  0
LTYPE
  2
DASHED
 70
    64
  3
__ __ __ __ __ __ __ __ __ __ __ __ __ __ __
 72
    65
 73
     2
 40
3.500000
 49
2.000000
 49
-1.500000
  0
LTYPE
  2
CENTER
 70
    64
  3
____ _ ____ _ ____ _ ____ _ ____ _ ____ _ ____
 72
    65
 73
     4
 40
17.500000
 49
13.000000
 49
-1.500000
 49
1.500000
 49
-1.500000
  0
LTYPE
  2
PHANTOM
 70
    64
  3
_____ _ _ _____ _ _ _____ _ _ _____ _ _ ____  
 72
    65
 73
     6
 40
15.500000
 49
8.000000
 49
-1.500000
 49
1.500000
 49
-1.500000
 49
1.500000
 49
-1.500000
  0
LTYPE
  2
DOT
 70
    64
  3
. . . . . . . . . . . . . . . . . . . . . . . .
 72
    65
 73
     2
 40
0.25
 49
0.0
 49
-0.25
  0
ENDTAB
  0
TABLE
  2
LAYER
 70
     2
  0
LAYER
  2
0
 70
     0
 62
     7
  6
CONTINUOUS
  0
LAYER
  2
1
 70
     0
 62
     7
  6
CONTINUOUS
  0
ENDTAB
  0
TABLE
  2
STYLE
 70
     1
  0
STYLE
  2
STANDARD
 70
     0
 40
0.000000
 41
1.000000
 50
0.000000
 71
     0
 42
0.200000
  3
txt
  4
BIGFONT
  0
ENDTAB
  0
TABLE
  2
VIEW
 70
     0
  0
ENDTAB
  0
ENDSEC
  0
SECTION
  2
BLOCKS
  0
ENDSEC
  0
SECTION
  2
ENTITIES
  0
POINT
  8
0
  6
CONTINUOUS
 62
     7
 10
-111.37312
 20
231.22945
  0
POINT
  8
0
  6
CONTINUOUS
 62
     7
 10
-111.37312
 20
156.22945
  0
POINT
  8
0
  6
CONTINUOUS
 62
     7
 10
-111.37312
 20
66.229446
  0
POINT
  8
0
  6
CONTINUOUS
 62
     7
 10
-111.37312
 20
66.229446
  0
LINE
  8
0
  6
CONTINUOUS
 62
     7
 10
-154.17996
 20
271.4249
 11
-152.17996
 21
271.4249
  0
LINE
  8
0
  6
CONTINUOUS
 62
     7
 10
-154.17996
 20
276.28983
 11
-152.17996
 21
276.28983
  0
LINE
  8
0
  6
CONTINUOUS
 62
     7
 10
-152.67996
 20
276.28983
 11
-152.67996
 21
271.4249
  0
LINE
  8
0
  6
CONTINUOUS
 62
     7
 10
-153.67996
 20
276.28983
 11
-153.67996
 21
271.4249
  0
LINE
  8
0
  6
CONTINUOUS
 62
     7
 10
-121.87312
 20
214.22945
 11
-100.87312
 21
214.22945
  0
LINE
  8
0
  6
CONTINUOUS
 62
     7
 10
-101.68513
 20
212.22943
 11
-101.68513
 21
214.22945
  0
LINE
  8
0
  6
CONTINUOUS
 62
     7
 10
-100.87312
 20
212.22943
 11
-100.87312
 21
215.63588
  0
LINE
  8
0
  6
CONTINUOUS
 62
     7
 10
-101.68513
 20
214.22945
 11
-100.87313
 21
215.63588
  0
LINE
  8
0
  6
CONTINUOUS
 62
     7
 10
-100.87313
 20
215.63588
 11
-100.62313
 21
216.0689
  0
LINE
  8
0
  6
CONTINUOUS
 62
     7
 10
-100.62312
 20
216.06888
 11
-100.62312
 21
218.47945
  0
LINE
  8
0
  6
CONTINUOUS
 62
     7
 10
-96.212563
 20
220.47945
 11
-98.623116
 21
220.47945
  0
LINE
  8
0
  6
CONTINUOUS
 62
     7
 10
-95.779564
 20
220.72948
 11
-96.212577
 21
220.47948
  0
LINE
  8
0
  6
CONTINUOUS
 62
     7
 10
-94.373146
 20
221.54148
 11
-95.779564
 21
220.72948
  0
LINE
  8
0
  6
CONTINUOUS
 62
     7
 10
-92.373116
 20
220.72945
 11
-95.779549
 21
220.72945
  0
LINE
  8
0
  6
CONTINUOUS
 62
     7
 10
-94.373116
 20
220.72945
 11
-94.373116
 21
241.72945
  0
LINE
  8
0
  6
CONTINUOUS
 62
     7
 10
-92.373116
 20
221.54146
 11
-94.373116
 21
221.54146
  0
LINE
  8
0
  6
CONTINUOUS
 62
     7
 10
-121.87312
 20
212.22943
 11
-121.87312
 21
215.63588
  0
LINE
  8
0
  6
CONTINUOUS
 62
     7
 10
-121.87312
 20
215.63588
 11
-122.12312
 21
216.06889
  0
LINE
  8
0
  6
CONTINUOUS
 62
     7
 10
-122.12312
 20
216.06888
 11
-122.12312
 21
223.22945
  0
LINE
  8
0
  6
CONTINUOUS
 62
     7
 10
-96.212563
 20
241.97945
 11
-103.37312
 21
241.97945
  0
LINE
  8
0
  6
CONTINUOUS
 62
     7
 10
-95.779554
 20
241.72946
 11
-96.212566
 21
241.97946
  0
LINE
  8
0
  6
CONTINUOUS
 62
     7
 10
-92.373116
 20
241.72945
 11
-95.779549
 21
241.72945
  0
LINE
  8
0
  6
CONTINUOUS
 62
     7
 10
-122.12312
 20
223.22945
 11
-106.59528
 21
223.22945
  0
LINE
  8
0
  6
CENTER
 62
     7
 10
-124.93699
 20
231.22945
 11
-75.336311
 21
231.22945
  0
LINE
  8
0
  6
CENTER
 62
     7
 10
-111.37312
 20
194.54021
 11
-111.37312
 21
246.77306
  0
LINE
  8
0
  6
CONTINUOUS
 62
     7
 10
-103.37312
 20
241.97945
 11
-103.37312
 21
226.4516
  0
LINE
  8
0
  6
CONTINUOUS
 62
     7
 10
-121.06112
 20
214.22946
 11
-121.87312
 21
215.63588
  0
LINE
  8
0
  6
CONTINUOUS
 62
     7
 10
-121.0611
 20
212.22943
 11
-121.0611
 21
214.22945
  0
LINE
  8
0
  6
CONTINUOUS
 62
     7
 10
-94.373135
 20
240.91746
 11
-95.779554
 21
241.72946
  0
LINE
  8
0
  6
CONTINUOUS
 62
     7
 10
-92.373116
 20
240.91745
 11
-94.373116
 21
240.91745
  0
LINE
  8
0
  6
CONTINUOUS
 62
     7
 10
-124.5611
 20
133.22946
 11
-124.5611
 21
135.22945
  0
LINE
  8
0
  6
CONTINUOUS
 62
     7
 10
-125.37312
 20
133.22946
 11
-125.37312
 21
136.63588
  0
LINE
  8
0
  6
CONTINUOUS
 62
     7
 10
-124.56113
 20
135.22946
 11
-125.37313
 21
136.63588
  0
LINE
  8
0
  6
CONTINUOUS
 62
     7
 10
-125.37313
 20
136.63588
 11
-125.62313
 21
137.06889
  0
LINE
  8
0
  6
CONTINUOUS
 62
     7
 10
-125.62312
 20
137.06889
 11
-125.62312
 21
145.22945
  0
LINE
  8
0
  6
CENTER
 62
     7
 10
-111.37312
 20
172.73615
 11
-111.37312
 21
113.95234
  0
LINE
  8
0
  6
CENTER
 62
     7
 10
-127.87983
 20
156.22945
 11
-69.255775
 21
156.22945
  0
LINE
  8
0
  6
CONTINUOUS
 62
     7
 10
-100.37312
 20
170.47945
 11
-92.212547
 21
170.47945
  0
LINE
  8
0
  6
CONTINUOUS
 62
     7
 10
-92.212531
 20
170.47944
 11
-91.779518
 21
170.22944
  0
LINE
  8
0
  6
CONTINUOUS
 62
     7
 10
-91.779518
 20
170.22944
 11
-90.373099
 21
169.41744
  0
LINE
  8
0
  6
CONTINUOUS
 62
     7
 10
-91.779533
 20
170.22945
 11
-88.373131
 21
170.22945
  0
LINE
  8
0
  6
CONTINUOUS
 62
     7
 10
-90.373116
 20
169.41745
 11
-88.373131
 21
169.41745
  0
LINE
  8
0
  6
CONTINUOUS
 62
     7
 10
-90.373116
 20
170.22945
 11
-90.373116
 21
142.22945
  0
LINE
  8
0
  6
CONTINUOUS
 62
     7
 10
-90.373116
 20
143.04144
 11
-88.373131
 21
143.04144
  0
LINE
  8
0
  6
CONTINUOUS
 62
     7
 10
-91.779533
 20
142.22945
 11
-88.373131
 21
142.22945
  0
LINE
  8
0
  6
CONTINUOUS
 62
     7
 10
-91.779549
 20
142.22946
 11
-90.373116
 21
143.04147
  0
LINE
  8
0
  6
CONTINUOUS
 62
     7
 10
-92.212561
 20
141.97946
 11
-91.779549
 21
142.22946
  0
LINE
  8
0
  6
CONTINUOUS
 62
     7
 10
-95.123116
 20
141.97945
 11
-92.212547
 21
141.97945
  0
LINE
  8
0
  6
CONTINUOUS
 62
     7
 10
-97.123116
 20
137.06889
 11
-97.123116
 21
139.97945
  0
LINE
  8
0
  6
CONTINUOUS
 62
     7
 10
-97.373098
 20
136.63586
 11
-97.123098
 21
137.06888
  0
LINE
  8
0
  6
CONTINUOUS
 62
     7
 10
-98.185094
 20
135.22945
 11
-97.373098
 21
136.63586
  0
LINE
  8
0
  6
CONTINUOUS
 62
     7
 10
-125.37312
 20
135.22945
 11
-97.373116
 21
135.22945
  0
LINE
  8
0
  6
CONTINUOUS
 62
     7
 10
-98.185112
 20
133.22946
 11
-98.185112
 21
135.22945
  0
LINE
  8
0
  6
CONTINUOUS
 62
     7
 10
-97.373116
 20
133.22946
 11
-97.373116
 21
136.63588
  0
LINE
  8
0
  6
CONTINUOUS
 62
     7
 10
-125.62312
 20
145.22945
 11
-103.82117
 21
145.22945
  0
LINE
  8
0
  6
CONTINUOUS
 62
     7
 10
-100.37312
 20
170.47945
 11
-100.37312
 21
148.67749
  0
LINE
  8
0
  6
CONTINUOUS
 62
     7
 10
-129.37312
 20
37.229446
 11
-129.37312
 21
40.229446
  0
LINE
  8
0
  6
CONTINUOUS
 62
     7
 10
-128.56113
 20
37.229446
 11
-128.56113
 21
41.114929
  0
LINE
  8
0
  6
CONTINUOUS
 62
     7
 10
-128.37312
 20
41.961502
 11
-128.37312
 21
51.229446
  0
LINE
  8
0
  6
CONTINUOUS
 62
     7
 10
-128.37312
 20
51.229446
 11
-100.14558
 21
51.229446
  0
LINE
  8
0
  6
CENTER
 62
     7
 10
-111.37312
 20
84.504807
 11
-111.37312
 21
15.897461
  0
LINE
  8
0
  6
CONTINUOUS
 62
     7
 10
-96.373116
 20
83.229446
 11
-87.105156
 21
83.229446
  0
LINE
  8
0
  6
CONTINUOUS
 62
     7
 10
-85.373116
 20
84.229446
 11
-82.373116
 21
84.229446
  0
LINE
  8
0
  6
CONTINUOUS
 62
     7
 10
-86.258583
 20
83.417465
 11
-82.373116
 21
83.417465
  0
LINE
  8
0
  6
CONTINUOUS
 62
     7
 10
-85.373116
 20
48.229446
 11
-82.373116
 21
48.229446
  0
LINE
  8
0
  6
CONTINUOUS
 62
     7
 10
-86.258598
 20
49.041443
 11
-82.373116
 21
49.041443
  0
LINE
  8
0
  6
CONTINUOUS
 62
     7
 10
-85.373116
 20
84.229446
 11
-85.373116
 21
48.229446
  0
LINE
  8
0
  6
CONTINUOUS
 62
     7
 10
-92.373116
 20
49.229446
 11
-87.105156
 21
49.229446
  0
LINE
  8
0
  6
CONTINUOUS
 62
     7
 10
-94.373116
 20
41.961502
 11
-94.373116
 21
47.229446
  0
LINE
  8
0
  6
CONTINUOUS
 62
     7
 10
-94.185112
 20
37.229446
 11
-94.185112
 21
41.114929
  0
LINE
  8
0
  6
CONTINUOUS
 62
     7
 10
-93.373116
 20
37.229446
 11
-93.373116
 21
40.229446
  0
LINE
  8
0
  6
CONTINUOUS
 62
     7
 10
-129.37312
 20
40.229446
 11
-93.373116
 21
40.229446
  0
LINE
  8
0
  6
CONTINUOUS
 62
     7
 10
-96.373116
 20
83.229446
 11
-96.373116
 21
55.001907
  0
LINE
  8
0
  6
CENTER
 62
     7
 10
-129.64848
 20
66.229446
 11
-60.858437
 21
66.229446
  0
LINE
  8
0
  6
CONTINUOUS
 62
     7
 10
-105.63813
 20
197.98
 11
-103.8483
 21
197.98
  0
LINE
  8
0
  6
CONTINUOUS
 62
     7
 10
-105.63813
 20
197.98
 11
-105.63813
 21
211.4789
  0
LINE
  8
0
  6
CONTINUOUS
 62
     7
 10
-103.8483
 20
197.98
 11
-103.8483
 21
211.4789
  0
LINE
  8
0
  6
CONTINUOUS
 62
     7
 10
-105.63813
 20
211.47888
 11
-103.8483
 21
211.47888
  0
LINE
  8
0
  6
CONTINUOUS
 62
     7
 10
-111.37312
 20
212.22943
 11
-99.373116
 21
212.22943
  0
LINE
  8
0
  6
CONTINUOUS
 62
     7
 10
-98.073138
 20
211.4789
 11
-99.373127
 21
212.22945
  0
LINE
  8
0
  6
CONTINUOUS
 62
     7
 10
-98.073128
 20
197.98
 11
-98.073128
 21
211.4789
  0
LINE
  8
0
  6
CONTINUOUS
 62
     7
 10
-99.373126
 20
197.22945
 11
-98.073123
 21
197.98001
  0
LINE
  8
0
  6
CONTINUOUS
 62
     7
 10
-111.37312
 20
197.22945
 11
-99.373116
 21
197.22945
  0
LINE
  8
0
  6
CONTINUOUS
 62
     7
 10
-117.1081
 20
197.98
 11
-118.89793
 21
197.98
  0
LINE
  8
0
  6
CONTINUOUS
 62
     7
 10
-117.1081
 20
197.98
 11
-117.1081
 21
211.47888
  0
LINE
  8
0
  6
CONTINUOUS
 62
     7
 10
-118.89793
 20
197.98
 11
-118.89793
 21
211.4789
  0
LINE
  8
0
  6
CONTINUOUS
 62
     7
 10
-117.1081
 20
211.47888
 11
-118.89793
 21
211.47888
  0
LINE
  8
0
  6
CONTINUOUS
 62
     7
 10
-111.37312
 20
212.22943
 11
-123.37312
 21
212.22943
  0
LINE
  8
0
  6
CONTINUOUS
 62
     7
 10
-124.6731
 20
211.47892
 11
-123.3731
 21
212.22947
  0
LINE
  8
0
  6
CONTINUOUS
 62
     7
 10
-124.67313
 20
197.98
 11
-124.67313
 21
211.47888
  0
LINE
  8
0
  6
CONTINUOUS
 62
     7
 10
-123.37309
 20
197.22944
 11
-124.67311
 21
197.98
  0
LINE
  8
0
  6
CONTINUOUS
 62
     7
 10
-111.37312
 20
197.22945
 11
-123.37312
 21
197.22945
  0
LINE
  8
0
  6
CONTINUOUS
 62
     7
 10
-93.473104
 20
119.32642
 11
-95.373111
 21
118.22945
  0
LINE
  8
0
  6
CONTINUOUS
 62
     7
 10
-93.473122
 20
132.13249
 11
-93.473122
 21
119.32642
  0
LINE
  8
0
  6
CONTINUOUS
 62
     7
 10
-95.373116
 20
133.22945
 11
-93.473136
 21
132.13249
  0
LINE
  8
0
  6
CONTINUOUS
 62
     7
 10
-111.37312
 20
133.22946
 11
-95.373116
 21
133.22946
  0
LINE
  8
0
  6
CONTINUOUS
 62
     7
 10
-103.34754
 20
132.13249
 11
-101.5295
 21
132.13249
  0
LINE
  8
0
  6
CONTINUOUS
 62
     7
 10
-101.5295
 20
132.13249
 11
-101.5295
 21
119.32642
  0
LINE
  8
0
  6
CONTINUOUS
 62
     7
 10
-103.34754
 20
132.13249
 11
-103.34754
 21
119.32642
  0
LINE
  8
0
  6
CONTINUOUS
 62
     7
 10
-111.37312
 20
118.22945
 11
-95.373116
 21
118.22945
  0
LINE
  8
0
  6
CONTINUOUS
 62
     7
 10
-103.34754
 20
119.32642
 11
-101.5295
 21
119.32642
  0
LINE
  8
0
  6
CONTINUOUS
 62
     7
 10
-129.27311
 20
119.32642
 11
-127.3731
 21
118.22945
  0
LINE
  8
0
  6
CONTINUOUS
 62
     7
 10
-129.27312
 20
132.13249
 11
-129.27312
 21
119.32642
  0
LINE
  8
0
  6
CONTINUOUS
 62
     7
 10
-127.3731
 20
133.22945
 11
-129.27309
 21
132.13248
  0
LINE
  8
0
  6
CONTINUOUS
 62
     7
 10
-111.37312
 20
133.22946
 11
-127.37312
 21
133.22946
  0
LINE
  8
0
  6
CONTINUOUS
 62
     7
 10
-119.39869
 20
132.13249
 11
-121.21674
 21
132.13249
  0
LINE
  8
0
  6
CONTINUOUS
 62
     7
 10
-121.21674
 20
132.13249
 11
-121.21674
 21
119.32642
  0
LINE
  8
0
  6
CONTINUOUS
 62
     7
 10
-119.39869
 20
132.13249
 11
-119.39869
 21
119.32642
  0
LINE
  8
0
  6
CONTINUOUS
 62
     7
 10
-111.37312
 20
118.22945
 11
-127.37312
 21
118.22945
  0
LINE
  8
0
  6
CONTINUOUS
 62
     7
 10
-119.39869
 20
119.32642
 11
-121.21674
 21
119.32642
  0
LINE
  8
0
  6
CONTINUOUS
 62
     7
 10
-74.470085
 20
174.12945
 11
-73.373116
 21
172.22944
  0
LINE
  8
0
  6
CONTINUOUS
 62
     7
 10
-87.276161
 20
174.12944
 11
-74.470085
 21
174.12944
  0
LINE
  8
0
  6
CONTINUOUS
 62
     7
 10
-88.373107
 20
172.22943
 11
-87.276145
 21
174.12942
  0
LINE
  8
0
  6
CONTINUOUS
 62
     7
 10
-88.373131
 20
156.22945
 11
-88.373131
 21
172.22945
  0
LINE
  8
0
  6
CONTINUOUS
 62
     7
 10
-87.276161
 20
164.25502
 11
-87.276161
 21
166.07306
  0
LINE
  8
0
  6
CONTINUOUS
 62
     7
 10
-87.276161
 20
166.07306
 11
-74.470085
 21
166.07306
  0
LINE
  8
0
  6
CONTINUOUS
 62
     7
 10
-87.276161
 20
164.25502
 11
-74.470085
 21
164.25502
  0
LINE
  8
0
  6
CONTINUOUS
 62
     7
 10
-73.373116
 20
156.22945
 11
-73.373116
 21
172.22945
  0
LINE
  8
0
  6
CONTINUOUS
 62
     7
 10
-74.470085
 20
164.25502
 11
-74.470085
 21
166.07306
  0
LINE
  8
0
  6
CONTINUOUS
 62
     7
 10
-74.470062
 20
138.32944
 11
-73.373096
 21
140.22944
  0
LINE
  8
0
  6
CONTINUOUS
 62
     7
 10
-87.276161
 20
138.32945
 11
-74.470085
 21
138.32945
  0
LINE
  8
0
  6
CONTINUOUS
 62
     7
 10
-88.373113
 20
140.22946
 11
-87.276151
 21
138.32947
  0
LINE
  8
0
  6
CONTINUOUS
 62
     7
 10
-88.373131
 20
156.22945
 11
-88.373131
 21
140.22945
  0
LINE
  8
0
  6
CONTINUOUS
 62
     7
 10
-87.276161
 20
148.20387
 11
-87.276161
 21
146.38583
  0
LINE
  8
0
  6
CONTINUOUS
 62
     7
 10
-87.276161
 20
146.38583
 11
-74.470085
 21
146.38583
  0
LINE
  8
0
  6
CONTINUOUS
 62
     7
 10
-87.276161
 20
148.20387
 11
-74.470085
 21
148.20387
  0
LINE
  8
0
  6
CONTINUOUS
 62
     7
 10
-73.373116
 20
156.22945
 11
-73.373116
 21
140.22945
  0
LINE
  8
0
  6
CONTINUOUS
 62
     7
 10
-74.470085
 20
148.20387
 11
-74.470085
 21
146.38583
  0
LINE
  8
0
  6
CONTINUOUS
 62
     7
 10
-78.123665
 20
236.96443
 11
-78.123665
 21
238.75426
  0
LINE
  8
0
  6
CONTINUOUS
 62
     7
 10
-78.123665
 20
236.96443
 11
-91.622566
 21
236.96443
  0
LINE
  8
0
  6
CONTINUOUS
 62
     7
 10
-78.123665
 20
238.75426
 11
-91.622566
 21
238.75426
  0
LINE
  8
0
  6
CONTINUOUS
 62
     7
 10
-91.622566
 20
236.96443
 11
-91.622566
 21
238.75426
  0
LINE
  8
0
  6
CONTINUOUS
 62
     7
 10
-92.373116
 20
231.22945
 11
-92.373116
 21
243.22945
  0
LINE
  8
0
  6
CONTINUOUS
 62
     7
 10
-91.622556
 20
244.52944
 11
-92.373113
 21
243.22944
  0
LINE
  8
0
  6
CONTINUOUS
 62
     7
 10
-78.123665
 20
244.52945
 11
-91.622566
 21
244.52945
  0
LINE
  8
0
  6
CONTINUOUS
 62
     7
 10
-77.373121
 20
243.22944
 11
-78.123671
 21
244.52943
  0
LINE
  8
0
  6
CONTINUOUS
 62
     7
 10
-77.373116
 20
231.22945
 11
-77.373116
 21
243.22945
  0
LINE
  8
0
  6
CONTINUOUS
 62
     7
 10
-78.123665
 20
225.49446
 11
-78.123665
 21
223.70464
  0
LINE
  8
0
  6
CONTINUOUS
 62
     7
 10
-78.123665
 20
225.49446
 11
-91.622566
 21
225.49446
  0
LINE
  8
0
  6
CONTINUOUS
 62
     7
 10
-78.123665
 20
223.70464
 11
-91.622566
 21
223.70464
  0
LINE
  8
0
  6
CONTINUOUS
 62
     7
 10
-91.622566
 20
225.49446
 11
-91.622566
 21
223.70464
  0
LINE
  8
0
  6
CONTINUOUS
 62
     7
 10
-92.373116
 20
231.22945
 11
-92.373116
 21
219.22945
  0
LINE
  8
0
  6
CONTINUOUS
 62
     7
 10
-91.622564
 20
217.92946
 11
-92.373129
 21
219.22948
  0
LINE
  8
0
  6
CONTINUOUS
 62
     7
 10
-78.123665
 20
217.92944
 11
-91.622566
 21
217.92944
  0
LINE
  8
0
  6
CONTINUOUS
 62
     7
 10
-77.373098
 20
219.22945
 11
-78.123655
 21
217.92945
  0
LINE
  8
0
  6
CONTINUOUS
 62
     7
 10
-77.373116
 20
231.22945
 11
-77.373116
 21
219.22945
  0
LINE
  8
0
  6
CONTINUOUS
 62
     7
 10
-66.373116
 20
66.229446
 11
-66.373116
 21
86.729446
  0
LINE
  8
0
  6
CONTINUOUS
 62
     7
 10
-67.874214
 20
76.876511
 11
-67.874214
 21
78.659439
  0
LINE
  8
0
  6
CONTINUOUS
 62
     7
 10
-80.872002
 20
76.876511
 11
-67.874214
 21
76.876511
  0
LINE
  8
0
  6
CONTINUOUS
 62
     7
 10
-80.872002
 20
78.659439
 11
-67.874214
 21
78.659439
  0
LINE
  8
0
  6
CONTINUOUS
 62
     7
 10
-80.872002
 20
76.876511
 11
-80.872002
 21
78.659439
  0
LINE
  8
0
  6
CONTINUOUS
 62
     7
 10
-82.373116
 20
66.229446
 11
-82.373116
 21
86.729446
  0
LINE
  8
0
  6
CONTINUOUS
 62
     7
 10
-82.373127
 20
86.729462
 11
-80.872013
 21
89.329468
  0
LINE
  8
0
  6
CONTINUOUS
 62
     7
 10
-80.872002
 20
89.329453
 11
-67.874214
 21
89.329453
  0
LINE
  8
0
  6
CONTINUOUS
 62
     7
 10
-67.874222
 20
89.329453
 11
-66.373108
 21
86.729446
  0
LINE
  8
0
  6
CONTINUOUS
 62
     7
 10
-66.373116
 20
66.229446
 11
-66.373116
 21
45.729446
  0
LINE
  8
0
  6
CONTINUOUS
 62
     7
 10
-67.874214
 20
55.582382
 11
-67.874214
 21
53.799469
  0
LINE
  8
0
  6
CONTINUOUS
 62
     7
 10
-80.872002
 20
55.582382
 11
-67.874214
 21
55.582382
  0
LINE
  8
0
  6
CONTINUOUS
 62
     7
 10
-80.872002
 20
53.799469
 11
-67.874214
 21
53.799469
  0
LINE
  8
0
  6
CONTINUOUS
 62
     7
 10
-80.872002
 20
55.582382
 11
-80.872002
 21
53.799469
  0
LINE
  8
0
  6
CONTINUOUS
 62
     7
 10
-82.373116
 20
66.229446
 11
-82.373116
 21
45.729446
  0
LINE
  8
0
  6
CONTINUOUS
 62
     7
 10
-82.373123
 20
45.729446
 11
-80.872009
 21
43.12944
  0
LINE
  8
0
  6
CONTINUOUS
 62
     7
 10
-80.872002
 20
43.129456
 11
-67.874214
 21
43.129456
  0
LINE
  8
0
  6
CONTINUOUS
 62
     7
 10
-67.874222
 20
43.129456
 11
-66.373108
 21
45.729462
  0
LINE
  8
0
  6
CONTINUOUS
 62
     7
 10
-111.37312
 20
21.229446
 11
-90.873116
 21
21.229446
  0
LINE
  8
0
  6
CONTINUOUS
 62
     7
 10
-100.72605
 20
22.730545
 11
-98.943138
 21
22.730545
  0
LINE
  8
0
  6
CONTINUOUS
 62
     7
 10
-100.72605
 20
35.728333
 11
-100.72605
 21
22.730545
  0
LINE
  8
0
  6
CONTINUOUS
 62
     7
 10
-98.943138
 20
35.728333
 11
-98.943138
 21
22.730545
  0
LINE
  8
0
  6
CONTINUOUS
 62
     7
 10
-100.72605
 20
35.728333
 11
-98.943138
 21
35.728333
  0
LINE
  8
0
  6
CONTINUOUS
 62
     7
 10
-111.37312
 20
37.229446
 11
-90.873116
 21
37.229446
  0
LINE
  8
0
  6
CONTINUOUS
 62
     7
 10
-90.87311
 20
37.229446
 11
-88.273105
 21
35.728333
  0
LINE
  8
0
  6
CONTINUOUS
 62
     7
 10
-88.273125
 20
35.728333
 11
-88.273125
 21
22.730545
  0
LINE
  8
0
  6
CONTINUOUS
 62
     7
 10
-88.273122
 20
22.730545
 11
-90.873127
 21
21.229431
  0
LINE
  8
0
  6
CONTINUOUS
 62
     7
 10
-111.37312
 20
21.229446
 11
-131.87312
 21
21.229446
  0
LINE
  8
0
  6
CONTINUOUS
 62
     7
 10
-122.02018
 20
22.730545
 11
-123.80309
 21
22.730545
  0
LINE
  8
0
  6
CONTINUOUS
 62
     7
 10
-122.02018
 20
35.728333
 11
-122.02018
 21
22.730545
  0
LINE
  8
0
  6
CONTINUOUS
 62
     7
 10
-123.80309
 20
35.728333
 11
-123.80309
 21
22.730545
  0
LINE
  8
0
  6
CONTINUOUS
 62
     7
 10
-122.02018
 20
35.728333
 11
-123.80309
 21
35.728333
  0
LINE
  8
0
  6
CONTINUOUS
 62
     7
 10
-111.37312
 20
37.229446
 11
-131.87312
 21
37.229446
  0
LINE
  8
0
  6
CONTINUOUS
 62
     7
 10
-131.87312
 20
37.229462
 11
-134.47313
 21
35.728348
  0
LINE
  8
0
  6
CONTINUOUS
 62
     7
 10
-134.47311
 20
35.728333
 11
-134.47311
 21
22.730545
  0
LINE
  8
0
  6
CONTINUOUS
 62
     7
 10
-134.47311
 20
22.730545
 11
-131.8731
 21
21.229431
  0
ARC
  8
0
  6
CONTINUOUS
 62
     7
 10
-98.623116
 20
218.47945
 40
2
 50
90.000003
 51
180.00001
  0
ARC
  8
0
  6
CONTINUOUS
 62
     7
 10
-122.82813
 20
224.55345
 40
1.5
 50
298.0343
 51
356.10677
  0
ARC
  8
0
  6
CONTINUOUS
 62
     7
 10
-103.37312
 20
223.22945
 40
18
 50
93.893231
 51
176.10677
  0
ARC
  8
0
  6
CONTINUOUS
 62
     7
 10
-104.69712
 20
242.68445
 40
1.5
 50
273.89323
 51
331.9657
  0
ARC
  8
0
  6
CONTINUOUS
 62
     7
 10
-106.59528
 20
226.4516
 40
3.2221534
 50
270
 51
0
  0
ARC
  8
0
  6
CONTINUOUS
 62
     7
 10
-126.89112
 20
146.77611
 40
2
 50
309.34647
 51
357.17404
  0
ARC
  8
0
  6
CONTINUOUS
 62
     7
 10
-100.62312
 20
145.47945
 40
24.299999
 50
92.825966
 51
177.17404
  0
ARC
  8
0
  6
CONTINUOUS
 62
     7
 10
-101.91978
 20
171.74747
 40
2
 50
272.82596
 51
320.65353
  0
ARC
  8
0
  6
CONTINUOUS
 62
     7
 10
-95.123116
 20
139.97945
 40
2
 50
90.000003
 51
180.00001
  0
ARC
  8
0
  6
CONTINUOUS
 62
     7
 10
-103.82117
 20
148.67749
 40
3.4480479
 50
270
 51
0
  0
ARC
  8
0
  6
CONTINUOUS
 62
     7
 10
-130.37312
 20
41.961502
 40
2
 50
300
 51
0
  0
ARC
  8
0
  6
CONTINUOUS
 62
     7
 10
-129.84578
 20
52.582687
 40
2
 50
317.41956
 51
0
  0
ARC
  8
0
  6
CONTINUOUS
 62
     7
 10
-96.373116
 20
51.229446
 40
31.5
 50
92.315122
 51
177.68489
  0
ARC
  8
0
  6
CONTINUOUS
 62
     7
 10
-97.726357
 20
84.702103
 40
2
 50
272.31512
 51
312.58044
  0
ARC
  8
0
  6
CONTINUOUS
 62
     7
 10
-87.105156
 20
85.229446
 40
2
 50
270
 51
329.99999
  0
ARC
  8
0
  6
CONTINUOUS
 62
     7
 10
-87.105156
 20
47.229446
 40
2
 50
30.000001
 51
90.000003
  0
ARC
  8
0
  6
CONTINUOUS
 62
     7
 10
-92.373116
 20
47.229446
 40
2
 50
90.000003
 51
180.00001
  0
ARC
  8
0
  6
CONTINUOUS
 62
     7
 10
-92.373116
 20
41.961502
 40
2
 50
180.00001
 51
240.00001
  0
ARC
  8
0
  6
CONTINUOUS
 62
     7
 10
-100.14558
 20
55.001907
 40
3.7724583
 50
270
 51
0
  0
POLYLINE
  8
0
  6
CONTINUOUS
 62
     7
 66
     1
 10
0
 20
0
  0
VERTEX
  8
0
  6
CONTINUOUS
 62
     7
 10
-103.8483
 20
197.98
 42
0.050245114
  0
VERTEX
  8
0
  6
CONTINUOUS
 62
     7
 10
-101.93762
 20
197.57166
 42
0.054943242
  0
VERTEX
  8
0
  6
CONTINUOUS
 62
     7
 10
-99.983213
 20
197.57193
 42
0.050157456
  0
VERTEX
  8
0
  6
CONTINUOUS
 62
     7
 10
-98.073128
 20
197.98
 42
0
  0
SEQEND
  8
0
  0
POLYLINE
  8
0
  6
CONTINUOUS
 62
     7
 66
     1
 10
0
 20
0
  0
VERTEX
  8
0
  6
CONTINUOUS
 62
     7
 10
-105.63813
 20
197.98
 42
-0.013138948
  0
VERTEX
  8
0
  6
CONTINUOUS
 62
     7
 10
-107.53952
 20
197.72472
 42
-0.013285878
  0
VERTEX
  8
0
  6
CONTINUOUS
 62
     7
 10
-109.45259
 20
197.57014
 42
-0.013499193
  0
VERTEX
  8
0
  6
CONTINUOUS
 62
     7
 10
-111.37312
 20
197.51813
 42
0
  0
SEQEND
  8
0
  0
POLYLINE
  8
0
  6
CONTINUOUS
 62
     7
 66
     1
 10
0
 20
0
  0
VERTEX
  8
0
  6
CONTINUOUS
 62
     7
 10
-105.63813
 20
211.4789
 42
0.013138948
  0
VERTEX
  8
0
  6
CONTINUOUS
 62
     7
 10
-107.53952
 20
211.73417
 42
0.013285878
  0
VERTEX
  8
0
  6
CONTINUOUS
 62
     7
 10
-109.45259
 20
211.88875
 42
0.013499193
  0
VERTEX
  8
0
  6
CONTINUOUS
 62
     7
 10
-111.37312
 20
211.94077
 42
0
  0
SEQEND
  8
0
  0
POLYLINE
  8
0
  6
CONTINUOUS
 62
     7
 66
     1
 10
0
 20
0
  0
VERTEX
  8
0
  6
CONTINUOUS
 62
     7
 10
-103.8483
 20
211.4789
 42
-0.050245114
  0
VERTEX
  8
0
  6
CONTINUOUS
 62
     7
 10
-101.93762
 20
211.88723
 42
-0.054943242
  0
VERTEX
  8
0
  6
CONTINUOUS
 62
     7
 10
-99.983213
 20
211.88696
 42
-0.050157456
  0
VERTEX
  8
0
  6
CONTINUOUS
 62
     7
 10
-98.073128
 20
211.4789
 42
0
  0
SEQEND
  8
0
  0
POLYLINE
  8
0
  6
CONTINUOUS
 62
     7
 66
     1
 10
0
 20
0
  0
VERTEX
  8
0
  6
CONTINUOUS
 62
     7
 10
-118.89793
 20
197.98
 42
-0.050245383
  0
VERTEX
  8
0
  6
CONTINUOUS
 62
     7
 10
-120.80863
 20
197.57166
 42
-0.054943008
  0
VERTEX
  8
0
  6
CONTINUOUS
 62
     7
 10
-122.76304
 20
197.57194
 42
-0.050157354
  0
VERTEX
  8
0
  6
CONTINUOUS
 62
     7
 10
-124.67313
 20
197.98
 42
0
  0
SEQEND
  8
0
  0
POLYLINE
  8
0
  6
CONTINUOUS
 62
     7
 66
     1
 10
0
 20
0
  0
VERTEX
  8
0
  6
CONTINUOUS
 62
     7
 10
-117.1081
 20
197.98
 42
0.013138948
  0
VERTEX
  8
0
  6
CONTINUOUS
 62
     7
 10
-115.20671
 20
197.72472
 42
0.013285878
  0
VERTEX
  8
0
  6
CONTINUOUS
 62
     7
 10
-113.29364
 20
197.57014
 42
0.013499193
  0
VERTEX
  8
0
  6
CONTINUOUS
 62
     7
 10
-111.37312
 20
197.51813
 42
0
  0
SEQEND
  8
0
  0
POLYLINE
  8
0
  6
CONTINUOUS
 62
     7
 66
     1
 10
0
 20
0
  0
VERTEX
  8
0
  6
CONTINUOUS
 62
     7
 10
-117.1081
 20
211.47888
 42
-0.013138069
  0
VERTEX
  8
0
  6
CONTINUOUS
 62
     7
 10
-115.20671
 20
211.73416
 42
-0.013285875
  0
VERTEX
  8
0
  6
CONTINUOUS
 62
     7
 10
-113.29364
 20
211.88875
 42
-0.013500074
  0
VERTEX
  8
0
  6
CONTINUOUS
 62
     7
 10
-111.37312
 20
211.94077
 42
0
  0
SEQEND
  8
0
  0
POLYLINE
  8
0
  6
CONTINUOUS
 62
     7
 66
     1
 10
0
 20
0
  0
VERTEX
  8
0
  6
CONTINUOUS
 62
     7
 10
-118.89793
 20
211.47888
 42
0.050243631
  0
VERTEX
  8
0
  6
CONTINUOUS
 62
     7
 10
-120.80863
 20
211.88723
 42
0.054947064
  0
VERTEX
  8
0
  6
CONTINUOUS
 62
     7
 10
-122.76304
 20
211.88695
 42
0.050155593
  0
VERTEX
  8
0
  6
CONTINUOUS
 62
     7
 10
-124.67313
 20
211.47888
 42
0
  0
SEQEND
  8
0
  0
POLYLINE
  8
0
  6
CONTINUOUS
 62
     7
 66
     1
 10
0
 20
0
  0
VERTEX
  8
0
  6
CONTINUOUS
 62
     7
 10
-111.37312
 20
132.94078
 42
-0.016924364
  0
VERTEX
  8
0
  6
CONTINUOUS
 62
     7
 10
-108.68024
 20
132.84919
 42
-0.01653495
  0
VERTEX
  8
0
  6
CONTINUOUS
 62
     7
 10
-105.99955
 20
132.57784
 42
-0.016230051
  0
VERTEX
  8
0
  6
CONTINUOUS
 62
     7
 10
-103.34754
 20
132.13249
 42
0
  0
SEQEND
  8
0
  0
POLYLINE
  8
0
  6
CONTINUOUS
 62
     7
 66
     1
 10
0
 20
0
  0
VERTEX
  8
0
  6
CONTINUOUS
 62
     7
 10
-93.473122
 20
119.32642
 42
-0.060911359
  0
VERTEX
  8
0
  6
CONTINUOUS
 62
     7
 10
-96.128247
 20
118.61426
 42
-0.069926897
  0
VERTEX
  8
0
  6
CONTINUOUS
 62
     7
 10
-98.874927
 20
118.61404
 42
-0.060970626
  0
VERTEX
  8
0
  6
CONTINUOUS
 62
     7
 10
-101.5295
 20
119.32642
 42
0
  0
SEQEND
  8
0
  0
POLYLINE
  8
0
  6
CONTINUOUS
 62
     7
 66
     1
 10
0
 20
0
  0
VERTEX
  8
0
  6
CONTINUOUS
 62
     7
 10
-101.5295
 20
132.13249
 42
-0.060980192
  0
VERTEX
  8
0
  6
CONTINUOUS
 62
     7
 10
-98.874509
 20
132.84493
 42
-0.069926221
  0
VERTEX
  8
0
  6
CONTINUOUS
 62
     7
 10
-96.127826
 20
132.84459
 42
-0.060900827
  0
VERTEX
  8
0
  6
CONTINUOUS
 62
     7
 10
-93.473122
 20
132.13249
 42
0
  0
SEQEND
  8
0
  0
POLYLINE
  8
0
  6
CONTINUOUS
 62
     7
 66
     1
 10
0
 20
0
  0
VERTEX
  8
0
  6
CONTINUOUS
 62
     7
 10
-103.34754
 20
119.32642
 42
-0.016245973
  0
VERTEX
  8
0
  6
CONTINUOUS
 62
     7
 10
-106.00212
 20
118.88073
 42
-0.016520532
  0
VERTEX
  8
0
  6
CONTINUOUS
 62
     7
 10
-108.68042
 20
118.6097
 42
-0.016923332
  0
VERTEX
  8
0
  6
CONTINUOUS
 62
     7
 10
-111.37312
 20
118.51813
 42
0
  0
SEQEND
  8
0
  0
POLYLINE
  8
0
  6
CONTINUOUS
 62
     7
 66
     1
 10
0
 20
0
  0
VERTEX
  8
0
  6
CONTINUOUS
 62
     7
 10
-111.37312
 20
132.94078
 42
0.016924364
  0
VERTEX
  8
0
  6
CONTINUOUS
 62
     7
 10
-114.06599
 20
132.84919
 42
0.01653495
  0
VERTEX
  8
0
  6
CONTINUOUS
 62
     7
 10
-116.74668
 20
132.57784
 42
0.016230051
  0
VERTEX
  8
0
  6
CONTINUOUS
 62
     7
 10
-119.39869
 20
132.13249
 42
0
  0
SEQEND
  8
0
  0
POLYLINE
  8
0
  6
CONTINUOUS
 62
     7
 66
     1
 10
0
 20
0
  0
VERTEX
  8
0
  6
CONTINUOUS
 62
     7
 10
-129.27312
 20
119.32642
 42
0.060911085
  0
VERTEX
  8
0
  6
CONTINUOUS
 62
     7
 10
-126.61799
 20
118.61427
 42
0.069926925
  0
VERTEX
  8
0
  6
CONTINUOUS
 62
     7
 10
-123.87131
 20
118.61404
 42
0.060970878
  0
VERTEX
  8
0
  6
CONTINUOUS
 62
     7
 10
-121.21674
 20
119.32642
 42
0
  0
SEQEND
  8
0
  0
POLYLINE
  8
0
  6
CONTINUOUS
 62
     7
 66
     1
 10
0
 20
0
  0
VERTEX
  8
0
  6
CONTINUOUS
 62
     7
 10
-121.21674
 20
132.13249
 42
0.060980133
  0
VERTEX
  8
0
  6
CONTINUOUS
 62
     7
 10
-123.87174
 20
132.84493
 42
0.069926261
  0
VERTEX
  8
0
  6
CONTINUOUS
 62
     7
 10
-126.61842
 20
132.84459
 42
0.060900858
  0
VERTEX
  8
0
  6
CONTINUOUS
 62
     7
 10
-129.27312
 20
132.13249
 42
0
  0
SEQEND
  8
0
  0
POLYLINE
  8
0
  6
CONTINUOUS
 62
     7
 66
     1
 10
0
 20
0
  0
VERTEX
  8
0
  6
CONTINUOUS
 62
     7
 10
-119.39869
 20
119.32642
 42
0.016245973
  0
VERTEX
  8
0
  6
CONTINUOUS
 62
     7
 10
-116.74411
 20
118.88073
 42
0.016520532
  0
VERTEX
  8
0
  6
CONTINUOUS
 62
     7
 10
-114.06581
 20
118.6097
 42
0.016923332
  0
VERTEX
  8
0
  6
CONTINUOUS
 62
     7
 10
-111.37312
 20
118.51813
 42
0
  0
SEQEND
  8
0
  0
POLYLINE
  8
0
  6
CONTINUOUS
 62
     7
 66
     1
 10
0
 20
0
  0
VERTEX
  8
0
  6
CONTINUOUS
 62
     7
 10
-88.08445
 20
156.22945
 42
-0.016924364
  0
VERTEX
  8
0
  6
CONTINUOUS
 62
     7
 10
-87.992864
 20
158.92232
 42
-0.01653495
  0
VERTEX
  8
0
  6
CONTINUOUS
 62
     7
 10
-87.721509
 20
161.60301
 42
-0.016230051
  0
VERTEX
  8
0
  6
CONTINUOUS
 62
     7
 10
-87.276161
 20
164.25502
 42
0
  0
SEQEND
  8
0
  0
POLYLINE
  8
0
  6
CONTINUOUS
 62
     7
 66
     1
 10
0
 20
0
  0
VERTEX
  8
0
  6
CONTINUOUS
 62
     7
 10
-74.470085
 20
174.12944
 42
-0.060911984
  0
VERTEX
  8
0
  6
CONTINUOUS
 62
     7
 10
-73.757931
 20
171.47432
 42
-0.069925443
  0
VERTEX
  8
0
  6
CONTINUOUS
 62
     7
 10
-73.757706
 20
168.72764
 42
-0.060971265
  0
VERTEX
  8
0
  6
CONTINUOUS
 62
     7
 10
-74.470085
 20
166.07306
 42
0
  0
SEQEND
  8
0
  0
POLYLINE
  8
0
  6
CONTINUOUS
 62
     7
 66
     1
 10
0
 20
0
  0
VERTEX
  8
0
  6
CONTINUOUS
 62
     7
 10
-87.276161
 20
166.07306
 42
-0.060980192
  0
VERTEX
  8
0
  6
CONTINUOUS
 62
     7
 10
-87.988597
 20
168.72805
 42
-0.069926221
  0
VERTEX
  8
0
  6
CONTINUOUS
 62
     7
 10
-87.988256
 20
171.47474
 42
-0.060900827
  0
VERTEX
  8
0
  6
CONTINUOUS
 62
     7
 10
-87.276161
 20
174.12944
 42
0
  0
SEQEND
  8
0
  0
POLYLINE
  8
0
  6
CONTINUOUS
 62
     7
 66
     1
 10
0
 20
0
  0
VERTEX
  8
0
  6
CONTINUOUS
 62
     7
 10
-74.470085
 20
164.25502
 42
-0.01624566
  0
VERTEX
  8
0
  6
CONTINUOUS
 62
     7
 10
-74.024386
 20
161.60045
 42
-0.016520531
  0
VERTEX
  8
0
  6
CONTINUOUS
 62
     7
 10
-73.753357
 20
158.92214
 42
-0.016923645
  0
VERTEX
  8
0
  6
CONTINUOUS
 62
     7
 10
-73.661781
 20
156.22945
 42
0
  0
SEQEND
  8
0
  0
POLYLINE
  8
0
  6
CONTINUOUS
 62
     7
 66
     1
 10
0
 20
0
  0
VERTEX
  8
0
  6
CONTINUOUS
 62
     7
 10
-88.08445
 20
156.22945
 42
0.016924364
  0
VERTEX
  8
0
  6
CONTINUOUS
 62
     7
 10
-87.992864
 20
153.53657
 42
0.01653495
  0
VERTEX
  8
0
  6
CONTINUOUS
 62
     7
 10
-87.721509
 20
150.85589
 42
0.016230051
  0
VERTEX
  8
0
  6
CONTINUOUS
 62
     7
 10
-87.276161
 20
148.20387
 42
0
  0
SEQEND
  8
0
  0
POLYLINE
  8
0
  6
CONTINUOUS
 62
     7
 66
     1
 10
0
 20
0
  0
VERTEX
  8
0
  6
CONTINUOUS
 62
     7
 10
-74.470085
 20
138.32945
 42
0.060910734
  0
VERTEX
  8
0
  6
CONTINUOUS
 62
     7
 10
-73.75792
 20
140.98458
 42
0.069928351
  0
VERTEX
  8
0
  6
CONTINUOUS
 62
     7
 10
-73.757695
 20
143.73126
 42
0.060969987
  0
VERTEX
  8
0
  6
CONTINUOUS
 62
     7
 10
-74.470085
 20
146.38583
 42
0
  0
SEQEND
  8
0
  0
POLYLINE
  8
0
  6
CONTINUOUS
 62
     7
 66
     1
 10
0
 20
0
  0
VERTEX
  8
0
  6
CONTINUOUS
 62
     7
 10
-87.276161
 20
146.38583
 42
0.060980192
  0
VERTEX
  8
0
  6
CONTINUOUS
 62
     7
 10
-87.988597
 20
143.73084
 42
0.069926221
  0
VERTEX
  8
0
  6
CONTINUOUS
 62
     7
 10
-87.988256
 20
140.98416
 42
0.060900827
  0
VERTEX
  8
0
  6
CONTINUOUS
 62
     7
 10
-87.276161
 20
138.32945
 42
0
  0
SEQEND
  8
0
  0
POLYLINE
  8
0
  6
CONTINUOUS
 62
     7
 66
     1
 10
0
 20
0
  0
VERTEX
  8
0
  6
CONTINUOUS
 62
     7
 10
-74.470085
 20
148.20387
 42
0.01624566
  0
VERTEX
  8
0
  6
CONTINUOUS
 62
     7
 10
-74.024386
 20
150.85845
 42
0.016520531
  0
VERTEX
  8
0
  6
CONTINUOUS
 62
     7
 10
-73.753357
 20
153.53675
 42
0.016923645
  0
VERTEX
  8
0
  6
CONTINUOUS
 62
     7
 10
-73.661781
 20
156.22945
 42
0
  0
SEQEND
  8
0
  0
POLYLINE
  8
0
  6
CONTINUOUS
 62
     7
 66
     1
 10
0
 20
0
  0
VERTEX
  8
0
  6
CONTINUOUS
 62
     7
 10
-78.123665
 20
238.75426
 42
0.050243496
  0
VERTEX
  8
0
  6
CONTINUOUS
 62
     7
 10
-77.715319
 20
240.66495
 42
0.054947182
  0
VERTEX
  8
0
  6
CONTINUOUS
 62
     7
 10
-77.715593
 20
242.61936
 42
0.050155644
  0
VERTEX
  8
0
  6
CONTINUOUS
 62
     7
 10
-78.123665
 20
244.52945
 42
0
  0
SEQEND
  8
0
  0
POLYLINE
  8
0
  6
CONTINUOUS
 62
     7
 66
     1
 10
0
 20
0
  0
VERTEX
  8
0
  6
CONTINUOUS
 62
     7
 10
-78.123665
 20
236.96443
 42
-0.013138069
  0
VERTEX
  8
0
  6
CONTINUOUS
 62
     7
 10
-77.868385
 20
235.06304
 42
-0.013285875
  0
VERTEX
  8
0
  6
CONTINUOUS
 62
     7
 10
-77.713796
 20
233.14997
 42
-0.013500074
  0
VERTEX
  8
0
  6
CONTINUOUS
 62
     7
 10
-77.661781
 20
231.22945
 42
0
  0
SEQEND
  8
0
  0
POLYLINE
  8
0
  6
CONTINUOUS
 62
     7
 66
     1
 10
0
 20
0
  0
VERTEX
  8
0
  6
CONTINUOUS
 62
     7
 10
-91.622566
 20
236.96443
 42
0.013138069
  0
VERTEX
  8
0
  6
CONTINUOUS
 62
     7
 10
-91.877846
 20
235.06304
 42
0.013285875
  0
VERTEX
  8
0
  6
CONTINUOUS
 62
     7
 10
-92.032435
 20
233.14997
 42
0.013500074
  0
VERTEX
  8
0
  6
CONTINUOUS
 62
     7
 10
-92.08445
 20
231.22945
 42
0
  0
SEQEND
  8
0
  0
POLYLINE
  8
0
  6
CONTINUOUS
 62
     7
 66
     1
 10
0
 20
0
  0
VERTEX
  8
0
  6
CONTINUOUS
 62
     7
 10
-91.622566
 20
238.75426
 42
-0.050243496
  0
VERTEX
  8
0
  6
CONTINUOUS
 62
     7
 10
-92.030912
 20
240.66495
 42
-0.054947182
  0
VERTEX
  8
0
  6
CONTINUOUS
 62
     7
 10
-92.030638
 20
242.61936
 42
-0.050155644
  0
VERTEX
  8
0
  6
CONTINUOUS
 62
     7
 10
-91.622566
 20
244.52945
 42
0
  0
SEQEND
  8
0
  0
POLYLINE
  8
0
  6
CONTINUOUS
 62
     7
 66
     1
 10
0
 20
0
  0
VERTEX
  8
0
  6
CONTINUOUS
 62
     7
 10
-78.123665
 20
223.70464
 42
-0.050243496
  0
VERTEX
  8
0
  6
CONTINUOUS
 62
     7
 10
-77.715319
 20
221.79394
 42
-0.054947182
  0
VERTEX
  8
0
  6
CONTINUOUS
 62
     7
 10
-77.715593
 20
219.83953
 42
-0.050155644
  0
VERTEX
  8
0
  6
CONTINUOUS
 62
     7
 10
-78.123665
 20
217.92944
 42
0
  0
SEQEND
  8
0
  0
POLYLINE
  8
0
  6
CONTINUOUS
 62
     7
 66
     1
 10
0
 20
0
  0
VERTEX
  8
0
  6
CONTINUOUS
 62
     7
 10
-78.123665
 20
225.49446
 42
0.013138069
  0
VERTEX
  8
0
  6
CONTINUOUS
 62
     7
 10
-77.868385
 20
227.39585
 42
0.013285875
  0
VERTEX
  8
0
  6
CONTINUOUS
 62
     7
 10
-77.713796
 20
229.30892
 42
0.013500074
  0
VERTEX
  8
0
  6
CONTINUOUS
 62
     7
 10
-77.661781
 20
231.22945
 42
0
  0
SEQEND
  8
0
  0
POLYLINE
  8
0
  6
CONTINUOUS
 62
     7
 66
     1
 10
0
 20
0
  0
VERTEX
  8
0
  6
CONTINUOUS
 62
     7
 10
-91.622566
 20
225.49446
 42
-0.013138069
  0
VERTEX
  8
0
  6
CONTINUOUS
 62
     7
 10
-91.877846
 20
227.39585
 42
-0.013285875
  0
VERTEX
  8
0
  6
CONTINUOUS
 62
     7
 10
-92.032435
 20
229.30892
 42
-0.013500074
  0
VERTEX
  8
0
  6
CONTINUOUS
 62
     7
 10
-92.08445
 20
231.22945
 42
0
  0
SEQEND
  8
0
  0
POLYLINE
  8
0
  6
CONTINUOUS
 62
     7
 66
     1
 10
0
 20
0
  0
VERTEX
  8
0
  6
CONTINUOUS
 62
     7
 10
-91.622566
 20
223.70464
 42
0.050247002
  0
VERTEX
  8
0
  6
CONTINUOUS
 62
     7
 10
-92.030889
 20
221.79394
 42
0.054939068
  0
VERTEX
  8
0
  6
CONTINUOUS
 62
     7
 10
-92.030615
 20
219.83954
 42
0.050159166
  0
VERTEX
  8
0
  6
CONTINUOUS
 62
     7
 10
-91.622566
 20
217.92944
 42
0
  0
SEQEND
  8
0
  0
POLYLINE
  8
0
  6
CONTINUOUS
 62
     7
 66
     1
 10
0
 20
0
  0
VERTEX
  8
0
  6
CONTINUOUS
 62
     7
 10
-66.661797
 20
66.229454
 42
0.01916166
  0
VERTEX
  8
0
  6
CONTINUOUS
 62
     7
 10
-66.799664
 20
69.805334
 42
0.018603478
  0
VERTEX
  8
0
  6
CONTINUOUS
 62
     7
 10
-67.206804
 20
73.360685
 42
0.018212825
  0
VERTEX
  8
0
  6
CONTINUOUS
 62
     7
 10
-67.874214
 20
76.876518
 42
0
  0
SEQEND
  8
0
  0
POLYLINE
  8
0
  6
CONTINUOUS
 62
     7
 66
     1
 10
0
 20
0
  0
VERTEX
  8
0
  6
CONTINUOUS
 62
     7
 10
-67.874214
 20
78.659431
 42
0.06733835
  0
VERTEX
  8
0
  6
CONTINUOUS
 62
     7
 10
-66.808108
 20
82.164677
 42
0.080048299
  0
VERTEX
  8
0
  6
CONTINUOUS
 62
     7
 10
-66.808406
 20
85.824088
 42
0.067284259
  0
VERTEX
  8
0
  6
CONTINUOUS
 62
     7
 10
-67.874214
 20
89.329445
 42
0
  0
SEQEND
  8
0
  0
POLYLINE
  8
0
  6
CONTINUOUS
 62
     7
 66
     1
 10
0
 20
0
  0
VERTEX
  8
0
  6
CONTINUOUS
 62
     7
 10
-80.872002
 20
78.659431
 42
-0.067338857
  0
VERTEX
  8
0
  6
CONTINUOUS
 62
     7
 10
-81.938133
 20
82.164675
 42
-0.080051052
  0
VERTEX
  8
0
  6
CONTINUOUS
 62
     7
 10
-81.937835
 20
85.82409
 42
-0.067284757
  0
VERTEX
  8
0
  6
CONTINUOUS
 62
     7
 10
-80.872002
 20
89.329445
 42
0
  0
SEQEND
  8
0
  0
POLYLINE
  8
0
  6
CONTINUOUS
 62
     7
 66
     1
 10
0
 20
0
  0
VERTEX
  8
0
  6
CONTINUOUS
 62
     7
 10
-82.08445
 20
66.229454
 42
-0.019162265
  0
VERTEX
  8
0
  6
CONTINUOUS
 62
     7
 10
-81.946578
 20
69.805335
 42
-0.018603814
  0
VERTEX
  8
0
  6
CONTINUOUS
 62
     7
 10
-81.539426
 20
73.360686
 42
-0.018212906
  0
VERTEX
  8
0
  6
CONTINUOUS
 62
     7
 10
-80.872002
 20
76.876518
 42
0
  0
SEQEND
  8
0
  0
POLYLINE
  8
0
  6
CONTINUOUS
 62
     7
 66
     1
 10
0
 20
0
  0
VERTEX
  8
0
  6
CONTINUOUS
 62
     7
 10
-66.661797
 20
66.229454
 42
-0.019161652
  0
VERTEX
  8
0
  6
CONTINUOUS
 62
     7
 10
-66.799664
 20
62.653573
 42
-0.018603465
  0
VERTEX
  8
0
  6
CONTINUOUS
 62
     7
 10
-67.206804
 20
59.098221
 42
-0.018212844
  0
VERTEX
  8
0
  6
CONTINUOUS
 62
     7
 10
-67.874214
 20
55.582386
 42
0
  0
SEQEND
  8
0
  0
POLYLINE
  8
0
  6
CONTINUOUS
 62
     7
 66
     1
 10
0
 20
0
  0
VERTEX
  8
0
  6
CONTINUOUS
 62
     7
 10
-67.874214
 20
53.799473
 42
-0.06733835
  0
VERTEX
  8
0
  6
CONTINUOUS
 62
     7
 10
-66.808108
 20
50.294227
 42
-0.080048299
  0
VERTEX
  8
0
  6
CONTINUOUS
 62
     7
 10
-66.808406
 20
46.634816
 42
-0.067284259
  0
VERTEX
  8
0
  6
CONTINUOUS
 62
     7
 10
-67.874214
 20
43.129459
 42
0
  0
SEQEND
  8
0
  0
POLYLINE
  8
0
  6
CONTINUOUS
 62
     7
 66
     1
 10
0
 20
0
  0
VERTEX
  8
0
  6
CONTINUOUS
 62
     7
 10
-80.872002
 20
53.799473
 42
0.06733981
  0
VERTEX
  8
0
  6
CONTINUOUS
 62
     7
 10
-81.938122
 20
50.294229
 42
0.080048861
  0
VERTEX
  8
0
  6
CONTINUOUS
 62
     7
 10
-81.937824
 20
46.634815
 42
0.067285709
  0
VERTEX
  8
0
  6
CONTINUOUS
 62
     7
 10
-80.872002
 20
43.129459
 42
0
  0
SEQEND
  8
0
  0
POLYLINE
  8
0
  6
CONTINUOUS
 62
     7
 66
     1
 10
0
 20
0
  0
VERTEX
  8
0
  6
CONTINUOUS
 62
     7
 10
-82.08445
 20
66.229454
 42
0.019162257
  0
VERTEX
  8
0
  6
CONTINUOUS
 62
     7
 10
-81.946578
 20
62.653572
 42
0.018603801
  0
VERTEX
  8
0
  6
CONTINUOUS
 62
     7
 10
-81.539426
 20
59.098219
 42
0.018212924
  0
VERTEX
  8
0
  6
CONTINUOUS
 62
     7
 10
-80.872002
 20
55.582386
 42
0
  0
SEQEND
  8
0
  0
POLYLINE
  8
0
  6
CONTINUOUS
 62
     7
 66
     1
 10
0
 20
0
  0
VERTEX
  8
0
  6
CONTINUOUS
 62
     7
 10
-111.37312
 20
21.518133
 42
0.01916166
  0
VERTEX
  8
0
  6
CONTINUOUS
 62
     7
 10
-107.79724
 20
21.656
 42
0.018603478
  0
VERTEX
  8
0
  6
CONTINUOUS
 62
     7
 10
-104.24188
 20
22.06314
 42
0.018212825
  0
VERTEX
  8
0
  6
CONTINUOUS
 62
     7
 10
-100.72605
 20
22.730551
 42
0
  0
SEQEND
  8
0
  0
POLYLINE
  8
0
  6
CONTINUOUS
 62
     7
 66
     1
 10
0
 20
0
  0
VERTEX
  8
0
  6
CONTINUOUS
 62
     7
 10
-98.943138
 20
22.730551
 42
0.06733835
  0
VERTEX
  8
0
  6
CONTINUOUS
 62
     7
 10
-95.437893
 20
21.664445
 42
0.080048299
  0
VERTEX
  8
0
  6
CONTINUOUS
 62
     7
 10
-91.778482
 20
21.664742
 42
0.067284259
  0
VERTEX
  8
0
  6
CONTINUOUS
 62
     7
 10
-88.273125
 20
22.730551
 42
0
  0
SEQEND
  8
0
  0
POLYLINE
  8
0
  6
CONTINUOUS
 62
     7
 66
     1
 10
0
 20
0
  0
VERTEX
  8
0
  6
CONTINUOUS
 62
     7
 10
-98.943138
 20
35.728336
 42
-0.067338857
  0
VERTEX
  8
0
  6
CONTINUOUS
 62
     7
 10
-95.437895
 20
36.794467
 42
-0.080051052
  0
VERTEX
  8
0
  6
CONTINUOUS
 62
     7
 10
-91.77848
 20
36.79417
 42
-0.067284757
  0
VERTEX
  8
0
  6
CONTINUOUS
 62
     7
 10
-88.273125
 20
35.728336
 42
0
  0
SEQEND
  8
0
  0
POLYLINE
  8
0
  6
CONTINUOUS
 62
     7
 66
     1
 10
0
 20
0
  0
VERTEX
  8
0
  6
CONTINUOUS
 62
     7
 10
-111.37312
 20
36.940769
 42
-0.019161791
  0
VERTEX
  8
0
  6
CONTINUOUS
 62
     7
 10
-107.79724
 20
36.802901
 42
-0.018603818
  0
VERTEX
  8
0
  6
CONTINUOUS
 62
     7
 10
-104.24188
 20
36.395757
 42
-0.018213376
  0
VERTEX
  8
0
  6
CONTINUOUS
 62
     7
 10
-100.72605
 20
35.728336
 42
0
  0
SEQEND
  8
0
  0
POLYLINE
  8
0
  6
CONTINUOUS
 62
     7
 66
     1
 10
0
 20
0
  0
VERTEX
  8
0
  6
CONTINUOUS
 62
     7
 10
-111.37312
 20
21.518133
 42
-0.01916166
  0
VERTEX
  8
0
  6
CONTINUOUS
 62
     7
 10
-114.949
 20
21.656
 42
-0.018603478
  0
VERTEX
  8
0
  6
CONTINUOUS
 62
     7
 10
-118.50435
 20
22.06314
 42
-0.018212825
  0
VERTEX
  8
0
  6
CONTINUOUS
 62
     7
 10
-122.02018
 20
22.730551
 42
0
  0
SEQEND
  8
0
  0
POLYLINE
  8
0
  6
CONTINUOUS
 62
     7
 66
     1
 10
0
 20
0
  0
VERTEX
  8
0
  6
CONTINUOUS
 62
     7
 10
-123.80309
 20
22.730551
 42
-0.067338325
  0
VERTEX
  8
0
  6
CONTINUOUS
 62
     7
 10
-127.30834
 20
21.664445
 42
-0.080048267
  0
VERTEX
  8
0
  6
CONTINUOUS
 62
     7
 10
-130.96775
 20
21.664742
 42
-0.067284308
  0
VERTEX
  8
0
  6
CONTINUOUS
 62
     7
 10
-134.47311
 20
22.730551
 42
0
  0
SEQEND
  8
0
  0
POLYLINE
  8
0
  6
CONTINUOUS
 62
     7
 66
     1
 10
0
 20
0
  0
VERTEX
  8
0
  6
CONTINUOUS
 62
     7
 10
-123.80309
 20
35.728336
 42
0.067339785
  0
VERTEX
  8
0
  6
CONTINUOUS
 62
     7
 10
-127.30834
 20
36.794456
 42
0.08004883
  0
VERTEX
  8
0
  6
CONTINUOUS
 62
     7
 10
-130.96776
 20
36.794159
 42
0.067285759
  0
VERTEX
  8
0
  6
CONTINUOUS
 62
     7
 10
-134.47311
 20
35.728336
 42
0
  0
SEQEND
  8
0
  0
POLYLINE
  8
0
  6
CONTINUOUS
 62
     7
 66
     1
 10
0
 20
0
  0
VERTEX
  8
0
  6
CONTINUOUS
 62
     7
 10
-111.37312
 20
36.940769
 42
0.019161791
  0
VERTEX
  8
0
  6
CONTINUOUS
 62
     7
 10
-114.949
 20
36.802901
 42
0.018603818
  0
VERTEX
  8
0
  6
CONTINUOUS
 62
     7
 10
-118.50435
 20
36.395757
 42
0.018213376
  0
VERTEX
  8
0
  6
CONTINUOUS
 62
     7
 10
-122.02018
 20
35.728336
 42
0
  0
SEQEND
  8
0
  0
TEXT
  8
0
  6
CONTINUOUS
 62
     7
 10
-176.10388
 20
271.3978
 40
5
 41
0.8449534
  1
ＭＲ－Ｊ　　エルボ
  0
TEXT
  8
0
  6
CONTINUOUS
 62
     7
 10
-105.04427
 20
248.21571
 40
4.8000002
 41
1.0285716
  1
13
  0
TEXT
  8
0
  6
CONTINUOUS
 62
     7
 10
-101.89426
 20
177.41572
 40
4.8000002
 41
1.0285716
  1
20
  0
TEXT
  8
0
  6
CONTINUOUS
 62
     7
 10
-100.84426
 20
90.565713
 40
4.8000002
 41
1.0285716
  1
25
  0
LINE
  8
1
  6
CONTINUOUS
 62
     7
 10
-210
 20
0
 11
0
 21
0
  0
LINE
  8
1
  6
CONTINUOUS
 62
     7
 10
-210
 20
297
 11
0
 21
297
  0
LINE
  8
1
  6
CONTINUOUS
 62
     7
 10
0
 20
297
 11
0
 21
0
  0
LINE
  8
1
  6
CONTINUOUS
 62
     7
 10
-210
 20
297
 11
-210
 21
0
  0
ENDSEC
  0
EOF
