  0
SECTION
  2
HEADER
  9
$EXTMAX
 10
0
 20
297
  9
$EXTMIN
 10
-210
 20
0
  0
ENDSEC
  0
SECTION
  2
TABLES
  0
TABLE
  2
LTYPE
 70
    22
  0
LTYPE
  2
CONTINUOUS
 70
    64
  3
Solid line
 72
    65
 73
     0
 40
0.000000
  0
LTYPE
  2
DASHED
 70
    64
  3
__ __ __ __ __ __ __ __ __ __ __ __ __ __ __
 72
    65
 73
     2
 40
3.500000
 49
2.000000
 49
-1.500000
  0
LTYPE
  2
CENTER
 70
    64
  3
____ _ ____ _ ____ _ ____ _ ____ _ ____ _ ____
 72
    65
 73
     4
 40
17.500000
 49
13.000000
 49
-1.500000
 49
1.500000
 49
-1.500000
  0
LTYPE
  2
PHANTOM
 70
    64
  3
_____ _ _ _____ _ _ _____ _ _ _____ _ _ ____  
 72
    65
 73
     6
 40
15.500000
 49
8.000000
 49
-1.500000
 49
1.500000
 49
-1.500000
 49
1.500000
 49
-1.500000
  0
LTYPE
  2
DOT
 70
    64
  3
. . . . . . . . . . . . . . . . . . . . . . . .
 72
    65
 73
     2
 40
0.25
 49
0.0
 49
-0.25
  0
ENDTAB
  0
TABLE
  2
LAYER
 70
     2
  0
LAYER
  2
0
 70
     0
 62
     7
  6
CONTINUOUS
  0
LAYER
  2
1
 70
     0
 62
     7
  6
CONTINUOUS
  0
ENDTAB
  0
TABLE
  2
STYLE
 70
     1
  0
STYLE
  2
STANDARD
 70
     0
 40
0.000000
 41
1.000000
 50
0.000000
 71
     0
 42
0.200000
  3
txt
  4
BIGFONT
  0
ENDTAB
  0
TABLE
  2
VIEW
 70
     0
  0
ENDTAB
  0
ENDSEC
  0
SECTION
  2
BLOCKS
  0
ENDSEC
  0
SECTION
  2
ENTITIES
  0
POINT
  8
0
  6
CONTINUOUS
 62
     7
 10
-138.60255
 20
210.63382
  0
POINT
  8
0
  6
CONTINUOUS
 62
     7
 10
-138.60255
 20
145.63382
  0
POINT
  8
0
  6
CONTINUOUS
 62
     7
 10
-138.60255
 20
70.633804
  0
POINT
  8
0
  6
CONTINUOUS
 62
     7
 10
-138.60255
 20
210.63382
  0
POINT
  8
0
  6
CONTINUOUS
 62
     7
 10
-138.60255
 20
145.63382
  0
POINT
  8
0
  6
CONTINUOUS
 62
     7
 10
-138.60255
 20
70.633804
  0
LINE
  8
0
  6
CONTINUOUS
 62
     7
 10
-154.17996
 20
271.4249
 11
-152.17996
 21
271.4249
  0
LINE
  8
0
  6
CONTINUOUS
 62
     7
 10
-154.17996
 20
276.28983
 11
-152.17996
 21
276.28983
  0
LINE
  8
0
  6
CONTINUOUS
 62
     7
 10
-152.67996
 20
276.28983
 11
-152.67996
 21
271.4249
  0
LINE
  8
0
  6
CONTINUOUS
 62
     7
 10
-153.67996
 20
276.28983
 11
-153.67996
 21
271.4249
  0
LINE
  8
0
  6
CONTINUOUS
 62
     7
 10
-85.602554
 20
70.633804
 11
-85.602554
 21
91.133804
  0
LINE
  8
0
  6
CONTINUOUS
 62
     7
 10
-87.103653
 20
81.280869
 11
-87.103653
 21
83.063797
  0
LINE
  8
0
  6
CONTINUOUS
 62
     7
 10
-100.10144
 20
81.280869
 11
-87.103653
 21
81.280869
  0
LINE
  8
0
  6
CONTINUOUS
 62
     7
 10
-100.10144
 20
83.063797
 11
-87.103653
 21
83.063797
  0
LINE
  8
0
  6
CONTINUOUS
 62
     7
 10
-100.10144
 20
81.280869
 11
-100.10144
 21
83.063797
  0
LINE
  8
0
  6
CONTINUOUS
 62
     7
 10
-101.60255
 20
70.633804
 11
-101.60255
 21
91.133804
  0
LINE
  8
0
  6
CONTINUOUS
 62
     7
 10
-101.60258
 20
91.13382
 11
-100.10146
 21
93.733833
  0
LINE
  8
0
  6
CONTINUOUS
 62
     7
 10
-100.10144
 20
93.733803
 11
-87.103653
 21
93.733803
  0
LINE
  8
0
  6
CONTINUOUS
 62
     7
 10
-87.10367
 20
93.73381
 11
-85.602556
 21
91.133804
  0
LINE
  8
0
  6
CONTINUOUS
 62
     7
 10
-85.602554
 20
70.633804
 11
-85.602554
 21
50.133804
  0
LINE
  8
0
  6
CONTINUOUS
 62
     7
 10
-87.103653
 20
59.98674
 11
-87.103653
 21
58.203842
  0
LINE
  8
0
  6
CONTINUOUS
 62
     7
 10
-100.10144
 20
59.98674
 11
-87.103653
 21
59.98674
  0
LINE
  8
0
  6
CONTINUOUS
 62
     7
 10
-100.10144
 20
58.203842
 11
-87.103653
 21
58.203842
  0
LINE
  8
0
  6
CONTINUOUS
 62
     7
 10
-100.10144
 20
59.98674
 11
-100.10144
 21
58.203842
  0
LINE
  8
0
  6
CONTINUOUS
 62
     7
 10
-101.60255
 20
70.633804
 11
-101.60255
 21
50.133804
  0
LINE
  8
0
  6
CONTINUOUS
 62
     7
 10
-101.60257
 20
50.13382
 11
-100.10146
 21
47.533813
  0
LINE
  8
0
  6
CONTINUOUS
 62
     7
 10
-100.10144
 20
47.533829
 11
-87.103653
 21
47.533829
  0
LINE
  8
0
  6
CONTINUOUS
 62
     7
 10
-87.103665
 20
47.533813
 11
-85.602551
 21
50.13382
  0
LINE
  8
0
  6
CONTINUOUS
 62
     7
 10
-117.60646
 20
199.88382
 11
-114.44197
 21
199.88382
  0
LINE
  8
0
  6
CONTINUOUS
 62
     7
 10
-114.00896
 20
200.13382
 11
-110.60255
 21
200.13382
  0
LINE
  8
0
  6
CONTINUOUS
 62
     7
 10
-112.60255
 20
200.94582
 11
-110.60255
 21
200.94582
  0
LINE
  8
0
  6
CONTINUOUS
 62
     7
 10
-114.44198
 20
199.8838
 11
-114.00897
 21
200.1338
  0
LINE
  8
0
  6
CONTINUOUS
 62
     7
 10
-112.60255
 20
210.63382
 11
-112.60255
 21
200.13382
  0
LINE
  8
0
  6
CONTINUOUS
 62
     7
 10
-114.00897
 20
200.1338
 11
-112.60255
 21
200.9458
  0
LINE
  8
0
  6
CONTINUOUS
 62
     7
 10
-138.60255
 20
210.63382
 11
-138.60255
 21
195.04535
  0
LINE
  8
0
  6
CONTINUOUS
 62
     7
 10
-138.60255
 20
195.04535
 11
-133.8083
 21
195.04535
  0
LINE
  8
0
  6
CONTINUOUS
 62
     7
 10
-132.60255
 20
210.63382
 11
-132.60255
 21
197.13382
  0
LINE
  8
0
  6
CONTINUOUS
 62
     7
 10
-138.60255
 20
202.83958
 11
-133.8083
 21
202.83958
  0
LINE
  8
0
  6
CONTINUOUS
 62
     7
 10
-132.60255
 20
197.13382
 11
-125.60255
 21
197.13382
  0
LINE
  8
0
  6
CONTINUOUS
 62
     7
 10
-133.80831
 20
195.04534
 11
-132.60254
 21
197.13381
  0
LINE
  8
0
  6
CENTER
 62
     7
 10
-143.60255
 20
210.63382
 11
-89.252548
 21
210.63382
  0
LINE
  8
0
  6
CONTINUOUS
 62
     7
 10
-117.60646
 20
221.38382
 11
-114.44197
 21
221.38382
  0
LINE
  8
0
  6
CONTINUOUS
 62
     7
 10
-114.00896
 20
221.13382
 11
-110.60255
 21
221.13382
  0
LINE
  8
0
  6
CONTINUOUS
 62
     7
 10
-112.60255
 20
220.32182
 11
-110.60255
 21
220.32182
  0
LINE
  8
0
  6
CONTINUOUS
 62
     7
 10
-114.44198
 20
221.38386
 11
-114.00897
 21
221.13386
  0
LINE
  8
0
  6
CONTINUOUS
 62
     7
 10
-112.60255
 20
210.63382
 11
-112.60255
 21
221.13382
  0
LINE
  8
0
  6
CONTINUOUS
 62
     7
 10
-114.00897
 20
221.13386
 11
-112.60252
 21
220.32184
  0
LINE
  8
0
  6
CONTINUOUS
 62
     7
 10
-138.60255
 20
210.63382
 11
-138.60255
 21
226.22229
  0
LINE
  8
0
  6
CONTINUOUS
 62
     7
 10
-138.60255
 20
226.22229
 11
-133.8083
 21
226.22229
  0
LINE
  8
0
  6
CONTINUOUS
 62
     7
 10
-132.60255
 20
210.63382
 11
-132.60255
 21
224.13382
  0
LINE
  8
0
  6
CONTINUOUS
 62
     7
 10
-138.60255
 20
218.42805
 11
-133.8083
 21
218.42805
  0
LINE
  8
0
  6
CONTINUOUS
 62
     7
 10
-132.60255
 20
224.13382
 11
-125.60255
 21
224.13382
  0
LINE
  8
0
  6
CONTINUOUS
 62
     7
 10
-133.80833
 20
226.22229
 11
-132.60255
 21
224.13382
  0
LINE
  8
0
  6
CONTINUOUS
 62
     7
 10
-110.00899
 20
131.63382
 11
-106.60258
 21
131.63382
  0
LINE
  8
0
  6
CONTINUOUS
 62
     7
 10
-116.36064
 20
131.38382
 11
-110.442
 21
131.38382
  0
LINE
  8
0
  6
CONTINUOUS
 62
     7
 10
-108.60255
 20
132.44582
 11
-106.60258
 21
132.44582
  0
LINE
  8
0
  6
CONTINUOUS
 62
     7
 10
-110.442
 20
131.38383
 11
-110.00899
 21
131.63383
  0
LINE
  8
0
  6
CONTINUOUS
 62
     7
 10
-108.60255
 20
145.63382
 11
-108.60255
 21
131.63382
  0
LINE
  8
0
  6
CONTINUOUS
 62
     7
 10
-110.00899
 20
131.63383
 11
-108.60257
 21
132.44582
  0
LINE
  8
0
  6
CONTINUOUS
 62
     7
 10
-138.60255
 20
145.63382
 11
-138.60255
 21
127.15862
  0
LINE
  8
0
  6
CONTINUOUS
 62
     7
 10
-131.60255
 20
145.63382
 11
-131.60255
 21
129.63382
  0
LINE
  8
0
  6
CONTINUOUS
 62
     7
 10
-138.60255
 20
127.15862
 11
-133.03163
 21
127.15862
  0
LINE
  8
0
  6
CONTINUOUS
 62
     7
 10
-131.60255
 20
129.63382
 11
-124.10255
 21
129.63382
  0
LINE
  8
0
  6
CONTINUOUS
 62
     7
 10
-138.60255
 20
136.39622
 11
-133.03163
 21
136.39622
  0
LINE
  8
0
  6
CONTINUOUS
 62
     7
 10
-133.03163
 20
127.15861
 11
-131.60256
 21
129.63382
  0
LINE
  8
0
  6
CENTER
 62
     7
 10
-143.60255
 20
145.63382
 11
-84.527573
 21
145.63382
  0
LINE
  8
0
  6
CONTINUOUS
 62
     7
 10
-110.00899
 20
159.63382
 11
-106.60258
 21
159.63382
  0
LINE
  8
0
  6
CONTINUOUS
 62
     7
 10
-116.36064
 20
159.88382
 11
-110.442
 21
159.88382
  0
LINE
  8
0
  6
CONTINUOUS
 62
     7
 10
-108.60255
 20
158.82182
 11
-106.60258
 21
158.82182
  0
LINE
  8
0
  6
CONTINUOUS
 62
     7
 10
-110.442
 20
159.88381
 11
-110.00898
 21
159.63381
  0
LINE
  8
0
  6
CONTINUOUS
 62
     7
 10
-108.60255
 20
145.63382
 11
-108.60255
 21
159.63382
  0
LINE
  8
0
  6
CONTINUOUS
 62
     7
 10
-110.00898
 20
159.63381
 11
-108.60256
 21
158.82181
  0
LINE
  8
0
  6
CONTINUOUS
 62
     7
 10
-138.60255
 20
145.63382
 11
-138.60255
 21
164.10902
  0
LINE
  8
0
  6
CONTINUOUS
 62
     7
 10
-131.60255
 20
145.63382
 11
-131.60255
 21
161.63382
  0
LINE
  8
0
  6
CONTINUOUS
 62
     7
 10
-138.60255
 20
164.10902
 11
-133.03163
 21
164.10902
  0
LINE
  8
0
  6
CONTINUOUS
 62
     7
 10
-131.60255
 20
161.63382
 11
-124.10255
 21
161.63382
  0
LINE
  8
0
  6
CONTINUOUS
 62
     7
 10
-138.60255
 20
154.87141
 11
-133.03163
 21
154.87141
  0
LINE
  8
0
  6
CONTINUOUS
 62
     7
 10
-133.03163
 20
164.10902
 11
-131.60257
 21
161.63382
  0
LINE
  8
0
  6
CONTINUOUS
 62
     7
 10
-113.10255
 20
53.633804
 11
-106.33461
 21
53.633804
  0
LINE
  8
0
  6
CONTINUOUS
 62
     7
 10
-104.60255
 20
52.633804
 11
-101.60255
 21
52.633804
  0
LINE
  8
0
  6
CONTINUOUS
 62
     7
 10
-105.48805
 20
53.445816
 11
-101.60255
 21
53.445816
  0
LINE
  8
0
  6
CONTINUOUS
 62
     7
 10
-104.60255
 20
70.633804
 11
-104.60255
 21
52.633804
  0
LINE
  8
0
  6
CONTINUOUS
 62
     7
 10
-138.60255
 20
70.633804
 11
-138.60255
 21
46.962448
  0
LINE
  8
0
  6
CONTINUOUS
 62
     7
 10
-138.60255
 20
46.962448
 11
-132.43355
 21
46.962448
  0
LINE
  8
0
  6
CONTINUOUS
 62
     7
 10
-130.60255
 20
50.633804
 11
-122.10255
 21
50.633804
  0
LINE
  8
0
  6
CONTINUOUS
 62
     7
 10
-138.60255
 20
58.798141
 11
-132.43355
 21
58.798141
  0
LINE
  8
0
  6
CONTINUOUS
 62
     7
 10
-130.60255
 20
70.633804
 11
-130.60255
 21
50.133804
  0
LINE
  8
0
  6
CONTINUOUS
 62
     7
 10
-132.43355
 20
46.962448
 11
-130.60256
 21
50.13382
  0
LINE
  8
0
  6
CENTER
 62
     7
 10
-143.60255
 20
70.633804
 11
-79.45256
 21
70.633804
  0
LINE
  8
0
  6
CONTINUOUS
 62
     7
 10
-113.10255
 20
87.633804
 11
-106.33461
 21
87.633804
  0
LINE
  8
0
  6
CONTINUOUS
 62
     7
 10
-104.60255
 20
88.633804
 11
-101.60255
 21
88.633804
  0
LINE
  8
0
  6
CONTINUOUS
 62
     7
 10
-105.48805
 20
87.821823
 11
-101.60255
 21
87.821823
  0
LINE
  8
0
  6
CONTINUOUS
 62
     7
 10
-104.60255
 20
70.633804
 11
-104.60255
 21
88.633804
  0
LINE
  8
0
  6
CONTINUOUS
 62
     7
 10
-138.60255
 20
70.633804
 11
-138.60255
 21
94.305183
  0
LINE
  8
0
  6
CONTINUOUS
 62
     7
 10
-138.60255
 20
94.305183
 11
-132.43355
 21
94.305183
  0
LINE
  8
0
  6
CONTINUOUS
 62
     7
 10
-130.60255
 20
90.633804
 11
-122.10255
 21
90.633804
  0
LINE
  8
0
  6
CONTINUOUS
 62
     7
 10
-138.60255
 20
82.469498
 11
-132.43355
 21
82.469498
  0
LINE
  8
0
  6
CONTINUOUS
 62
     7
 10
-130.60255
 20
70.633804
 11
-130.60255
 21
91.133804
  0
LINE
  8
0
  6
CONTINUOUS
 62
     7
 10
-132.43354
 20
94.305183
 11
-130.60255
 21
91.13382
  0
LINE
  8
0
  6
CONTINUOUS
 62
     7
 10
-96.353104
 20
216.3688
 11
-96.353104
 21
218.15863
  0
LINE
  8
0
  6
CONTINUOUS
 62
     7
 10
-96.353104
 20
216.3688
 11
-109.85201
 21
216.3688
  0
LINE
  8
0
  6
CONTINUOUS
 62
     7
 10
-96.353104
 20
218.15863
 11
-109.85201
 21
218.15863
  0
LINE
  8
0
  6
CONTINUOUS
 62
     7
 10
-109.85201
 20
216.3688
 11
-109.85201
 21
218.15863
  0
LINE
  8
0
  6
CONTINUOUS
 62
     7
 10
-110.60255
 20
210.63382
 11
-110.60255
 21
222.63382
  0
LINE
  8
0
  6
CONTINUOUS
 62
     7
 10
-109.852
 20
223.93379
 11
-110.60256
 21
222.63378
  0
LINE
  8
0
  6
CONTINUOUS
 62
     7
 10
-96.353104
 20
223.93382
 11
-109.85201
 21
223.93382
  0
LINE
  8
0
  6
CONTINUOUS
 62
     7
 10
-95.602553
 20
222.63378
 11
-96.353118
 21
223.9338
  0
LINE
  8
0
  6
CONTINUOUS
 62
     7
 10
-95.602554
 20
210.63382
 11
-95.602554
 21
222.63382
  0
LINE
  8
0
  6
CONTINUOUS
 62
     7
 10
-96.353104
 20
204.89883
 11
-96.353104
 21
203.10901
  0
LINE
  8
0
  6
CONTINUOUS
 62
     7
 10
-96.353104
 20
204.89883
 11
-109.85201
 21
204.89883
  0
LINE
  8
0
  6
CONTINUOUS
 62
     7
 10
-96.353104
 20
203.10901
 11
-109.85201
 21
203.10901
  0
LINE
  8
0
  6
CONTINUOUS
 62
     7
 10
-109.85201
 20
204.89883
 11
-109.85201
 21
203.10901
  0
LINE
  8
0
  6
CONTINUOUS
 62
     7
 10
-110.60255
 20
210.63382
 11
-110.60255
 21
198.63382
  0
LINE
  8
0
  6
CONTINUOUS
 62
     7
 10
-109.85201
 20
197.33383
 11
-110.60256
 21
198.63382
  0
LINE
  8
0
  6
CONTINUOUS
 62
     7
 10
-96.353104
 20
197.3338
 11
-109.85201
 21
197.3338
  0
LINE
  8
0
  6
CONTINUOUS
 62
     7
 10
-95.602557
 20
198.63383
 11
-96.353114
 21
197.33383
  0
LINE
  8
0
  6
CONTINUOUS
 62
     7
 10
-95.602554
 20
210.63382
 11
-95.602554
 21
198.63382
  0
LINE
  8
0
  6
CONTINUOUS
 62
     7
 10
-92.699546
 20
163.53382
 11
-91.602576
 21
161.63381
  0
LINE
  8
0
  6
CONTINUOUS
 62
     7
 10
-105.50563
 20
163.53381
 11
-92.699539
 21
163.53381
  0
LINE
  8
0
  6
CONTINUOUS
 62
     7
 10
-106.60257
 20
161.6338
 11
-105.50561
 21
163.53379
  0
LINE
  8
0
  6
CONTINUOUS
 62
     7
 10
-106.60258
 20
145.63382
 11
-106.60258
 21
161.63382
  0
LINE
  8
0
  6
CONTINUOUS
 62
     7
 10
-105.50563
 20
153.65939
 11
-105.50563
 21
155.47743
  0
LINE
  8
0
  6
CONTINUOUS
 62
     7
 10
-105.50563
 20
155.47743
 11
-92.699539
 21
155.47743
  0
LINE
  8
0
  6
CONTINUOUS
 62
     7
 10
-105.50563
 20
153.65939
 11
-92.699539
 21
153.65939
  0
LINE
  8
0
  6
CONTINUOUS
 62
     7
 10
-91.602585
 20
145.63382
 11
-91.602585
 21
161.63382
  0
LINE
  8
0
  6
CONTINUOUS
 62
     7
 10
-92.699539
 20
153.65939
 11
-92.699539
 21
155.47743
  0
LINE
  8
0
  6
CONTINUOUS
 62
     7
 10
-92.69953
 20
127.7338
 11
-91.60256
 21
129.6338
  0
LINE
  8
0
  6
CONTINUOUS
 62
     7
 10
-105.50563
 20
127.73383
 11
-92.699539
 21
127.73383
  0
LINE
  8
0
  6
CONTINUOUS
 62
     7
 10
-106.60259
 20
129.63382
 11
-105.50563
 21
127.73383
  0
LINE
  8
0
  6
CONTINUOUS
 62
     7
 10
-106.60258
 20
145.63382
 11
-106.60258
 21
129.63382
  0
LINE
  8
0
  6
CONTINUOUS
 62
     7
 10
-105.50563
 20
137.60825
 11
-105.50563
 21
135.79021
  0
LINE
  8
0
  6
CONTINUOUS
 62
     7
 10
-105.50563
 20
135.79021
 11
-92.699539
 21
135.79021
  0
LINE
  8
0
  6
CONTINUOUS
 62
     7
 10
-105.50563
 20
137.60825
 11
-92.699539
 21
137.60825
  0
LINE
  8
0
  6
CONTINUOUS
 62
     7
 10
-91.602585
 20
145.63382
 11
-91.602585
 21
129.63382
  0
LINE
  8
0
  6
CONTINUOUS
 62
     7
 10
-92.699539
 20
137.60825
 11
-92.699539
 21
135.79021
  0
ARC
  8
0
  6
CONTINUOUS
 62
     7
 10
-125.60255
 20
200.13382
 40
3
 50
270
 51
307.95803
  0
ARC
  8
0
  6
CONTINUOUS
 62
     7
 10
-117.60646
 20
189.88382
 40
10
 50
90.000003
 51
127.95803
  0
ARC
  8
0
  6
CONTINUOUS
 62
     7
 10
-125.60255
 20
221.13382
 40
3
 50
52.041971
 51
90.000003
  0
ARC
  8
0
  6
CONTINUOUS
 62
     7
 10
-117.60646
 20
231.38382
 40
10
 50
232.04197
 51
270
  0
ARC
  8
0
  6
CONTINUOUS
 62
     7
 10
-124.10255
 20
132.63382
 40
3
 50
270
 51
295.47437
  0
ARC
  8
0
  6
CONTINUOUS
 62
     7
 10
-116.36064
 20
116.38382
 40
15
 50
90.000003
 51
115.47437
  0
ARC
  8
0
  6
CONTINUOUS
 62
     7
 10
-124.10255
 20
158.63382
 40
3
 50
64.52563
 51
90.000003
  0
ARC
  8
0
  6
CONTINUOUS
 62
     7
 10
-116.36064
 20
174.88382
 40
15
 50
244.52563
 51
270
  0
ARC
  8
0
  6
CONTINUOUS
 62
     7
 10
-122.10255
 20
55.633804
 40
5
 50
270
 51
306.8699
  0
ARC
  8
0
  6
CONTINUOUS
 62
     7
 10
-113.10255
 20
43.633804
 40
10
 50
90.000003
 51
126.8699
  0
ARC
  8
0
  6
CONTINUOUS
 62
     7
 10
-106.33461
 20
51.633804
 40
2
 50
30.000001
 51
90.000003
  0
ARC
  8
0
  6
CONTINUOUS
 62
     7
 10
-122.10255
 20
85.633804
 40
5
 50
53.130102
 51
90.000003
  0
ARC
  8
0
  6
CONTINUOUS
 62
     7
 10
-113.10255
 20
97.633812
 40
10
 50
233.1301
 51
270
  0
ARC
  8
0
  6
CONTINUOUS
 62
     7
 10
-106.33461
 20
89.633804
 40
2
 50
270
 51
330
  0
POLYLINE
  8
0
  6
CONTINUOUS
 62
     7
 66
     1
 10
0
 20
0
  0
VERTEX
  8
0
  6
CONTINUOUS
 62
     7
 10
-85.891235
 20
70.633812
 42
0.01916166
  0
VERTEX
  8
0
  6
CONTINUOUS
 62
     7
 10
-86.029103
 20
74.209692
 42
0.018603478
  0
VERTEX
  8
0
  6
CONTINUOUS
 62
     7
 10
-86.436243
 20
77.765043
 42
0.018212825
  0
VERTEX
  8
0
  6
CONTINUOUS
 62
     7
 10
-87.103653
 20
81.280876
 42
0
  0
SEQEND
  8
0
  0
POLYLINE
  8
0
  6
CONTINUOUS
 62
     7
 66
     1
 10
0
 20
0
  0
VERTEX
  8
0
  6
CONTINUOUS
 62
     7
 10
-87.103653
 20
83.063789
 42
0.06733835
  0
VERTEX
  8
0
  6
CONTINUOUS
 62
     7
 10
-86.037547
 20
86.569035
 42
0.080048299
  0
VERTEX
  8
0
  6
CONTINUOUS
 62
     7
 10
-86.037845
 20
90.228446
 42
0.067284259
  0
VERTEX
  8
0
  6
CONTINUOUS
 62
     7
 10
-87.103653
 20
93.733803
 42
0
  0
SEQEND
  8
0
  0
POLYLINE
  8
0
  6
CONTINUOUS
 62
     7
 66
     1
 10
0
 20
0
  0
VERTEX
  8
0
  6
CONTINUOUS
 62
     7
 10
-100.10144
 20
83.063789
 42
-0.067338857
  0
VERTEX
  8
0
  6
CONTINUOUS
 62
     7
 10
-101.16757
 20
86.569033
 42
-0.080051052
  0
VERTEX
  8
0
  6
CONTINUOUS
 62
     7
 10
-101.16727
 20
90.228448
 42
-0.067284757
  0
VERTEX
  8
0
  6
CONTINUOUS
 62
     7
 10
-100.10144
 20
93.733803
 42
0
  0
SEQEND
  8
0
  0
POLYLINE
  8
0
  6
CONTINUOUS
 62
     7
 66
     1
 10
0
 20
0
  0
VERTEX
  8
0
  6
CONTINUOUS
 62
     7
 10
-101.31389
 20
70.633812
 42
-0.019162265
  0
VERTEX
  8
0
  6
CONTINUOUS
 62
     7
 10
-101.17602
 20
74.209693
 42
-0.018603814
  0
VERTEX
  8
0
  6
CONTINUOUS
 62
     7
 10
-100.76887
 20
77.765044
 42
-0.018212906
  0
VERTEX
  8
0
  6
CONTINUOUS
 62
     7
 10
-100.10144
 20
81.280876
 42
0
  0
SEQEND
  8
0
  0
POLYLINE
  8
0
  6
CONTINUOUS
 62
     7
 66
     1
 10
0
 20
0
  0
VERTEX
  8
0
  6
CONTINUOUS
 62
     7
 10
-85.891235
 20
70.633812
 42
-0.01916166
  0
VERTEX
  8
0
  6
CONTINUOUS
 62
     7
 10
-86.029103
 20
67.057932
 42
-0.018603478
  0
VERTEX
  8
0
  6
CONTINUOUS
 62
     7
 10
-86.436243
 20
63.502581
 42
-0.018212825
  0
VERTEX
  8
0
  6
CONTINUOUS
 62
     7
 10
-87.103653
 20
59.986748
 42
0
  0
SEQEND
  8
0
  0
POLYLINE
  8
0
  6
CONTINUOUS
 62
     7
 66
     1
 10
0
 20
0
  0
VERTEX
  8
0
  6
CONTINUOUS
 62
     7
 10
-87.103653
 20
58.203835
 42
-0.06733835
  0
VERTEX
  8
0
  6
CONTINUOUS
 62
     7
 10
-86.037547
 20
54.698589
 42
-0.080048299
  0
VERTEX
  8
0
  6
CONTINUOUS
 62
     7
 10
-86.037845
 20
51.039178
 42
-0.067284259
  0
VERTEX
  8
0
  6
CONTINUOUS
 62
     7
 10
-87.103653
 20
47.533821
 42
0
  0
SEQEND
  8
0
  0
POLYLINE
  8
0
  6
CONTINUOUS
 62
     7
 66
     1
 10
0
 20
0
  0
VERTEX
  8
0
  6
CONTINUOUS
 62
     7
 10
-100.10144
 20
58.203835
 42
0.067338857
  0
VERTEX
  8
0
  6
CONTINUOUS
 62
     7
 10
-101.16757
 20
54.698591
 42
0.080051052
  0
VERTEX
  8
0
  6
CONTINUOUS
 62
     7
 10
-101.16727
 20
51.039176
 42
0.067284757
  0
VERTEX
  8
0
  6
CONTINUOUS
 62
     7
 10
-100.10144
 20
47.533821
 42
0
  0
SEQEND
  8
0
  0
POLYLINE
  8
0
  6
CONTINUOUS
 62
     7
 66
     1
 10
0
 20
0
  0
VERTEX
  8
0
  6
CONTINUOUS
 62
     7
 10
-101.31389
 20
70.633812
 42
0.019162265
  0
VERTEX
  8
0
  6
CONTINUOUS
 62
     7
 10
-101.17602
 20
67.057931
 42
0.018603814
  0
VERTEX
  8
0
  6
CONTINUOUS
 62
     7
 10
-100.76887
 20
63.50258
 42
0.018212906
  0
VERTEX
  8
0
  6
CONTINUOUS
 62
     7
 10
-100.10144
 20
59.986748
 42
0
  0
SEQEND
  8
0
  0
POLYLINE
  8
0
  6
CONTINUOUS
 62
     7
 66
     1
 10
0
 20
0
  0
VERTEX
  8
0
  6
CONTINUOUS
 62
     7
 10
-133.8083
 20
195.04535
 42
0.083555248
  0
VERTEX
  8
0
  6
CONTINUOUS
 62
     7
 10
-132.75684
 20
197.57689
 42
0.11297994
  0
VERTEX
  8
0
  6
CONTINUOUS
 62
     7
 10
-132.75684
 20
200.30807
 42
0.083554437
  0
VERTEX
  8
0
  6
CONTINUOUS
 62
     7
 10
-133.8083
 20
202.83958
 42
0
  0
SEQEND
  8
0
  0
POLYLINE
  8
0
  6
CONTINUOUS
 62
     7
 66
     1
 10
0
 20
0
  0
VERTEX
  8
0
  6
CONTINUOUS
 62
     7
 10
-133.8083
 20
202.83958
 42
0.023919653
  0
VERTEX
  8
0
  6
CONTINUOUS
 62
     7
 10
-133.14947
 20
205.39379
 42
0.024852166
  0
VERTEX
  8
0
  6
CONTINUOUS
 62
     7
 10
-132.74227
 20
207.99922
 42
0.026232459
  0
VERTEX
  8
0
  6
CONTINUOUS
 62
     7
 10
-132.60255
 20
210.63382
 42
0
  0
SEQEND
  8
0
  0
POLYLINE
  8
0
  6
CONTINUOUS
 62
     7
 66
     1
 10
0
 20
0
  0
VERTEX
  8
0
  6
CONTINUOUS
 62
     7
 10
-133.8083
 20
226.22229
 42
-0.083555248
  0
VERTEX
  8
0
  6
CONTINUOUS
 62
     7
 10
-132.75684
 20
223.69075
 42
-0.11297994
  0
VERTEX
  8
0
  6
CONTINUOUS
 62
     7
 10
-132.75684
 20
220.95957
 42
-0.083554437
  0
VERTEX
  8
0
  6
CONTINUOUS
 62
     7
 10
-133.8083
 20
218.42805
 42
0
  0
SEQEND
  8
0
  0
POLYLINE
  8
0
  6
CONTINUOUS
 62
     7
 66
     1
 10
0
 20
0
  0
VERTEX
  8
0
  6
CONTINUOUS
 62
     7
 10
-133.8083
 20
218.42805
 42
-0.023919653
  0
VERTEX
  8
0
  6
CONTINUOUS
 62
     7
 10
-133.14947
 20
215.87385
 42
-0.024852166
  0
VERTEX
  8
0
  6
CONTINUOUS
 62
     7
 10
-132.74227
 20
213.26842
 42
-0.026232459
  0
VERTEX
  8
0
  6
CONTINUOUS
 62
     7
 10
-132.60255
 20
210.63382
 42
0
  0
SEQEND
  8
0
  0
POLYLINE
  8
0
  6
CONTINUOUS
 62
     7
 66
     1
 10
0
 20
0
  0
VERTEX
  8
0
  6
CONTINUOUS
 62
     7
 10
-133.03163
 20
127.15862
 42
0.083552433
  0
VERTEX
  8
0
  6
CONTINUOUS
 62
     7
 10
-131.78542
 20
130.15896
 42
0.11298639
  0
VERTEX
  8
0
  6
CONTINUOUS
 62
     7
 10
-131.78542
 20
133.39591
 42
0.083551673
  0
VERTEX
  8
0
  6
CONTINUOUS
 62
     7
 10
-133.03163
 20
136.39622
 42
0
  0
SEQEND
  8
0
  0
POLYLINE
  8
0
  6
CONTINUOUS
 62
     7
 66
     1
 10
0
 20
0
  0
VERTEX
  8
0
  6
CONTINUOUS
 62
     7
 10
-133.03163
 20
136.39622
 42
0.023918098
  0
VERTEX
  8
0
  6
CONTINUOUS
 62
     7
 10
-132.25078
 20
139.42343
 42
0.024852218
  0
VERTEX
  8
0
  6
CONTINUOUS
 62
     7
 10
-131.76815
 20
142.51133
 42
0.026233974
  0
VERTEX
  8
0
  6
CONTINUOUS
 62
     7
 10
-131.60255
 20
145.63382
 42
0
  0
SEQEND
  8
0
  0
POLYLINE
  8
0
  6
CONTINUOUS
 62
     7
 66
     1
 10
0
 20
0
  0
VERTEX
  8
0
  6
CONTINUOUS
 62
     7
 10
-133.03163
 20
164.10902
 42
-0.083552433
  0
VERTEX
  8
0
  6
CONTINUOUS
 62
     7
 10
-131.78542
 20
161.10868
 42
-0.11298639
  0
VERTEX
  8
0
  6
CONTINUOUS
 62
     7
 10
-131.78542
 20
157.87173
 42
-0.083551673
  0
VERTEX
  8
0
  6
CONTINUOUS
 62
     7
 10
-133.03163
 20
154.87141
 42
0
  0
SEQEND
  8
0
  0
POLYLINE
  8
0
  6
CONTINUOUS
 62
     7
 66
     1
 10
0
 20
0
  0
VERTEX
  8
0
  6
CONTINUOUS
 62
     7
 10
-133.03163
 20
154.87141
 42
-0.023918098
  0
VERTEX
  8
0
  6
CONTINUOUS
 62
     7
 10
-132.25078
 20
151.84421
 42
-0.024852218
  0
VERTEX
  8
0
  6
CONTINUOUS
 62
     7
 10
-131.76815
 20
148.75631
 42
-0.026233974
  0
VERTEX
  8
0
  6
CONTINUOUS
 62
     7
 10
-131.60255
 20
145.63382
 42
0
  0
SEQEND
  8
0
  0
POLYLINE
  8
0
  6
CONTINUOUS
 62
     7
 66
     1
 10
0
 20
0
  0
VERTEX
  8
0
  6
CONTINUOUS
 62
     7
 10
-132.43355
 20
46.96244
 42
0.083553091
  0
VERTEX
  8
0
  6
CONTINUOUS
 62
     7
 10
-130.83684
 20
50.806635
 42
0.11298488
  0
VERTEX
  8
0
  6
CONTINUOUS
 62
     7
 10
-130.83685
 20
54.953971
 42
0.083552331
  0
VERTEX
  8
0
  6
CONTINUOUS
 62
     7
 10
-132.43355
 20
58.798134
 42
0
  0
SEQEND
  8
0
  0
POLYLINE
  8
0
  6
CONTINUOUS
 62
     7
 66
     1
 10
0
 20
0
  0
VERTEX
  8
0
  6
CONTINUOUS
 62
     7
 10
-132.43355
 20
58.798134
 42
0.023918467
  0
VERTEX
  8
0
  6
CONTINUOUS
 62
     7
 10
-131.43308
 20
62.676739
 42
0.02485219
  0
VERTEX
  8
0
  6
CONTINUOUS
 62
     7
 10
-130.81473
 20
66.633119
 42
0.026233625
  0
VERTEX
  8
0
  6
CONTINUOUS
 62
     7
 10
-130.60255
 20
70.633812
 42
0
  0
SEQEND
  8
0
  0
POLYLINE
  8
0
  6
CONTINUOUS
 62
     7
 66
     1
 10
0
 20
0
  0
VERTEX
  8
0
  6
CONTINUOUS
 62
     7
 10
-132.43355
 20
94.305183
 42
-0.083553091
  0
VERTEX
  8
0
  6
CONTINUOUS
 62
     7
 10
-130.83684
 20
90.460989
 42
-0.11298488
  0
VERTEX
  8
0
  6
CONTINUOUS
 62
     7
 10
-130.83685
 20
86.313653
 42
-0.083552331
  0
VERTEX
  8
0
  6
CONTINUOUS
 62
     7
 10
-132.43355
 20
82.46949
 42
0
  0
SEQEND
  8
0
  0
POLYLINE
  8
0
  6
CONTINUOUS
 62
     7
 66
     1
 10
0
 20
0
  0
VERTEX
  8
0
  6
CONTINUOUS
 62
     7
 10
-132.43355
 20
82.46949
 42
-0.023918467
  0
VERTEX
  8
0
  6
CONTINUOUS
 62
     7
 10
-131.43308
 20
78.590885
 42
-0.02485219
  0
VERTEX
  8
0
  6
CONTINUOUS
 62
     7
 10
-130.81473
 20
74.634505
 42
-0.026233625
  0
VERTEX
  8
0
  6
CONTINUOUS
 62
     7
 10
-130.60255
 20
70.633812
 42
0
  0
SEQEND
  8
0
  0
POLYLINE
  8
0
  6
CONTINUOUS
 62
     7
 66
     1
 10
0
 20
0
  0
VERTEX
  8
0
  6
CONTINUOUS
 62
     7
 10
-96.353104
 20
218.15863
 42
0.050243496
  0
VERTEX
  8
0
  6
CONTINUOUS
 62
     7
 10
-95.944758
 20
220.06932
 42
0.054947182
  0
VERTEX
  8
0
  6
CONTINUOUS
 62
     7
 10
-95.945032
 20
222.02373
 42
0.050155644
  0
VERTEX
  8
0
  6
CONTINUOUS
 62
     7
 10
-96.353104
 20
223.93382
 42
0
  0
SEQEND
  8
0
  0
POLYLINE
  8
0
  6
CONTINUOUS
 62
     7
 66
     1
 10
0
 20
0
  0
VERTEX
  8
0
  6
CONTINUOUS
 62
     7
 10
-96.353104
 20
216.3688
 42
-0.013138069
  0
VERTEX
  8
0
  6
CONTINUOUS
 62
     7
 10
-96.097824
 20
214.46741
 42
-0.013285875
  0
VERTEX
  8
0
  6
CONTINUOUS
 62
     7
 10
-95.943235
 20
212.55434
 42
-0.013500074
  0
VERTEX
  8
0
  6
CONTINUOUS
 62
     7
 10
-95.89122
 20
210.63382
 42
0
  0
SEQEND
  8
0
  0
POLYLINE
  8
0
  6
CONTINUOUS
 62
     7
 66
     1
 10
0
 20
0
  0
VERTEX
  8
0
  6
CONTINUOUS
 62
     7
 10
-109.85201
 20
216.3688
 42
0.013138069
  0
VERTEX
  8
0
  6
CONTINUOUS
 62
     7
 10
-110.10728
 20
214.46741
 42
0.013285875
  0
VERTEX
  8
0
  6
CONTINUOUS
 62
     7
 10
-110.26187
 20
212.55434
 42
0.013500074
  0
VERTEX
  8
0
  6
CONTINUOUS
 62
     7
 10
-110.31389
 20
210.63382
 42
0
  0
SEQEND
  8
0
  0
POLYLINE
  8
0
  6
CONTINUOUS
 62
     7
 66
     1
 10
0
 20
0
  0
VERTEX
  8
0
  6
CONTINUOUS
 62
     7
 10
-109.85201
 20
218.15863
 42
-0.050243496
  0
VERTEX
  8
0
  6
CONTINUOUS
 62
     7
 10
-110.26035
 20
220.06932
 42
-0.054947182
  0
VERTEX
  8
0
  6
CONTINUOUS
 62
     7
 10
-110.26008
 20
222.02373
 42
-0.050155644
  0
VERTEX
  8
0
  6
CONTINUOUS
 62
     7
 10
-109.85201
 20
223.93382
 42
0
  0
SEQEND
  8
0
  0
POLYLINE
  8
0
  6
CONTINUOUS
 62
     7
 66
     1
 10
0
 20
0
  0
VERTEX
  8
0
  6
CONTINUOUS
 62
     7
 10
-96.353104
 20
203.10901
 42
-0.050243631
  0
VERTEX
  8
0
  6
CONTINUOUS
 62
     7
 10
-95.944758
 20
201.19831
 42
-0.054947064
  0
VERTEX
  8
0
  6
CONTINUOUS
 62
     7
 10
-95.945033
 20
199.2439
 42
-0.050155593
  0
VERTEX
  8
0
  6
CONTINUOUS
 62
     7
 10
-96.353104
 20
197.3338
 42
0
  0
SEQEND
  8
0
  0
POLYLINE
  8
0
  6
CONTINUOUS
 62
     7
 66
     1
 10
0
 20
0
  0
VERTEX
  8
0
  6
CONTINUOUS
 62
     7
 10
-96.353104
 20
204.89883
 42
0.013138069
  0
VERTEX
  8
0
  6
CONTINUOUS
 62
     7
 10
-96.097824
 20
206.80023
 42
0.013285875
  0
VERTEX
  8
0
  6
CONTINUOUS
 62
     7
 10
-95.943235
 20
208.7133
 42
0.013500074
  0
VERTEX
  8
0
  6
CONTINUOUS
 62
     7
 10
-95.89122
 20
210.63382
 42
0
  0
SEQEND
  8
0
  0
POLYLINE
  8
0
  6
CONTINUOUS
 62
     7
 66
     1
 10
0
 20
0
  0
VERTEX
  8
0
  6
CONTINUOUS
 62
     7
 10
-109.85201
 20
204.89883
 42
-0.013138069
  0
VERTEX
  8
0
  6
CONTINUOUS
 62
     7
 10
-110.10728
 20
206.80023
 42
-0.013285875
  0
VERTEX
  8
0
  6
CONTINUOUS
 62
     7
 10
-110.26187
 20
208.7133
 42
-0.013500074
  0
VERTEX
  8
0
  6
CONTINUOUS
 62
     7
 10
-110.31389
 20
210.63382
 42
0
  0
SEQEND
  8
0
  0
POLYLINE
  8
0
  6
CONTINUOUS
 62
     7
 66
     1
 10
0
 20
0
  0
VERTEX
  8
0
  6
CONTINUOUS
 62
     7
 10
-109.85201
 20
203.10901
 42
0.050243631
  0
VERTEX
  8
0
  6
CONTINUOUS
 62
     7
 10
-110.26035
 20
201.19831
 42
0.054947064
  0
VERTEX
  8
0
  6
CONTINUOUS
 62
     7
 10
-110.26008
 20
199.2439
 42
0.050155593
  0
VERTEX
  8
0
  6
CONTINUOUS
 62
     7
 10
-109.85201
 20
197.3338
 42
0
  0
SEQEND
  8
0
  0
POLYLINE
  8
0
  6
CONTINUOUS
 62
     7
 66
     1
 10
0
 20
0
  0
VERTEX
  8
0
  6
CONTINUOUS
 62
     7
 10
-106.31392
 20
145.63382
 42
-0.016924364
  0
VERTEX
  8
0
  6
CONTINUOUS
 62
     7
 10
-106.22233
 20
148.3267
 42
-0.01653495
  0
VERTEX
  8
0
  6
CONTINUOUS
 62
     7
 10
-105.95098
 20
151.00738
 42
-0.016230051
  0
VERTEX
  8
0
  6
CONTINUOUS
 62
     7
 10
-105.50563
 20
153.65939
 42
0
  0
SEQEND
  8
0
  0
POLYLINE
  8
0
  6
CONTINUOUS
 62
     7
 66
     1
 10
0
 20
0
  0
VERTEX
  8
0
  6
CONTINUOUS
 62
     7
 10
-92.699539
 20
163.53381
 42
-0.060911984
  0
VERTEX
  8
0
  6
CONTINUOUS
 62
     7
 10
-91.987385
 20
160.87869
 42
-0.069925443
  0
VERTEX
  8
0
  6
CONTINUOUS
 62
     7
 10
-91.98716
 20
158.13201
 42
-0.060971265
  0
VERTEX
  8
0
  6
CONTINUOUS
 62
     7
 10
-92.699539
 20
155.47743
 42
0
  0
SEQEND
  8
0
  0
POLYLINE
  8
0
  6
CONTINUOUS
 62
     7
 66
     1
 10
0
 20
0
  0
VERTEX
  8
0
  6
CONTINUOUS
 62
     7
 10
-105.50563
 20
155.47743
 42
-0.060980192
  0
VERTEX
  8
0
  6
CONTINUOUS
 62
     7
 10
-106.21807
 20
158.13243
 42
-0.069926221
  0
VERTEX
  8
0
  6
CONTINUOUS
 62
     7
 10
-106.21773
 20
160.87911
 42
-0.060900827
  0
VERTEX
  8
0
  6
CONTINUOUS
 62
     7
 10
-105.50563
 20
163.53381
 42
0
  0
SEQEND
  8
0
  0
POLYLINE
  8
0
  6
CONTINUOUS
 62
     7
 66
     1
 10
0
 20
0
  0
VERTEX
  8
0
  6
CONTINUOUS
 62
     7
 10
-92.699539
 20
153.65939
 42
-0.016246285
  0
VERTEX
  8
0
  6
CONTINUOUS
 62
     7
 10
-92.253844
 20
151.00482
 42
-0.016520534
  0
VERTEX
  8
0
  6
CONTINUOUS
 62
     7
 10
-91.982823
 20
148.32651
 42
-0.016923018
  0
VERTEX
  8
0
  6
CONTINUOUS
 62
     7
 10
-91.891251
 20
145.63382
 42
0
  0
SEQEND
  8
0
  0
POLYLINE
  8
0
  6
CONTINUOUS
 62
     7
 66
     1
 10
0
 20
0
  0
VERTEX
  8
0
  6
CONTINUOUS
 62
     7
 10
-106.31392
 20
145.63382
 42
0.016924364
  0
VERTEX
  8
0
  6
CONTINUOUS
 62
     7
 10
-106.22233
 20
142.94094
 42
0.01653495
  0
VERTEX
  8
0
  6
CONTINUOUS
 62
     7
 10
-105.95098
 20
140.26026
 42
0.016230051
  0
VERTEX
  8
0
  6
CONTINUOUS
 62
     7
 10
-105.50563
 20
137.60825
 42
0
  0
SEQEND
  8
0
  0
POLYLINE
  8
0
  6
CONTINUOUS
 62
     7
 66
     1
 10
0
 20
0
  0
VERTEX
  8
0
  6
CONTINUOUS
 62
     7
 10
-92.699539
 20
127.73383
 42
0.060911984
  0
VERTEX
  8
0
  6
CONTINUOUS
 62
     7
 10
-91.987385
 20
130.38895
 42
0.069925443
  0
VERTEX
  8
0
  6
CONTINUOUS
 62
     7
 10
-91.98716
 20
133.13563
 42
0.060971265
  0
VERTEX
  8
0
  6
CONTINUOUS
 62
     7
 10
-92.699539
 20
135.79021
 42
0
  0
SEQEND
  8
0
  0
POLYLINE
  8
0
  6
CONTINUOUS
 62
     7
 66
     1
 10
0
 20
0
  0
VERTEX
  8
0
  6
CONTINUOUS
 62
     7
 10
-105.50563
 20
135.79021
 42
0.060980192
  0
VERTEX
  8
0
  6
CONTINUOUS
 62
     7
 10
-106.21807
 20
133.13521
 42
0.069926221
  0
VERTEX
  8
0
  6
CONTINUOUS
 62
     7
 10
-106.21773
 20
130.38853
 42
0.060900827
  0
VERTEX
  8
0
  6
CONTINUOUS
 62
     7
 10
-105.50563
 20
127.73383
 42
0
  0
SEQEND
  8
0
  0
POLYLINE
  8
0
  6
CONTINUOUS
 62
     7
 66
     1
 10
0
 20
0
  0
VERTEX
  8
0
  6
CONTINUOUS
 62
     7
 10
-92.699539
 20
137.60825
 42
0.016246285
  0
VERTEX
  8
0
  6
CONTINUOUS
 62
     7
 10
-92.253844
 20
140.26282
 42
0.016520534
  0
VERTEX
  8
0
  6
CONTINUOUS
 62
     7
 10
-91.982823
 20
142.94113
 42
0.016923018
  0
VERTEX
  8
0
  6
CONTINUOUS
 62
     7
 10
-91.891251
 20
145.63382
 42
0
  0
SEQEND
  8
0
  0
TEXT
  8
0
  6
CONTINUOUS
 62
     7
 10
-176.10388
 20
271.3978
 40
5
 41
0.84349531
  1
ＭＲ－Ｊ　　メスアダプター
  0
TEXT
  8
0
  6
CONTINUOUS
 62
     7
 10
-128.93929
 20
230.70001
 40
4.8000002
 41
1.0084034
  1
13X1/2
  0
TEXT
  8
0
  6
CONTINUOUS
 62
     7
 10
-127.53928
 20
167.35
 40
4.8000002
 41
1.0084034
  1
20X3/4
  0
TEXT
  8
0
  6
CONTINUOUS
 62
     7
 10
-123.33929
 20
97.000001
 40
4.8000002
 41
1.0129871
  1
25X1
  0
LINE
  8
1
  6
CONTINUOUS
 62
     7
 10
-210
 20
0
 11
0
 21
0
  0
LINE
  8
1
  6
CONTINUOUS
 62
     7
 10
-210
 20
297
 11
0
 21
297
  0
LINE
  8
1
  6
CONTINUOUS
 62
     7
 10
0
 20
297
 11
0
 21
0
  0
LINE
  8
1
  6
CONTINUOUS
 62
     7
 10
-210
 20
297
 11
-210
 21
0
  0
ENDSEC
  0
EOF
