  0
SECTION
  2
HEADER
  9
$EXTMAX
 10
0
 20
297
  9
$EXTMIN
 10
-210
 20
0
  0
ENDSEC
  0
SECTION
  2
TABLES
  0
TABLE
  2
LTYPE
 70
    22
  0
LTYPE
  2
CONTINUOUS
 70
    64
  3
Solid line
 72
    65
 73
     0
 40
0.000000
  0
LTYPE
  2
DASHED
 70
    64
  3
__ __ __ __ __ __ __ __ __ __ __ __ __ __ __
 72
    65
 73
     2
 40
3.500000
 49
2.000000
 49
-1.500000
  0
LTYPE
  2
CENTER
 70
    64
  3
____ _ ____ _ ____ _ ____ _ ____ _ ____ _ ____
 72
    65
 73
     4
 40
17.500000
 49
13.000000
 49
-1.500000
 49
1.500000
 49
-1.500000
  0
LTYPE
  2
PHANTOM
 70
    64
  3
_____ _ _ _____ _ _ _____ _ _ _____ _ _ ____  
 72
    65
 73
     6
 40
15.500000
 49
8.000000
 49
-1.500000
 49
1.500000
 49
-1.500000
 49
1.500000
 49
-1.500000
  0
LTYPE
  2
DOT
 70
    64
  3
. . . . . . . . . . . . . . . . . . . . . . . .
 72
    65
 73
     2
 40
0.25
 49
0.0
 49
-0.25
  0
ENDTAB
  0
TABLE
  2
LAYER
 70
     2
  0
LAYER
  2
0
 70
     0
 62
     7
  6
CONTINUOUS
  0
LAYER
  2
1
 70
     0
 62
     7
  6
CONTINUOUS
  0
ENDTAB
  0
TABLE
  2
STYLE
 70
     1
  0
STYLE
  2
STANDARD
 70
     0
 40
0.000000
 41
1.000000
 50
0.000000
 71
     0
 42
0.200000
  3
txt
  4
BIGFONT
  0
ENDTAB
  0
TABLE
  2
VIEW
 70
     0
  0
ENDTAB
  0
ENDSEC
  0
SECTION
  2
BLOCKS
  0
ENDSEC
  0
SECTION
  2
ENTITIES
  0
POINT
  8
0
  6
CONTINUOUS
 62
     7
 10
-138.60255
 20
210.63382
  0
POINT
  8
0
  6
CONTINUOUS
 62
     7
 10
-138.60255
 20
145.63382
  0
POINT
  8
0
  6
CONTINUOUS
 62
     7
 10
-138.60255
 20
70.633804
  0
POINT
  8
0
  6
CONTINUOUS
 62
     7
 10
-85.602562
 20
70.633804
  0
POINT
  8
0
  6
CONTINUOUS
 62
     7
 10
-138.60255
 20
145.63382
  0
POINT
  8
0
  6
CONTINUOUS
 62
     7
 10
-138.60255
 20
70.633804
  0
LINE
  8
0
  6
CONTINUOUS
 62
     7
 10
-154.17996
 20
271.4249
 11
-152.17996
 21
271.4249
  0
LINE
  8
0
  6
CONTINUOUS
 62
     7
 10
-154.17996
 20
276.28983
 11
-152.17996
 21
276.28983
  0
LINE
  8
0
  6
CONTINUOUS
 62
     7
 10
-152.67996
 20
276.28983
 11
-152.67996
 21
271.4249
  0
LINE
  8
0
  6
CONTINUOUS
 62
     7
 10
-153.67996
 20
276.28983
 11
-153.67996
 21
271.4249
  0
LINE
  8
0
  6
CONTINUOUS
 62
     7
 10
-92.699532
 20
163.53381
 11
-91.602562
 21
161.6338
  0
LINE
  8
0
  6
CONTINUOUS
 62
     7
 10
-105.50561
 20
163.53381
 11
-92.699532
 21
163.53381
  0
LINE
  8
0
  6
CONTINUOUS
 62
     7
 10
-106.60256
 20
161.63379
 11
-105.5056
 21
163.53379
  0
LINE
  8
0
  6
CONTINUOUS
 62
     7
 10
-106.60258
 20
145.63382
 11
-106.60258
 21
161.63382
  0
LINE
  8
0
  6
CONTINUOUS
 62
     7
 10
-105.50561
 20
153.65939
 11
-105.50561
 21
155.47743
  0
LINE
  8
0
  6
CONTINUOUS
 62
     7
 10
-105.50561
 20
155.47743
 11
-92.699532
 21
155.47743
  0
LINE
  8
0
  6
CONTINUOUS
 62
     7
 10
-105.50561
 20
153.65939
 11
-92.699532
 21
153.65939
  0
LINE
  8
0
  6
CONTINUOUS
 62
     7
 10
-91.602562
 20
145.63382
 11
-91.602562
 21
161.63382
  0
LINE
  8
0
  6
CONTINUOUS
 62
     7
 10
-92.699532
 20
153.65939
 11
-92.699532
 21
155.47743
  0
LINE
  8
0
  6
CONTINUOUS
 62
     7
 10
-92.699517
 20
127.7338
 11
-91.602548
 21
129.6338
  0
LINE
  8
0
  6
CONTINUOUS
 62
     7
 10
-105.50561
 20
127.73382
 11
-92.699532
 21
127.73382
  0
LINE
  8
0
  6
CONTINUOUS
 62
     7
 10
-106.60257
 20
129.63381
 11
-105.50561
 21
127.73382
  0
LINE
  8
0
  6
CONTINUOUS
 62
     7
 10
-106.60258
 20
145.63382
 11
-106.60258
 21
129.63382
  0
LINE
  8
0
  6
CONTINUOUS
 62
     7
 10
-105.50561
 20
137.60825
 11
-105.50561
 21
135.79021
  0
LINE
  8
0
  6
CONTINUOUS
 62
     7
 10
-105.50561
 20
135.79021
 11
-92.699532
 21
135.79021
  0
LINE
  8
0
  6
CONTINUOUS
 62
     7
 10
-105.50561
 20
137.60825
 11
-92.699532
 21
137.60825
  0
LINE
  8
0
  6
CONTINUOUS
 62
     7
 10
-91.602562
 20
145.63382
 11
-91.602562
 21
129.63382
  0
LINE
  8
0
  6
CONTINUOUS
 62
     7
 10
-92.699532
 20
137.60825
 11
-92.699532
 21
135.79021
  0
LINE
  8
0
  6
CONTINUOUS
 62
     7
 10
-121.62008
 20
204.28297
 11
-117.58504
 21
204.28297
  0
LINE
  8
0
  6
CONTINUOUS
 62
     7
 10
-121.62008
 20
197.93211
 11
-117.58504
 21
197.93211
  0
LINE
  8
0
  6
CONTINUOUS
 62
     7
 10
-116.60259
 20
199.88382
 11
-114.44201
 21
199.88382
  0
LINE
  8
0
  6
CONTINUOUS
 62
     7
 10
-122.60257
 20
199.63379
 11
-121.62009
 21
197.93208
  0
LINE
  8
0
  6
CONTINUOUS
 62
     7
 10
-116.60259
 20
210.63382
 11
-116.60259
 21
199.63382
  0
LINE
  8
0
  6
CONTINUOUS
 62
     7
 10
-114.009
 20
200.13382
 11
-110.60256
 21
200.13382
  0
LINE
  8
0
  6
CONTINUOUS
 62
     7
 10
-112.60259
 20
200.94582
 11
-110.60256
 21
200.94582
  0
LINE
  8
0
  6
CONTINUOUS
 62
     7
 10
-114.44201
 20
199.88377
 11
-114.00899
 21
200.13377
  0
LINE
  8
0
  6
CENTER
 62
     7
 10
-143.60255
 20
210.63382
 11
-89.252586
 21
210.63382
  0
LINE
  8
0
  6
CONTINUOUS
 62
     7
 10
-112.60259
 20
210.63382
 11
-112.60259
 21
200.13382
  0
LINE
  8
0
  6
CONTINUOUS
 62
     7
 10
-114.00899
 20
200.13377
 11
-112.60256
 21
200.94577
  0
LINE
  8
0
  6
CONTINUOUS
 62
     7
 10
-117.58505
 20
197.93208
 11
-116.60257
 21
199.63379
  0
LINE
  8
0
  6
CONTINUOUS
 62
     7
 10
-122.60256
 20
210.63382
 11
-122.60256
 21
199.63382
  0
LINE
  8
0
  6
CONTINUOUS
 62
     7
 10
-138.60257
 20
201.57328
 11
-137.40308
 21
200.37381
  0
LINE
  8
0
  6
CONTINUOUS
 62
     7
 10
-138.60255
 20
201.57332
 11
-138.60255
 21
210.63382
  0
LINE
  8
0
  6
CONTINUOUS
 62
     7
 10
-138.60257
 20
201.57329
 11
-125.44259
 21
201.16204
  0
LINE
  8
0
  6
CONTINUOUS
 62
     7
 10
-137.4031
 20
200.3738
 11
-122.60258
 21
199.91129
  0
LINE
  8
0
  6
CONTINUOUS
 62
     7
 10
-125.44259
 20
200.00006
 11
-125.44259
 21
210.63382
  0
LINE
  8
0
  6
CONTINUOUS
 62
     7
 10
-125.44258
 20
201.16204
 11
-123.31475
 21
199.93354
  0
LINE
  8
0
  6
CONTINUOUS
 62
     7
 10
-137.40309
 20
210.63382
 11
-137.40309
 21
200.37383
  0
LINE
  8
0
  6
CONTINUOUS
 62
     7
 10
-121.62008
 20
216.98466
 11
-117.58504
 21
216.98466
  0
LINE
  8
0
  6
CONTINUOUS
 62
     7
 10
-121.62008
 20
223.33553
 11
-117.58504
 21
223.33553
  0
LINE
  8
0
  6
CONTINUOUS
 62
     7
 10
-116.60259
 20
221.38382
 11
-114.44201
 21
221.38382
  0
LINE
  8
0
  6
CONTINUOUS
 62
     7
 10
-122.60258
 20
221.63381
 11
-121.62009
 21
223.33552
  0
LINE
  8
0
  6
CONTINUOUS
 62
     7
 10
-116.60259
 20
210.63382
 11
-116.60259
 21
221.63382
  0
LINE
  8
0
  6
CONTINUOUS
 62
     7
 10
-114.009
 20
221.13382
 11
-110.60256
 21
221.13382
  0
LINE
  8
0
  6
CONTINUOUS
 62
     7
 10
-112.60259
 20
220.32182
 11
-110.60256
 21
220.32182
  0
LINE
  8
0
  6
CONTINUOUS
 62
     7
 10
-114.442
 20
221.38382
 11
-114.00899
 21
221.13382
  0
LINE
  8
0
  6
CONTINUOUS
 62
     7
 10
-112.60259
 20
210.63382
 11
-112.60259
 21
221.13382
  0
LINE
  8
0
  6
CONTINUOUS
 62
     7
 10
-114.00899
 20
221.13382
 11
-112.60257
 21
220.32182
  0
LINE
  8
0
  6
CONTINUOUS
 62
     7
 10
-117.58507
 20
223.33552
 11
-116.60259
 21
221.63381
  0
LINE
  8
0
  6
CONTINUOUS
 62
     7
 10
-122.60256
 20
210.63382
 11
-122.60256
 21
221.63382
  0
LINE
  8
0
  6
CONTINUOUS
 62
     7
 10
-138.60257
 20
219.69431
 11
-137.4031
 21
220.89379
  0
LINE
  8
0
  6
CONTINUOUS
 62
     7
 10
-138.60255
 20
219.69432
 11
-138.60255
 21
210.63382
  0
LINE
  8
0
  6
CONTINUOUS
 62
     7
 10
-138.60258
 20
219.69431
 11
-125.44257
 21
220.10556
  0
LINE
  8
0
  6
CONTINUOUS
 62
     7
 10
-137.40307
 20
220.8938
 11
-122.60256
 21
221.35632
  0
LINE
  8
0
  6
CONTINUOUS
 62
     7
 10
-125.44259
 20
221.26758
 11
-125.44259
 21
210.63382
  0
LINE
  8
0
  6
CONTINUOUS
 62
     7
 10
-125.44259
 20
220.10556
 11
-123.31477
 21
221.33406
  0
LINE
  8
0
  6
CONTINUOUS
 62
     7
 10
-137.40309
 20
210.63382
 11
-137.40309
 21
220.89381
  0
LINE
  8
0
  6
CONTINUOUS
 62
     7
 10
-118.76281
 20
128.31331
 11
-114.4423
 21
128.31331
  0
LINE
  8
0
  6
CONTINUOUS
 62
     7
 10
-118.76281
 20
136.97357
 11
-114.4423
 21
136.97357
  0
LINE
  8
0
  6
CONTINUOUS
 62
     7
 10
-120.10256
 20
130.63382
 11
-118.76281
 21
128.3133
  0
LINE
  8
0
  6
CONTINUOUS
 62
     7
 10
-120.10256
 20
145.63382
 11
-120.10256
 21
130.63382
  0
LINE
  8
0
  6
CONTINUOUS
 62
     7
 10
-113.10256
 20
145.63382
 11
-113.10256
 21
130.63382
  0
LINE
  8
0
  6
CONTINUOUS
 62
     7
 10
-110.00898
 20
131.63382
 11
-106.60258
 21
131.63382
  0
LINE
  8
0
  6
CONTINUOUS
 62
     7
 10
-113.10256
 20
131.38382
 11
-110.44199
 21
131.38382
  0
LINE
  8
0
  6
CONTINUOUS
 62
     7
 10
-108.60256
 20
132.44582
 11
-106.60258
 21
132.44582
  0
LINE
  8
0
  6
CONTINUOUS
 62
     7
 10
-110.44201
 20
131.38382
 11
-110.009
 21
131.63382
  0
LINE
  8
0
  6
CONTINUOUS
 62
     7
 10
-108.60256
 20
145.63382
 11
-108.60256
 21
131.63382
  0
LINE
  8
0
  6
CONTINUOUS
 62
     7
 10
-110.009
 20
131.63382
 11
-108.60256
 21
132.44582
  0
LINE
  8
0
  6
CONTINUOUS
 62
     7
 10
-114.4423
 20
128.3133
 11
-113.10255
 21
130.6338
  0
LINE
  8
0
  6
CENTER
 62
     7
 10
-143.60255
 20
145.63382
 11
-85.752556
 21
145.63382
  0
LINE
  8
0
  6
CONTINUOUS
 62
     7
 10
-138.60255
 20
145.63382
 11
-138.60255
 21
133.87312
  0
LINE
  8
0
  6
CONTINUOUS
 62
     7
 10
-137.40307
 20
132.67364
 11
-120.10256
 21
132.133
  0
LINE
  8
0
  6
CONTINUOUS
 62
     7
 10
-138.60255
 20
133.87312
 11
-124.07256
 21
133.41905
  0
LINE
  8
0
  6
CONTINUOUS
 62
     7
 10
-124.07254
 20
133.41904
 11
-121.94475
 21
132.19056
  0
LINE
  8
0
  6
CONTINUOUS
 62
     7
 10
-138.60256
 20
133.87312
 11
-137.40308
 21
132.67365
  0
LINE
  8
0
  6
CONTINUOUS
 62
     7
 10
-124.07256
 20
145.63382
 11
-124.07256
 21
132.25706
  0
LINE
  8
0
  6
CONTINUOUS
 62
     7
 10
-137.40306
 20
145.63382
 11
-137.40306
 21
132.67365
  0
LINE
  8
0
  6
CONTINUOUS
 62
     7
 10
-118.76281
 20
162.95433
 11
-114.4423
 21
162.95433
  0
LINE
  8
0
  6
CONTINUOUS
 62
     7
 10
-118.76281
 20
154.29407
 11
-114.4423
 21
154.29407
  0
LINE
  8
0
  6
CONTINUOUS
 62
     7
 10
-120.10256
 20
160.63382
 11
-118.76282
 21
162.95433
  0
LINE
  8
0
  6
CONTINUOUS
 62
     7
 10
-120.10256
 20
145.63382
 11
-120.10256
 21
160.63382
  0
LINE
  8
0
  6
CONTINUOUS
 62
     7
 10
-113.10256
 20
145.63382
 11
-113.10256
 21
160.63382
  0
LINE
  8
0
  6
CONTINUOUS
 62
     7
 10
-110.00898
 20
159.63382
 11
-106.60258
 21
159.63382
  0
LINE
  8
0
  6
CONTINUOUS
 62
     7
 10
-113.10256
 20
159.88382
 11
-110.44199
 21
159.88382
  0
LINE
  8
0
  6
CONTINUOUS
 62
     7
 10
-108.60256
 20
158.82182
 11
-106.60258
 21
158.82182
  0
LINE
  8
0
  6
CONTINUOUS
 62
     7
 10
-110.44199
 20
159.88382
 11
-110.00898
 21
159.63382
  0
LINE
  8
0
  6
CONTINUOUS
 62
     7
 10
-108.60256
 20
145.63382
 11
-108.60256
 21
159.63382
  0
LINE
  8
0
  6
CONTINUOUS
 62
     7
 10
-110.00898
 20
159.63382
 11
-108.60256
 21
158.82182
  0
LINE
  8
0
  6
CONTINUOUS
 62
     7
 10
-114.44231
 20
162.95432
 11
-113.10257
 21
160.63383
  0
LINE
  8
0
  6
CONTINUOUS
 62
     7
 10
-138.60255
 20
145.63382
 11
-138.60255
 21
157.39452
  0
LINE
  8
0
  6
CONTINUOUS
 62
     7
 10
-137.40309
 20
158.59398
 11
-120.10256
 21
159.13462
  0
LINE
  8
0
  6
CONTINUOUS
 62
     7
 10
-138.60257
 20
157.39451
 11
-124.07256
 21
157.84857
  0
LINE
  8
0
  6
CONTINUOUS
 62
     7
 10
-124.07256
 20
157.84859
 11
-121.94475
 21
159.07708
  0
LINE
  8
0
  6
CONTINUOUS
 62
     7
 10
-138.60257
 20
157.39452
 11
-137.40309
 21
158.59399
  0
LINE
  8
0
  6
CONTINUOUS
 62
     7
 10
-124.07256
 20
145.63382
 11
-124.07256
 21
159.01057
  0
LINE
  8
0
  6
CONTINUOUS
 62
     7
 10
-137.40306
 20
145.63382
 11
-137.40306
 21
158.59399
  0
LINE
  8
0
  6
CONTINUOUS
 62
     7
 10
-116.49487
 20
60.241501
 11
-111.71026
 21
60.241501
  0
LINE
  8
0
  6
CONTINUOUS
 62
     7
 10
-116.49487
 20
49.849197
 11
-111.71026
 21
49.849197
  0
LINE
  8
0
  6
CONTINUOUS
 62
     7
 10
-118.10256
 20
52.63382
 11
-116.49486
 21
49.849213
  0
LINE
  8
0
  6
CONTINUOUS
 62
     7
 10
-118.10256
 20
70.633804
 11
-118.10256
 21
52.633804
  0
LINE
  8
0
  6
CONTINUOUS
 62
     7
 10
-110.10256
 20
70.633804
 11
-110.10256
 21
52.633804
  0
LINE
  8
0
  6
CONTINUOUS
 62
     7
 10
-110.10256
 20
53.633804
 11
-106.33462
 21
53.633804
  0
LINE
  8
0
  6
CONTINUOUS
 62
     7
 10
-104.60256
 20
52.633804
 11
-101.60256
 21
52.633804
  0
LINE
  8
0
  6
CONTINUOUS
 62
     7
 10
-105.48806
 20
53.445816
 11
-101.60256
 21
53.445816
  0
LINE
  8
0
  6
CONTINUOUS
 62
     7
 10
-104.60256
 20
70.633804
 11
-104.60256
 21
52.633804
  0
LINE
  8
0
  6
CONTINUOUS
 62
     7
 10
-111.71025
 20
49.849213
 11
-110.10255
 21
52.63382
  0
LINE
  8
0
  6
CONTINUOUS
 62
     7
 10
-138.60255
 20
70.633804
 11
-138.60255
 21
55.813004
  0
LINE
  8
0
  6
CONTINUOUS
 62
     7
 10
-137.07586
 20
54.286285
 11
-118.10256
 21
53.693375
  0
LINE
  8
0
  6
CONTINUOUS
 62
     7
 10
-138.60257
 20
55.813004
 11
-121.81256
 21
55.288315
  0
LINE
  8
0
  6
CONTINUOUS
 62
     7
 10
-138.60257
 20
55.813004
 11
-137.07586
 21
54.286301
  0
LINE
  8
0
  6
CONTINUOUS
 62
     7
 10
-121.81255
 20
55.288315
 11
-119.10427
 21
53.724686
  0
LINE
  8
0
  6
CONTINUOUS
 62
     7
 10
-121.81257
 20
70.633804
 11
-121.81257
 21
53.809311
  0
LINE
  8
0
  6
CONTINUOUS
 62
     7
 10
-137.07585
 20
70.633804
 11
-137.07585
 21
54.286301
  0
LINE
  8
0
  6
CENTER
 62
     7
 10
-143.60255
 20
70.633804
 11
-78.752556
 21
70.633804
  0
LINE
  8
0
  6
CONTINUOUS
 62
     7
 10
-116.49487
 20
81.026108
 11
-111.71026
 21
81.026108
  0
LINE
  8
0
  6
CONTINUOUS
 62
     7
 10
-116.49487
 20
91.418411
 11
-111.71026
 21
91.418411
  0
LINE
  8
0
  6
CONTINUOUS
 62
     7
 10
-118.10256
 20
88.63382
 11
-116.49486
 21
91.418427
  0
LINE
  8
0
  6
CONTINUOUS
 62
     7
 10
-118.10256
 20
70.633804
 11
-118.10256
 21
88.633804
  0
LINE
  8
0
  6
CONTINUOUS
 62
     7
 10
-110.10256
 20
70.633804
 11
-110.10256
 21
88.633804
  0
LINE
  8
0
  6
CONTINUOUS
 62
     7
 10
-110.10256
 20
87.633804
 11
-106.33462
 21
87.633804
  0
LINE
  8
0
  6
CONTINUOUS
 62
     7
 10
-104.60256
 20
88.633804
 11
-101.60256
 21
88.633804
  0
LINE
  8
0
  6
CONTINUOUS
 62
     7
 10
-105.48806
 20
87.821823
 11
-101.60256
 21
87.821823
  0
LINE
  8
0
  6
CONTINUOUS
 62
     7
 10
-104.60256
 20
70.633804
 11
-104.60256
 21
88.633804
  0
LINE
  8
0
  6
CONTINUOUS
 62
     7
 10
-111.71027
 20
91.418427
 11
-110.10257
 21
88.63382
  0
LINE
  8
0
  6
CONTINUOUS
 62
     7
 10
-138.60255
 20
70.633804
 11
-138.60255
 21
85.454636
  0
LINE
  8
0
  6
CONTINUOUS
 62
     7
 10
-137.07585
 20
86.981339
 11
-118.10256
 21
87.574265
  0
LINE
  8
0
  6
CONTINUOUS
 62
     7
 10
-138.60257
 20
85.45462
 11
-121.81256
 21
85.979309
  0
LINE
  8
0
  6
CONTINUOUS
 62
     7
 10
-138.60257
 20
85.45462
 11
-137.07586
 21
86.981323
  0
LINE
  8
0
  6
CONTINUOUS
 62
     7
 10
-121.81256
 20
85.979324
 11
-119.10428
 21
87.542953
  0
LINE
  8
0
  6
CONTINUOUS
 62
     7
 10
-121.81257
 20
70.633804
 11
-121.81257
 21
87.458298
  0
LINE
  8
0
  6
CONTINUOUS
 62
     7
 10
-137.07585
 20
70.633804
 11
-137.07585
 21
86.981339
  0
LINE
  8
0
  6
CONTINUOUS
 62
     7
 10
-96.353111
 20
216.3688
 11
-96.353111
 21
218.15863
  0
LINE
  8
0
  6
CONTINUOUS
 62
     7
 10
-96.353111
 20
216.3688
 11
-109.85201
 21
216.3688
  0
LINE
  8
0
  6
CONTINUOUS
 62
     7
 10
-96.353111
 20
218.15863
 11
-109.85201
 21
218.15863
  0
LINE
  8
0
  6
CONTINUOUS
 62
     7
 10
-109.85201
 20
216.3688
 11
-109.85201
 21
218.15863
  0
LINE
  8
0
  6
CONTINUOUS
 62
     7
 10
-110.60256
 20
210.63382
 11
-110.60256
 21
222.63382
  0
LINE
  8
0
  6
CONTINUOUS
 62
     7
 10
-109.852
 20
223.93379
 11
-110.60256
 21
222.63378
  0
LINE
  8
0
  6
CONTINUOUS
 62
     7
 10
-96.353111
 20
223.93382
 11
-109.85201
 21
223.93382
  0
LINE
  8
0
  6
CONTINUOUS
 62
     7
 10
-95.602546
 20
222.63377
 11
-96.35311
 21
223.93379
  0
LINE
  8
0
  6
CONTINUOUS
 62
     7
 10
-95.602562
 20
210.63382
 11
-95.602562
 21
222.63382
  0
LINE
  8
0
  6
CONTINUOUS
 62
     7
 10
-96.353111
 20
204.89883
 11
-96.353111
 21
203.10901
  0
LINE
  8
0
  6
CONTINUOUS
 62
     7
 10
-96.353111
 20
204.89883
 11
-109.85201
 21
204.89883
  0
LINE
  8
0
  6
CONTINUOUS
 62
     7
 10
-96.353111
 20
203.10901
 11
-109.85201
 21
203.10901
  0
LINE
  8
0
  6
CONTINUOUS
 62
     7
 10
-109.85201
 20
204.89883
 11
-109.85201
 21
203.10901
  0
LINE
  8
0
  6
CONTINUOUS
 62
     7
 10
-110.60256
 20
210.63382
 11
-110.60256
 21
198.63382
  0
LINE
  8
0
  6
CONTINUOUS
 62
     7
 10
-109.85201
 20
197.33381
 11
-110.60256
 21
198.63382
  0
LINE
  8
0
  6
CONTINUOUS
 62
     7
 10
-96.353111
 20
197.3338
 11
-109.85201
 21
197.3338
  0
LINE
  8
0
  6
CONTINUOUS
 62
     7
 10
-95.602565
 20
198.63382
 11
-96.353122
 21
197.33382
  0
LINE
  8
0
  6
CONTINUOUS
 62
     7
 10
-95.602562
 20
210.63382
 11
-95.602562
 21
198.63382
  0
LINE
  8
0
  6
CONTINUOUS
 62
     7
 10
-85.602562
 20
70.633804
 11
-85.602562
 21
91.133804
  0
LINE
  8
0
  6
CONTINUOUS
 62
     7
 10
-87.103661
 20
81.280869
 11
-87.103661
 21
83.063797
  0
LINE
  8
0
  6
CONTINUOUS
 62
     7
 10
-100.10145
 20
81.280869
 11
-87.103661
 21
81.280869
  0
LINE
  8
0
  6
CONTINUOUS
 62
     7
 10
-100.10145
 20
83.063797
 11
-87.103661
 21
83.063797
  0
LINE
  8
0
  6
CONTINUOUS
 62
     7
 10
-100.10145
 20
81.280869
 11
-100.10145
 21
83.063797
  0
LINE
  8
0
  6
CONTINUOUS
 62
     7
 10
-101.60256
 20
70.633804
 11
-101.60256
 21
91.133804
  0
LINE
  8
0
  6
CONTINUOUS
 62
     7
 10
-101.60257
 20
91.13382
 11
-100.10145
 21
93.733818
  0
LINE
  8
0
  6
CONTINUOUS
 62
     7
 10
-100.10145
 20
93.733803
 11
-87.103661
 21
93.733803
  0
LINE
  8
0
  6
CONTINUOUS
 62
     7
 10
-87.103666
 20
93.733795
 11
-85.602552
 21
91.133789
  0
LINE
  8
0
  6
CONTINUOUS
 62
     7
 10
-85.602562
 20
70.633804
 11
-85.602562
 21
50.133804
  0
LINE
  8
0
  6
CONTINUOUS
 62
     7
 10
-87.103661
 20
59.98674
 11
-87.103661
 21
58.203842
  0
LINE
  8
0
  6
CONTINUOUS
 62
     7
 10
-100.10145
 20
59.98674
 11
-87.103661
 21
59.98674
  0
LINE
  8
0
  6
CONTINUOUS
 62
     7
 10
-100.10145
 20
58.203842
 11
-87.103661
 21
58.203842
  0
LINE
  8
0
  6
CONTINUOUS
 62
     7
 10
-100.10145
 20
59.98674
 11
-100.10145
 21
58.203842
  0
LINE
  8
0
  6
CONTINUOUS
 62
     7
 10
-101.60256
 20
70.633804
 11
-101.60256
 21
50.133804
  0
LINE
  8
0
  6
CONTINUOUS
 62
     7
 10
-101.60258
 20
50.133804
 11
-100.10146
 21
47.533798
  0
LINE
  8
0
  6
CONTINUOUS
 62
     7
 10
-100.10145
 20
47.533829
 11
-87.103661
 21
47.533829
  0
LINE
  8
0
  6
CONTINUOUS
 62
     7
 10
-87.103662
 20
47.533813
 11
-85.602547
 21
50.13382
  0
ARC
  8
0
  6
CONTINUOUS
 62
     7
 10
-106.33462
 20
51.633804
 40
2
 50
30.000001
 51
90.000003
  0
ARC
  8
0
  6
CONTINUOUS
 62
     7
 10
-106.33462
 20
89.633804
 40
2
 50
270
 51
330
  0
POLYLINE
  8
0
  6
CONTINUOUS
 62
     7
 66
     1
 10
0
 20
0
  0
VERTEX
  8
0
  6
CONTINUOUS
 62
     7
 10
-106.3139
 20
145.63382
 42
-0.016924364
  0
VERTEX
  8
0
  6
CONTINUOUS
 62
     7
 10
-106.22231
 20
148.3267
 42
-0.01653495
  0
VERTEX
  8
0
  6
CONTINUOUS
 62
     7
 10
-105.95096
 20
151.00738
 42
-0.016230051
  0
VERTEX
  8
0
  6
CONTINUOUS
 62
     7
 10
-105.50561
 20
153.65939
 42
0
  0
SEQEND
  8
0
  0
POLYLINE
  8
0
  6
CONTINUOUS
 62
     7
 66
     1
 10
0
 20
0
  0
VERTEX
  8
0
  6
CONTINUOUS
 62
     7
 10
-92.699532
 20
163.53381
 42
-0.060911359
  0
VERTEX
  8
0
  6
CONTINUOUS
 62
     7
 10
-91.987372
 20
160.87869
 42
-0.069926897
  0
VERTEX
  8
0
  6
CONTINUOUS
 62
     7
 10
-91.987147
 20
158.13201
 42
-0.060970626
  0
VERTEX
  8
0
  6
CONTINUOUS
 62
     7
 10
-92.699532
 20
155.47743
 42
0
  0
SEQEND
  8
0
  0
POLYLINE
  8
0
  6
CONTINUOUS
 62
     7
 66
     1
 10
0
 20
0
  0
VERTEX
  8
0
  6
CONTINUOUS
 62
     7
 10
-105.50561
 20
155.47743
 42
-0.060980192
  0
VERTEX
  8
0
  6
CONTINUOUS
 62
     7
 10
-106.21804
 20
158.13243
 42
-0.069926221
  0
VERTEX
  8
0
  6
CONTINUOUS
 62
     7
 10
-106.2177
 20
160.87911
 42
-0.060900827
  0
VERTEX
  8
0
  6
CONTINUOUS
 62
     7
 10
-105.50561
 20
163.53381
 42
0
  0
SEQEND
  8
0
  0
POLYLINE
  8
0
  6
CONTINUOUS
 62
     7
 66
     1
 10
0
 20
0
  0
VERTEX
  8
0
  6
CONTINUOUS
 62
     7
 10
-92.699532
 20
153.65939
 42
-0.016245973
  0
VERTEX
  8
0
  6
CONTINUOUS
 62
     7
 10
-92.253835
 20
151.00482
 42
-0.016520532
  0
VERTEX
  8
0
  6
CONTINUOUS
 62
     7
 10
-91.982809
 20
148.32651
 42
-0.016923332
  0
VERTEX
  8
0
  6
CONTINUOUS
 62
     7
 10
-91.891235
 20
145.63382
 42
0
  0
SEQEND
  8
0
  0
POLYLINE
  8
0
  6
CONTINUOUS
 62
     7
 66
     1
 10
0
 20
0
  0
VERTEX
  8
0
  6
CONTINUOUS
 62
     7
 10
-106.3139
 20
145.63382
 42
0.016924364
  0
VERTEX
  8
0
  6
CONTINUOUS
 62
     7
 10
-106.22231
 20
142.94094
 42
0.01653495
  0
VERTEX
  8
0
  6
CONTINUOUS
 62
     7
 10
-105.95096
 20
140.26026
 42
0.016230051
  0
VERTEX
  8
0
  6
CONTINUOUS
 62
     7
 10
-105.50561
 20
137.60825
 42
0
  0
SEQEND
  8
0
  0
POLYLINE
  8
0
  6
CONTINUOUS
 62
     7
 66
     1
 10
0
 20
0
  0
VERTEX
  8
0
  6
CONTINUOUS
 62
     7
 10
-92.699532
 20
127.73382
 42
0.060911346
  0
VERTEX
  8
0
  6
CONTINUOUS
 62
     7
 10
-91.987372
 20
130.38895
 42
0.069926858
  0
VERTEX
  8
0
  6
CONTINUOUS
 62
     7
 10
-91.987146
 20
133.13563
 42
0.060970665
  0
VERTEX
  8
0
  6
CONTINUOUS
 62
     7
 10
-92.699532
 20
135.79021
 42
0
  0
SEQEND
  8
0
  0
POLYLINE
  8
0
  6
CONTINUOUS
 62
     7
 66
     1
 10
0
 20
0
  0
VERTEX
  8
0
  6
CONTINUOUS
 62
     7
 10
-105.50561
 20
135.79021
 42
0.06098025
  0
VERTEX
  8
0
  6
CONTINUOUS
 62
     7
 10
-106.21804
 20
133.13521
 42
0.069926181
  0
VERTEX
  8
0
  6
CONTINUOUS
 62
     7
 10
-106.2177
 20
130.38852
 42
0.060900797
  0
VERTEX
  8
0
  6
CONTINUOUS
 62
     7
 10
-105.50561
 20
127.73382
 42
0
  0
SEQEND
  8
0
  0
POLYLINE
  8
0
  6
CONTINUOUS
 62
     7
 66
     1
 10
0
 20
0
  0
VERTEX
  8
0
  6
CONTINUOUS
 62
     7
 10
-92.699532
 20
137.60825
 42
0.016245973
  0
VERTEX
  8
0
  6
CONTINUOUS
 62
     7
 10
-92.253835
 20
140.26282
 42
0.016520532
  0
VERTEX
  8
0
  6
CONTINUOUS
 62
     7
 10
-91.982809
 20
142.94113
 42
0.016923332
  0
VERTEX
  8
0
  6
CONTINUOUS
 62
     7
 10
-91.891235
 20
145.63382
 42
0
  0
SEQEND
  8
0
  0
POLYLINE
  8
0
  6
CONTINUOUS
 62
     7
 66
     1
 10
0
 20
0
  0
VERTEX
  8
0
  6
CONTINUOUS
 62
     7
 10
-121.62008
 20
204.28297
 42
0.083553263
  0
VERTEX
  8
0
  6
CONTINUOUS
 62
     7
 10
-122.47685
 20
202.22024
 42
0.11298451
  0
VERTEX
  8
0
  6
CONTINUOUS
 62
     7
 10
-122.47684
 20
199.99484
 42
0.083552502
  0
VERTEX
  8
0
  6
CONTINUOUS
 62
     7
 10
-121.62008
 20
197.93211
 42
0
  0
SEQEND
  8
0
  0
POLYLINE
  8
0
  6
CONTINUOUS
 62
     7
 66
     1
 10
0
 20
0
  0
VERTEX
  8
0
  6
CONTINUOUS
 62
     7
 10
-117.58504
 20
204.28297
 42
-0.083556439
  0
VERTEX
  8
0
  6
CONTINUOUS
 62
     7
 10
-116.7283
 20
202.22023
 42
-0.11297719
  0
VERTEX
  8
0
  6
CONTINUOUS
 62
     7
 10
-116.7283
 20
199.99484
 42
-0.083555679
  0
VERTEX
  8
0
  6
CONTINUOUS
 62
     7
 10
-117.58504
 20
197.93211
 42
0
  0
SEQEND
  8
0
  0
POLYLINE
  8
0
  6
CONTINUOUS
 62
     7
 66
     1
 10
0
 20
0
  0
VERTEX
  8
0
  6
CONTINUOUS
 62
     7
 10
-122.60256
 20
210.63382
 42
0.026226947
  0
VERTEX
  8
0
  6
CONTINUOUS
 62
     7
 10
-122.48877
 20
208.48767
 42
0.0248589
  0
VERTEX
  8
0
  6
CONTINUOUS
 62
     7
 10
-122.15692
 20
206.36418
 42
0.023918437
  0
VERTEX
  8
0
  6
CONTINUOUS
 62
     7
 10
-121.62008
 20
204.28297
 42
0
  0
SEQEND
  8
0
  0
POLYLINE
  8
0
  6
CONTINUOUS
 62
     7
 66
     1
 10
0
 20
0
  0
VERTEX
  8
0
  6
CONTINUOUS
 62
     7
 10
-116.60259
 20
210.63382
 42
-0.026225367
  0
VERTEX
  8
0
  6
CONTINUOUS
 62
     7
 10
-116.71637
 20
208.48767
 42
-0.024858931
  0
VERTEX
  8
0
  6
CONTINUOUS
 62
     7
 10
-117.04822
 20
206.36418
 42
-0.023919991
  0
VERTEX
  8
0
  6
CONTINUOUS
 62
     7
 10
-117.58504
 20
204.28297
 42
0
  0
SEQEND
  8
0
  0
POLYLINE
  8
0
  6
CONTINUOUS
 62
     7
 66
     1
 10
0
 20
0
  0
VERTEX
  8
0
  6
CONTINUOUS
 62
     7
 10
-121.62008
 20
216.98466
 42
-0.083553263
  0
VERTEX
  8
0
  6
CONTINUOUS
 62
     7
 10
-122.47685
 20
219.0474
 42
-0.11298451
  0
VERTEX
  8
0
  6
CONTINUOUS
 62
     7
 10
-122.47684
 20
221.2728
 42
-0.083552502
  0
VERTEX
  8
0
  6
CONTINUOUS
 62
     7
 10
-121.62008
 20
223.33553
 42
0
  0
SEQEND
  8
0
  0
POLYLINE
  8
0
  6
CONTINUOUS
 62
     7
 66
     1
 10
0
 20
0
  0
VERTEX
  8
0
  6
CONTINUOUS
 62
     7
 10
-117.58504
 20
216.98466
 42
0.083556439
  0
VERTEX
  8
0
  6
CONTINUOUS
 62
     7
 10
-116.7283
 20
219.04741
 42
0.11297719
  0
VERTEX
  8
0
  6
CONTINUOUS
 62
     7
 10
-116.7283
 20
221.2728
 42
0.083555679
  0
VERTEX
  8
0
  6
CONTINUOUS
 62
     7
 10
-117.58504
 20
223.33553
 42
0
  0
SEQEND
  8
0
  0
POLYLINE
  8
0
  6
CONTINUOUS
 62
     7
 66
     1
 10
0
 20
0
  0
VERTEX
  8
0
  6
CONTINUOUS
 62
     7
 10
-122.60256
 20
210.63382
 42
-0.026226947
  0
VERTEX
  8
0
  6
CONTINUOUS
 62
     7
 10
-122.48877
 20
212.77997
 42
-0.0248589
  0
VERTEX
  8
0
  6
CONTINUOUS
 62
     7
 10
-122.15692
 20
214.90346
 42
-0.023918437
  0
VERTEX
  8
0
  6
CONTINUOUS
 62
     7
 10
-121.62008
 20
216.98466
 42
0
  0
SEQEND
  8
0
  0
POLYLINE
  8
0
  6
CONTINUOUS
 62
     7
 66
     1
 10
0
 20
0
  0
VERTEX
  8
0
  6
CONTINUOUS
 62
     7
 10
-116.60259
 20
210.63382
 42
0.026225367
  0
VERTEX
  8
0
  6
CONTINUOUS
 62
     7
 10
-116.71637
 20
212.77997
 42
0.024858931
  0
VERTEX
  8
0
  6
CONTINUOUS
 62
     7
 10
-117.04822
 20
214.90346
 42
0.023919991
  0
VERTEX
  8
0
  6
CONTINUOUS
 62
     7
 10
-117.58504
 20
216.98466
 42
0
  0
SEQEND
  8
0
  0
POLYLINE
  8
0
  6
CONTINUOUS
 62
     7
 66
     1
 10
0
 20
0
  0
VERTEX
  8
0
  6
CONTINUOUS
 62
     7
 10
-118.76281
 20
136.97357
 42
0.083553144
  0
VERTEX
  8
0
  6
CONTINUOUS
 62
     7
 10
-119.93113
 20
134.16075
 42
0.11298475
  0
VERTEX
  8
0
  6
CONTINUOUS
 62
     7
 10
-119.93113
 20
131.12612
 42
0.083552429
  0
VERTEX
  8
0
  6
CONTINUOUS
 62
     7
 10
-118.76281
 20
128.31331
 42
0
  0
SEQEND
  8
0
  0
POLYLINE
  8
0
  6
CONTINUOUS
 62
     7
 66
     1
 10
0
 20
0
  0
VERTEX
  8
0
  6
CONTINUOUS
 62
     7
 10
-114.4423
 20
136.97357
 42
-0.083554309
  0
VERTEX
  8
0
  6
CONTINUOUS
 62
     7
 10
-113.27399
 20
134.16075
 42
-0.11298207
  0
VERTEX
  8
0
  6
CONTINUOUS
 62
     7
 10
-113.27399
 20
131.12612
 42
-0.083553593
  0
VERTEX
  8
0
  6
CONTINUOUS
 62
     7
 10
-114.4423
 20
128.31331
 42
0
  0
SEQEND
  8
0
  0
POLYLINE
  8
0
  6
CONTINUOUS
 62
     7
 66
     1
 10
0
 20
0
  0
VERTEX
  8
0
  6
CONTINUOUS
 62
     7
 10
-120.10256
 20
145.63382
 42
0.026227037
  0
VERTEX
  8
0
  6
CONTINUOUS
 62
     7
 10
-119.9474
 20
142.70725
 42
0.024858878
  0
VERTEX
  8
0
  6
CONTINUOUS
 62
     7
 10
-119.49486
 20
139.81158
 42
0.023918472
  0
VERTEX
  8
0
  6
CONTINUOUS
 62
     7
 10
-118.76281
 20
136.97357
 42
0
  0
SEQEND
  8
0
  0
POLYLINE
  8
0
  6
CONTINUOUS
 62
     7
 66
     1
 10
0
 20
0
  0
VERTEX
  8
0
  6
CONTINUOUS
 62
     7
 10
-113.10256
 20
145.63382
 42
-0.026226458
  0
VERTEX
  8
0
  6
CONTINUOUS
 62
     7
 10
-113.25772
 20
142.70725
 42
-0.024858889
  0
VERTEX
  8
0
  6
CONTINUOUS
 62
     7
 10
-113.71025
 20
139.81158
 42
-0.023919042
  0
VERTEX
  8
0
  6
CONTINUOUS
 62
     7
 10
-114.4423
 20
136.97357
 42
0
  0
SEQEND
  8
0
  0
POLYLINE
  8
0
  6
CONTINUOUS
 62
     7
 66
     1
 10
0
 20
0
  0
VERTEX
  8
0
  6
CONTINUOUS
 62
     7
 10
-118.76281
 20
154.29407
 42
-0.083553144
  0
VERTEX
  8
0
  6
CONTINUOUS
 62
     7
 10
-119.93113
 20
157.10689
 42
-0.11298475
  0
VERTEX
  8
0
  6
CONTINUOUS
 62
     7
 10
-119.93113
 20
160.14152
 42
-0.083552429
  0
VERTEX
  8
0
  6
CONTINUOUS
 62
     7
 10
-118.76281
 20
162.95433
 42
0
  0
SEQEND
  8
0
  0
POLYLINE
  8
0
  6
CONTINUOUS
 62
     7
 66
     1
 10
0
 20
0
  0
VERTEX
  8
0
  6
CONTINUOUS
 62
     7
 10
-114.4423
 20
154.29407
 42
0.083554309
  0
VERTEX
  8
0
  6
CONTINUOUS
 62
     7
 10
-113.27399
 20
157.10689
 42
0.11298207
  0
VERTEX
  8
0
  6
CONTINUOUS
 62
     7
 10
-113.27399
 20
160.14152
 42
0.083553593
  0
VERTEX
  8
0
  6
CONTINUOUS
 62
     7
 10
-114.4423
 20
162.95433
 42
0
  0
SEQEND
  8
0
  0
POLYLINE
  8
0
  6
CONTINUOUS
 62
     7
 66
     1
 10
0
 20
0
  0
VERTEX
  8
0
  6
CONTINUOUS
 62
     7
 10
-120.10256
 20
145.63382
 42
-0.026227037
  0
VERTEX
  8
0
  6
CONTINUOUS
 62
     7
 10
-119.9474
 20
148.56039
 42
-0.024858878
  0
VERTEX
  8
0
  6
CONTINUOUS
 62
     7
 10
-119.49486
 20
151.45606
 42
-0.023918472
  0
VERTEX
  8
0
  6
CONTINUOUS
 62
     7
 10
-118.76281
 20
154.29407
 42
0
  0
SEQEND
  8
0
  0
POLYLINE
  8
0
  6
CONTINUOUS
 62
     7
 66
     1
 10
0
 20
0
  0
VERTEX
  8
0
  6
CONTINUOUS
 62
     7
 10
-113.10256
 20
145.63382
 42
0.026226458
  0
VERTEX
  8
0
  6
CONTINUOUS
 62
     7
 10
-113.25772
 20
148.56039
 42
0.024858889
  0
VERTEX
  8
0
  6
CONTINUOUS
 62
     7
 10
-113.71025
 20
151.45606
 42
0.023919042
  0
VERTEX
  8
0
  6
CONTINUOUS
 62
     7
 10
-114.4423
 20
154.29407
 42
0
  0
SEQEND
  8
0
  0
POLYLINE
  8
0
  6
CONTINUOUS
 62
     7
 66
     1
 10
0
 20
0
  0
VERTEX
  8
0
  6
CONTINUOUS
 62
     7
 10
-116.49487
 20
60.241508
 42
0.083553383
  0
VERTEX
  8
0
  6
CONTINUOUS
 62
     7
 10
-117.89685
 20
56.866122
 42
0.1129842
  0
VERTEX
  8
0
  6
CONTINUOUS
 62
     7
 10
-117.89684
 20
53.224563
 42
0.083552622
  0
VERTEX
  8
0
  6
CONTINUOUS
 62
     7
 10
-116.49487
 20
49.849205
 42
0
  0
SEQEND
  8
0
  0
POLYLINE
  8
0
  6
CONTINUOUS
 62
     7
 66
     1
 10
0
 20
0
  0
VERTEX
  8
0
  6
CONTINUOUS
 62
     7
 10
-111.71026
 20
60.241508
 42
-0.083553383
  0
VERTEX
  8
0
  6
CONTINUOUS
 62
     7
 10
-110.30828
 20
56.866122
 42
-0.1129842
  0
VERTEX
  8
0
  6
CONTINUOUS
 62
     7
 10
-110.30828
 20
53.224563
 42
-0.083552622
  0
VERTEX
  8
0
  6
CONTINUOUS
 62
     7
 10
-111.71026
 20
49.849205
 42
0
  0
SEQEND
  8
0
  0
POLYLINE
  8
0
  6
CONTINUOUS
 62
     7
 66
     1
 10
0
 20
0
  0
VERTEX
  8
0
  6
CONTINUOUS
 62
     7
 10
-118.10256
 20
70.633812
 42
0.026226826
  0
VERTEX
  8
0
  6
CONTINUOUS
 62
     7
 10
-117.91636
 20
67.121928
 42
0.024858854
  0
VERTEX
  8
0
  6
CONTINUOUS
 62
     7
 10
-117.37333
 20
63.647122
 42
0.0239187
  0
VERTEX
  8
0
  6
CONTINUOUS
 62
     7
 10
-116.49487
 20
60.241508
 42
0
  0
SEQEND
  8
0
  0
POLYLINE
  8
0
  6
CONTINUOUS
 62
     7
 66
     1
 10
0
 20
0
  0
VERTEX
  8
0
  6
CONTINUOUS
 62
     7
 10
-110.10256
 20
70.633812
 42
-0.026226826
  0
VERTEX
  8
0
  6
CONTINUOUS
 62
     7
 10
-110.28876
 20
67.121928
 42
-0.024858854
  0
VERTEX
  8
0
  6
CONTINUOUS
 62
     7
 10
-110.8318
 20
63.647122
 42
-0.0239187
  0
VERTEX
  8
0
  6
CONTINUOUS
 62
     7
 10
-111.71026
 20
60.241508
 42
0
  0
SEQEND
  8
0
  0
POLYLINE
  8
0
  6
CONTINUOUS
 62
     7
 66
     1
 10
0
 20
0
  0
VERTEX
  8
0
  6
CONTINUOUS
 62
     7
 10
-116.49487
 20
81.026115
 42
-0.083553383
  0
VERTEX
  8
0
  6
CONTINUOUS
 62
     7
 10
-117.89685
 20
84.401502
 42
-0.1129842
  0
VERTEX
  8
0
  6
CONTINUOUS
 62
     7
 10
-117.89684
 20
88.043061
 42
-0.083552622
  0
VERTEX
  8
0
  6
CONTINUOUS
 62
     7
 10
-116.49487
 20
91.418419
 42
0
  0
SEQEND
  8
0
  0
POLYLINE
  8
0
  6
CONTINUOUS
 62
     7
 66
     1
 10
0
 20
0
  0
VERTEX
  8
0
  6
CONTINUOUS
 62
     7
 10
-111.71026
 20
81.026115
 42
0.083553383
  0
VERTEX
  8
0
  6
CONTINUOUS
 62
     7
 10
-110.30828
 20
84.401502
 42
0.1129842
  0
VERTEX
  8
0
  6
CONTINUOUS
 62
     7
 10
-110.30828
 20
88.043061
 42
0.083552622
  0
VERTEX
  8
0
  6
CONTINUOUS
 62
     7
 10
-111.71026
 20
91.418419
 42
0
  0
SEQEND
  8
0
  0
POLYLINE
  8
0
  6
CONTINUOUS
 62
     7
 66
     1
 10
0
 20
0
  0
VERTEX
  8
0
  6
CONTINUOUS
 62
     7
 10
-118.10256
 20
70.633812
 42
-0.026226826
  0
VERTEX
  8
0
  6
CONTINUOUS
 62
     7
 10
-117.91636
 20
74.145696
 42
-0.024858854
  0
VERTEX
  8
0
  6
CONTINUOUS
 62
     7
 10
-117.37333
 20
77.620502
 42
-0.0239187
  0
VERTEX
  8
0
  6
CONTINUOUS
 62
     7
 10
-116.49487
 20
81.026115
 42
0
  0
SEQEND
  8
0
  0
POLYLINE
  8
0
  6
CONTINUOUS
 62
     7
 66
     1
 10
0
 20
0
  0
VERTEX
  8
0
  6
CONTINUOUS
 62
     7
 10
-110.10256
 20
70.633812
 42
0.026226826
  0
VERTEX
  8
0
  6
CONTINUOUS
 62
     7
 10
-110.28876
 20
74.145696
 42
0.024858854
  0
VERTEX
  8
0
  6
CONTINUOUS
 62
     7
 10
-110.8318
 20
77.620502
 42
0.0239187
  0
VERTEX
  8
0
  6
CONTINUOUS
 62
     7
 10
-111.71026
 20
81.026115
 42
0
  0
SEQEND
  8
0
  0
POLYLINE
  8
0
  6
CONTINUOUS
 62
     7
 66
     1
 10
0
 20
0
  0
VERTEX
  8
0
  6
CONTINUOUS
 62
     7
 10
-96.353111
 20
218.15863
 42
0.050245249
  0
VERTEX
  8
0
  6
CONTINUOUS
 62
     7
 10
-95.944777
 20
220.06932
 42
0.054943125
  0
VERTEX
  8
0
  6
CONTINUOUS
 62
     7
 10
-95.945051
 20
222.02373
 42
0.050157405
  0
VERTEX
  8
0
  6
CONTINUOUS
 62
     7
 10
-96.353111
 20
223.93382
 42
0
  0
SEQEND
  8
0
  0
POLYLINE
  8
0
  6
CONTINUOUS
 62
     7
 66
     1
 10
0
 20
0
  0
VERTEX
  8
0
  6
CONTINUOUS
 62
     7
 10
-96.353111
 20
216.3688
 42
-0.013138948
  0
VERTEX
  8
0
  6
CONTINUOUS
 62
     7
 10
-96.097836
 20
214.46741
 42
-0.013285878
  0
VERTEX
  8
0
  6
CONTINUOUS
 62
     7
 10
-95.943254
 20
212.55434
 42
-0.013499193
  0
VERTEX
  8
0
  6
CONTINUOUS
 62
     7
 10
-95.891243
 20
210.63382
 42
0
  0
SEQEND
  8
0
  0
POLYLINE
  8
0
  6
CONTINUOUS
 62
     7
 66
     1
 10
0
 20
0
  0
VERTEX
  8
0
  6
CONTINUOUS
 62
     7
 10
-109.85201
 20
216.3688
 42
0.013138948
  0
VERTEX
  8
0
  6
CONTINUOUS
 62
     7
 10
-110.10729
 20
214.46741
 42
0.013285878
  0
VERTEX
  8
0
  6
CONTINUOUS
 62
     7
 10
-110.26187
 20
212.55434
 42
0.013499193
  0
VERTEX
  8
0
  6
CONTINUOUS
 62
     7
 10
-110.31388
 20
210.63382
 42
0
  0
SEQEND
  8
0
  0
POLYLINE
  8
0
  6
CONTINUOUS
 62
     7
 66
     1
 10
0
 20
0
  0
VERTEX
  8
0
  6
CONTINUOUS
 62
     7
 10
-109.85201
 20
218.15863
 42
-0.050245249
  0
VERTEX
  8
0
  6
CONTINUOUS
 62
     7
 10
-110.26035
 20
220.06932
 42
-0.054943125
  0
VERTEX
  8
0
  6
CONTINUOUS
 62
     7
 10
-110.26007
 20
222.02373
 42
-0.050157405
  0
VERTEX
  8
0
  6
CONTINUOUS
 62
     7
 10
-109.85201
 20
223.93382
 42
0
  0
SEQEND
  8
0
  0
POLYLINE
  8
0
  6
CONTINUOUS
 62
     7
 66
     1
 10
0
 20
0
  0
VERTEX
  8
0
  6
CONTINUOUS
 62
     7
 10
-96.353111
 20
203.10901
 42
-0.050245383
  0
VERTEX
  8
0
  6
CONTINUOUS
 62
     7
 10
-95.944777
 20
201.19831
 42
-0.054943008
  0
VERTEX
  8
0
  6
CONTINUOUS
 62
     7
 10
-95.945052
 20
199.2439
 42
-0.050157354
  0
VERTEX
  8
0
  6
CONTINUOUS
 62
     7
 10
-96.353111
 20
197.3338
 42
0
  0
SEQEND
  8
0
  0
POLYLINE
  8
0
  6
CONTINUOUS
 62
     7
 66
     1
 10
0
 20
0
  0
VERTEX
  8
0
  6
CONTINUOUS
 62
     7
 10
-96.353111
 20
204.89883
 42
0.013138948
  0
VERTEX
  8
0
  6
CONTINUOUS
 62
     7
 10
-96.097836
 20
206.80023
 42
0.013285878
  0
VERTEX
  8
0
  6
CONTINUOUS
 62
     7
 10
-95.943254
 20
208.7133
 42
0.013499193
  0
VERTEX
  8
0
  6
CONTINUOUS
 62
     7
 10
-95.891243
 20
210.63382
 42
0
  0
SEQEND
  8
0
  0
POLYLINE
  8
0
  6
CONTINUOUS
 62
     7
 66
     1
 10
0
 20
0
  0
VERTEX
  8
0
  6
CONTINUOUS
 62
     7
 10
-109.85201
 20
204.89883
 42
-0.013138948
  0
VERTEX
  8
0
  6
CONTINUOUS
 62
     7
 10
-110.10729
 20
206.80023
 42
-0.013285878
  0
VERTEX
  8
0
  6
CONTINUOUS
 62
     7
 10
-110.26187
 20
208.7133
 42
-0.013499193
  0
VERTEX
  8
0
  6
CONTINUOUS
 62
     7
 10
-110.31388
 20
210.63382
 42
0
  0
SEQEND
  8
0
  0
POLYLINE
  8
0
  6
CONTINUOUS
 62
     7
 66
     1
 10
0
 20
0
  0
VERTEX
  8
0
  6
CONTINUOUS
 62
     7
 10
-109.85201
 20
203.10901
 42
0.050245383
  0
VERTEX
  8
0
  6
CONTINUOUS
 62
     7
 10
-110.26035
 20
201.19831
 42
0.054943008
  0
VERTEX
  8
0
  6
CONTINUOUS
 62
     7
 10
-110.26007
 20
199.2439
 42
0.050157354
  0
VERTEX
  8
0
  6
CONTINUOUS
 62
     7
 10
-109.85201
 20
197.3338
 42
0
  0
SEQEND
  8
0
  0
POLYLINE
  8
0
  6
CONTINUOUS
 62
     7
 66
     1
 10
0
 20
0
  0
VERTEX
  8
0
  6
CONTINUOUS
 62
     7
 10
-85.891243
 20
70.633812
 42
0.01916166
  0
VERTEX
  8
0
  6
CONTINUOUS
 62
     7
 10
-86.02911
 20
74.209692
 42
0.018603478
  0
VERTEX
  8
0
  6
CONTINUOUS
 62
     7
 10
-86.43625
 20
77.765043
 42
0.018212825
  0
VERTEX
  8
0
  6
CONTINUOUS
 62
     7
 10
-87.103661
 20
81.280876
 42
0
  0
SEQEND
  8
0
  0
POLYLINE
  8
0
  6
CONTINUOUS
 62
     7
 66
     1
 10
0
 20
0
  0
VERTEX
  8
0
  6
CONTINUOUS
 62
     7
 10
-87.103661
 20
83.063789
 42
0.06733835
  0
VERTEX
  8
0
  6
CONTINUOUS
 62
     7
 10
-86.037555
 20
86.569035
 42
0.080048299
  0
VERTEX
  8
0
  6
CONTINUOUS
 62
     7
 10
-86.037852
 20
90.228446
 42
0.067284259
  0
VERTEX
  8
0
  6
CONTINUOUS
 62
     7
 10
-87.103661
 20
93.733803
 42
0
  0
SEQEND
  8
0
  0
POLYLINE
  8
0
  6
CONTINUOUS
 62
     7
 66
     1
 10
0
 20
0
  0
VERTEX
  8
0
  6
CONTINUOUS
 62
     7
 10
-100.10145
 20
83.063789
 42
-0.067339334
  0
VERTEX
  8
0
  6
CONTINUOUS
 62
     7
 10
-101.16757
 20
86.569033
 42
-0.080049956
  0
VERTEX
  8
0
  6
CONTINUOUS
 62
     7
 10
-101.16728
 20
90.228448
 42
-0.067285233
  0
VERTEX
  8
0
  6
CONTINUOUS
 62
     7
 10
-100.10145
 20
93.733803
 42
0
  0
SEQEND
  8
0
  0
POLYLINE
  8
0
  6
CONTINUOUS
 62
     7
 66
     1
 10
0
 20
0
  0
VERTEX
  8
0
  6
CONTINUOUS
 62
     7
 10
-101.31389
 20
70.633812
 42
-0.019162028
  0
VERTEX
  8
0
  6
CONTINUOUS
 62
     7
 10
-101.17602
 20
74.209693
 42
-0.018603816
  0
VERTEX
  8
0
  6
CONTINUOUS
 62
     7
 10
-100.76887
 20
77.765044
 42
-0.018213141
  0
VERTEX
  8
0
  6
CONTINUOUS
 62
     7
 10
-100.10145
 20
81.280876
 42
0
  0
SEQEND
  8
0
  0
POLYLINE
  8
0
  6
CONTINUOUS
 62
     7
 66
     1
 10
0
 20
0
  0
VERTEX
  8
0
  6
CONTINUOUS
 62
     7
 10
-85.891243
 20
70.633812
 42
-0.01916166
  0
VERTEX
  8
0
  6
CONTINUOUS
 62
     7
 10
-86.02911
 20
67.057932
 42
-0.018603478
  0
VERTEX
  8
0
  6
CONTINUOUS
 62
     7
 10
-86.43625
 20
63.502581
 42
-0.018212825
  0
VERTEX
  8
0
  6
CONTINUOUS
 62
     7
 10
-87.103661
 20
59.986748
 42
0
  0
SEQEND
  8
0
  0
POLYLINE
  8
0
  6
CONTINUOUS
 62
     7
 66
     1
 10
0
 20
0
  0
VERTEX
  8
0
  6
CONTINUOUS
 62
     7
 10
-87.103661
 20
58.203835
 42
-0.06733835
  0
VERTEX
  8
0
  6
CONTINUOUS
 62
     7
 10
-86.037555
 20
54.698589
 42
-0.080048299
  0
VERTEX
  8
0
  6
CONTINUOUS
 62
     7
 10
-86.037852
 20
51.039178
 42
-0.067284259
  0
VERTEX
  8
0
  6
CONTINUOUS
 62
     7
 10
-87.103661
 20
47.533821
 42
0
  0
SEQEND
  8
0
  0
POLYLINE
  8
0
  6
CONTINUOUS
 62
     7
 66
     1
 10
0
 20
0
  0
VERTEX
  8
0
  6
CONTINUOUS
 62
     7
 10
-100.10145
 20
58.203835
 42
0.067339334
  0
VERTEX
  8
0
  6
CONTINUOUS
 62
     7
 10
-101.16757
 20
54.698591
 42
0.080049956
  0
VERTEX
  8
0
  6
CONTINUOUS
 62
     7
 10
-101.16728
 20
51.039176
 42
0.067285233
  0
VERTEX
  8
0
  6
CONTINUOUS
 62
     7
 10
-100.10145
 20
47.533821
 42
0
  0
SEQEND
  8
0
  0
POLYLINE
  8
0
  6
CONTINUOUS
 62
     7
 66
     1
 10
0
 20
0
  0
VERTEX
  8
0
  6
CONTINUOUS
 62
     7
 10
-101.31389
 20
70.633812
 42
0.019162028
  0
VERTEX
  8
0
  6
CONTINUOUS
 62
     7
 10
-101.17602
 20
67.057931
 42
0.018603816
  0
VERTEX
  8
0
  6
CONTINUOUS
 62
     7
 10
-100.76887
 20
63.50258
 42
0.018213141
  0
VERTEX
  8
0
  6
CONTINUOUS
 62
     7
 10
-100.10145
 20
59.986748
 42
0
  0
SEQEND
  8
0
  0
TEXT
  8
0
  6
CONTINUOUS
 62
     7
 10
-176.10388
 20
271.3978
 40
5
 41
0.84349531
  1
ＭＲ－Ｊ　　オスアダプター
  0
TEXT
  8
0
  6
CONTINUOUS
 62
     7
 10
-129.32929
 20
230.48889
 40
4.8000002
 41
1.0084034
  1
13X1/2
  0
TEXT
  8
0
  6
CONTINUOUS
 62
     7
 10
-128.17435
 20
167.54466
 40
4.8000002
 41
1.0084034
  1
20X3/4
  0
TEXT
  8
0
  6
CONTINUOUS
 62
     7
 10
-121.2447
 20
98.248239
 40
4.8000002
 41
1.0129871
  1
20X1
  0
LINE
  8
1
  6
CONTINUOUS
 62
     7
 10
-210
 20
0
 11
0
 21
0
  0
LINE
  8
1
  6
CONTINUOUS
 62
     7
 10
-210
 20
297
 11
0
 21
297
  0
LINE
  8
1
  6
CONTINUOUS
 62
     7
 10
0
 20
297
 11
0
 21
0
  0
LINE
  8
1
  6
CONTINUOUS
 62
     7
 10
-210
 20
297
 11
-210
 21
0
  0
ENDSEC
  0
EOF
