  0
SECTION
  2
HEADER
  9
$EXTMAX
 10
0
 20
297
  9
$EXTMIN
 10
-210
 20
0
  0
ENDSEC
  0
SECTION
  2
TABLES
  0
TABLE
  2
LTYPE
 70
    22
  0
LTYPE
  2
CONTINUOUS
 70
    64
  3
Solid line
 72
    65
 73
     0
 40
0.000000
  0
LTYPE
  2
DASHED
 70
    64
  3
__ __ __ __ __ __ __ __ __ __ __ __ __ __ __
 72
    65
 73
     2
 40
3.500000
 49
2.000000
 49
-1.500000
  0
LTYPE
  2
CENTER
 70
    64
  3
____ _ ____ _ ____ _ ____ _ ____ _ ____ _ ____
 72
    65
 73
     4
 40
17.500000
 49
13.000000
 49
-1.500000
 49
1.500000
 49
-1.500000
  0
LTYPE
  2
PHANTOM
 70
    64
  3
_____ _ _ _____ _ _ _____ _ _ _____ _ _ ____  
 72
    65
 73
     6
 40
15.500000
 49
8.000000
 49
-1.500000
 49
1.500000
 49
-1.500000
 49
1.500000
 49
-1.500000
  0
LTYPE
  2
DOT
 70
    64
  3
. . . . . . . . . . . . . . . . . . . . . . . .
 72
    65
 73
     2
 40
0.25
 49
0.0
 49
-0.25
  0
ENDTAB
  0
TABLE
  2
LAYER
 70
     2
  0
LAYER
  2
0
 70
     0
 62
     7
  6
CONTINUOUS
  0
LAYER
  2
1
 70
     0
 62
     7
  6
CONTINUOUS
  0
ENDTAB
  0
TABLE
  2
STYLE
 70
     1
  0
STYLE
  2
STANDARD
 70
     0
 40
0.000000
 41
1.000000
 50
0.000000
 71
     0
 42
0.200000
  3
txt
  4
BIGFONT
  0
ENDTAB
  0
TABLE
  2
VIEW
 70
     0
  0
ENDTAB
  0
ENDSEC
  0
SECTION
  2
BLOCKS
  0
ENDSEC
  0
SECTION
  2
ENTITIES
  0
POINT
  8
0
  6
CONTINUOUS
 62
     7
 10
-104.8209
 20
229.39691
  0
POINT
  8
0
  6
CONTINUOUS
 62
     7
 10
-104.8209
 20
154.39691
  0
POINT
  8
0
  6
CONTINUOUS
 62
     7
 10
-104.8209
 20
64.396896
  0
POINT
  8
0
  6
CONTINUOUS
 62
     7
 10
-104.8209
 20
64.396896
  0
LINE
  8
0
  6
CONTINUOUS
 62
     7
 10
-154.17996
 20
271.4249
 11
-152.17996
 21
271.4249
  0
LINE
  8
0
  6
CONTINUOUS
 62
     7
 10
-154.17996
 20
276.28983
 11
-152.17996
 21
276.28983
  0
LINE
  8
0
  6
CONTINUOUS
 62
     7
 10
-152.67996
 20
276.28983
 11
-152.67996
 21
271.4249
  0
LINE
  8
0
  6
CONTINUOUS
 62
     7
 10
-153.67996
 20
276.28983
 11
-153.67996
 21
271.4249
  0
LINE
  8
0
  6
CONTINUOUS
 62
     7
 10
-103.18606
 20
244.73264
 11
-104.60027
 21
243.31843
  0
LINE
  8
0
  6
CONTINUOUS
 62
     7
 10
-103.76024
 20
245.30682
 11
-106.16895
 21
242.89811
  0
LINE
  8
0
  6
CONTINUOUS
 62
     7
 10
-97.74983
 20
236.46798
 11
-105.17445
 21
243.8926
  0
LINE
  8
0
  6
CONTINUOUS
 62
     7
 10
-104.6003
 20
243.31842
 11
-106.16895
 21
242.8981
  0
LINE
  8
0
  6
CONTINUOUS
 62
     7
 10
-106.16895
 20
242.8981
 11
-106.65192
 21
242.76869
  0
LINE
  8
0
  6
CONTINUOUS
 62
     7
 10
-106.6519
 20
242.76871
 11
-111.71519
 21
237.70542
  0
LINE
  8
0
  6
CONTINUOUS
 62
     7
 10
-111.71519
 20
237.70542
 11
-106.67446
 21
232.66469
  0
LINE
  8
0
  6
CONTINUOUS
 62
     7
 10
-115.5709
 20
228.39691
 11
-108.44224
 21
228.39691
  0
LINE
  8
0
  6
CONTINUOUS
 62
     7
 10
-115.5709
 20
221.23634
 11
-115.5709
 21
228.39691
  0
LINE
  8
0
  6
CONTINUOUS
 62
     7
 10
-115.32089
 20
220.80335
 11
-115.57089
 21
221.23637
  0
LINE
  8
0
  6
CONTINUOUS
 62
     7
 10
-114.50889
 20
219.39692
 11
-115.32089
 21
220.80335
  0
LINE
  8
0
  6
CONTINUOUS
 62
     7
 10
-115.3209
 20
217.3969
 11
-115.3209
 21
220.80334
  0
LINE
  8
0
  6
CONTINUOUS
 62
     7
 10
-115.3209
 20
219.39691
 11
-104.8209
 21
219.39691
  0
LINE
  8
0
  6
CONTINUOUS
 62
     7
 10
-114.50889
 20
217.3969
 11
-114.50889
 21
219.39691
  0
LINE
  8
0
  6
CONTINUOUS
 62
     7
 10
-95.132912
 20
217.3969
 11
-95.132912
 21
219.39691
  0
LINE
  8
0
  6
CONTINUOUS
 62
     7
 10
-94.3209
 20
217.3969
 11
-94.3209
 21
220.80334
  0
LINE
  8
0
  6
CONTINUOUS
 62
     7
 10
-104.8209
 20
219.39691
 11
-94.3209
 21
219.39691
  0
LINE
  8
0
  6
CONTINUOUS
 62
     7
 10
-95.132897
 20
219.39692
 11
-94.320893
 21
220.80336
  0
LINE
  8
0
  6
CONTINUOUS
 62
     7
 10
-94.320893
 20
220.80336
 11
-94.070892
 21
221.23637
  0
LINE
  8
0
  6
CONTINUOUS
 62
     7
 10
-94.0709
 20
221.23634
 11
-94.0709
 21
224.11569
  0
LINE
  8
0
  6
CONTINUOUS
 62
     7
 10
-91.449107
 20
227.56591
 11
-93.485104
 21
225.52991
  0
LINE
  8
0
  6
CONTINUOUS
 62
     7
 10
-91.319711
 20
228.04888
 11
-91.449121
 21
227.56592
  0
LINE
  8
0
  6
CONTINUOUS
 62
     7
 10
-90.899386
 20
229.61755
 11
-91.319711
 21
228.04888
  0
LINE
  8
0
  6
CONTINUOUS
 62
     7
 10
-88.910995
 20
230.45758
 11
-91.319708
 21
228.04886
  0
LINE
  8
0
  6
CONTINUOUS
 62
     7
 10
-90.325209
 20
229.04336
 11
-97.74983
 21
236.46798
  0
LINE
  8
0
  6
CONTINUOUS
 62
     7
 10
-89.485174
 20
231.03175
 11
-90.899388
 21
229.61754
  0
LINE
  8
0
  6
CENTER
 62
     7
 10
-104.8209
 20
198.54485
 11
-104.8209
 21
232.39691
  0
LINE
  8
0
  6
CENTER
 62
     7
 10
-82.817184
 20
251.40063
 11
-106.94222
 21
227.2756
  0
LINE
  8
0
  6
CONTINUOUS
 62
     7
 10
-118.8209
 20
139.39691
 11
-118.8209
 21
143.30334
  0
LINE
  8
0
  6
CONTINUOUS
 62
     7
 10
-118.8209
 20
141.89691
 11
-104.8209
 21
141.89691
  0
LINE
  8
0
  6
CONTINUOUS
 62
     7
 10
-118.00892
 20
139.39691
 11
-118.00892
 21
141.89691
  0
LINE
  8
0
  6
CONTINUOUS
 62
     7
 10
-118.00893
 20
141.89693
 11
-118.82092
 21
143.30334
  0
LINE
  8
0
  6
CONTINUOUS
 62
     7
 10
-118.82092
 20
143.30334
 11
-119.07092
 21
143.73636
  0
LINE
  8
0
  6
CONTINUOUS
 62
     7
 10
-119.0709
 20
143.73636
 11
-119.0709
 21
151.89691
  0
LINE
  8
0
  6
CONTINUOUS
 62
     7
 10
-119.0709
 20
151.89691
 11
-103.61381
 21
151.89691
  0
LINE
  8
0
  6
CONTINUOUS
 62
     7
 10
-113.12943
 20
166.24095
 11
-102.19962
 21
155.31113
  0
LINE
  8
0
  6
CENTER
 62
     7
 10
-106.94225
 20
152.27559
 11
-80.928656
 21
178.28918
  0
LINE
  8
0
  6
CENTER
 62
     7
 10
-104.8209
 20
157.39691
 11
-104.8209
 21
120.74852
  0
LINE
  8
0
  6
CONTINUOUS
 62
     7
 10
-107.35905
 20
172.01133
 11
-113.12943
 21
166.24095
  0
LINE
  8
0
  6
CONTINUOUS
 62
     7
 10
-106.87605
 20
172.14076
 11
-107.35901
 21
172.01136
  0
LINE
  8
0
  6
CONTINUOUS
 62
     7
 10
-105.3074
 20
172.56108
 11
-106.87605
 21
172.14076
  0
LINE
  8
0
  6
CONTINUOUS
 62
     7
 10
-104.11382
 20
174.90301
 11
-106.87609
 21
172.14074
  0
LINE
  8
0
  6
CONTINUOUS
 62
     7
 10
-95.982093
 20
163.23575
 11
-105.88159
 21
173.13524
  0
LINE
  8
0
  6
CONTINUOUS
 62
     7
 10
-103.53964
 20
174.32883
 11
-105.30741
 21
172.56106
  0
LINE
  8
0
  6
CONTINUOUS
 62
     7
 10
-84.888988
 20
155.67818
 11
-86.656755
 21
153.91041
  0
LINE
  8
0
  6
CONTINUOUS
 62
     7
 10
-84.314821
 20
155.10401
 11
-87.077085
 21
152.34174
  0
LINE
  8
0
  6
CONTINUOUS
 62
     7
 10
-86.082588
 20
153.33624
 11
-95.982093
 21
163.23575
  0
LINE
  8
0
  6
CONTINUOUS
 62
     7
 10
-86.656746
 20
153.9104
 11
-87.077066
 21
152.34174
  0
LINE
  8
0
  6
CONTINUOUS
 62
     7
 10
-87.077066
 20
152.34174
 11
-87.206475
 21
151.85879
  0
LINE
  8
0
  6
CONTINUOUS
 62
     7
 10
-87.206496
 20
151.85878
 11
-89.985129
 21
149.08015
  0
LINE
  8
0
  6
CONTINUOUS
 62
     7
 10
-90.5709
 20
143.73636
 11
-90.5709
 21
147.66594
  0
LINE
  8
0
  6
CONTINUOUS
 62
     7
 10
-90.820921
 20
143.30332
 11
-90.570921
 21
143.73634
  0
LINE
  8
0
  6
CONTINUOUS
 62
     7
 10
-91.632917
 20
141.8969
 11
-90.820921
 21
143.30332
  0
LINE
  8
0
  6
CONTINUOUS
 62
     7
 10
-90.8209
 20
139.39691
 11
-90.8209
 21
143.30334
  0
LINE
  8
0
  6
CONTINUOUS
 62
     7
 10
-104.8209
 20
141.89691
 11
-90.8209
 21
141.89691
  0
LINE
  8
0
  6
CONTINUOUS
 62
     7
 10
-91.632912
 20
139.39691
 11
-91.632912
 21
141.89691
  0
LINE
  8
0
  6
CONTINUOUS
 62
     7
 10
-122.00892
 20
46.396912
 11
-122.00892
 21
50.282364
  0
LINE
  8
0
  6
CONTINUOUS
 62
     7
 10
-122.8209
 20
46.396912
 11
-122.8209
 21
49.396896
  0
LINE
  8
0
  6
CONTINUOUS
 62
     7
 10
-121.8209
 20
51.128922
 11
-121.8209
 21
60.396896
  0
LINE
  8
0
  6
CENTER
 62
     7
 10
-104.8209
 20
67.396896
 11
-104.8209
 21
26.420761
  0
LINE
  8
0
  6
CONTINUOUS
 62
     7
 10
-87.632896
 20
46.396912
 11
-87.632896
 21
50.282364
  0
LINE
  8
0
  6
CONTINUOUS
 62
     7
 10
-86.8209
 20
46.396912
 11
-86.8209
 21
49.396896
  0
LINE
  8
0
  6
CONTINUOUS
 62
     7
 10
-87.8209
 20
51.128922
 11
-87.8209
 21
56.52684
  0
LINE
  8
0
  6
CONTINUOUS
 62
     7
 10
-83.418249
 20
61.75795
 11
-87.235137
 21
57.941055
  0
LINE
  8
0
  6
CONTINUOUS
 62
     7
 10
-79.365074
 20
64.396912
 11
-81.486399
 21
62.275589
  0
LINE
  8
0
  6
CONTINUOUS
 62
     7
 10
-79.939241
 20
64.971085
 11
-82.686705
 21
62.223618
  0
LINE
  8
0
  6
CENTER
 62
     7
 10
-106.94224
 20
62.275589
 11
-77.689783
 21
91.528046
  0
LINE
  8
0
  6
CONTINUOUS
 62
     7
 10
-104.24675
 20
89.278595
 11
-106.9942
 21
86.531143
  0
LINE
  8
0
  6
CONTINUOUS
 62
     7
 10
-104.82092
 20
89.852753
 11
-106.94224
 21
87.73143
  0
LINE
  8
0
  6
CONTINUOUS
 62
     7
 10
-107.45987
 20
85.799591
 11
-114.01331
 21
79.246155
  0
LINE
  8
0
  6
CONTINUOUS
 62
     7
 10
-100.28539
 20
65.518234
 11
-114.01331
 21
79.246155
  0
LINE
  8
0
  6
CONTINUOUS
 62
     7
 10
-121.8209
 20
60.396896
 11
-102.40668
 21
60.396896
  0
LINE
  8
0
  6
CONTINUOUS
 62
     7
 10
-97.040585
 20
187.49167
 11
-94.921402
 21
186.92383
  0
LINE
  8
0
  6
CONTINUOUS
 62
     7
 10
-106.09586
 20
178.4364
 11
-97.040595
 21
187.49166
  0
LINE
  8
0
  6
CONTINUOUS
 62
     7
 10
-105.52801
 20
176.31721
 11
-106.09584
 21
178.43638
  0
LINE
  8
0
  6
CONTINUOUS
 62
     7
 10
-94.214326
 20
165.00351
 11
-105.52803
 21
176.31722
  0
LINE
  8
0
  6
CONTINUOUS
 62
     7
 10
-99.113589
 20
171.45413
 11
-100.39915
 21
172.73969
  0
LINE
  8
0
  6
CONTINUOUS
 62
     7
 10
-100.39915
 20
172.73969
 11
-91.343884
 21
181.79495
  0
LINE
  8
0
  6
CONTINUOUS
 62
     7
 10
-99.113589
 20
171.45413
 11
-90.058326
 21
180.50939
  0
LINE
  8
0
  6
CONTINUOUS
 62
     7
 10
-83.607716
 20
175.61012
 11
-94.921425
 21
186.92383
  0
LINE
  8
0
  6
CONTINUOUS
 62
     7
 10
-90.058326
 20
180.50939
 11
-91.343884
 21
181.79495
  0
LINE
  8
0
  6
CONTINUOUS
 62
     7
 10
-80.779287
 20
88.438538
 11
-95.274976
 21
102.93423
  0
LINE
  8
0
  6
CONTINUOUS
 62
     7
 10
-89.369335
 20
94.905716
 11
-90.630045
 21
96.166428
  0
LINE
  8
0
  6
CONTINUOUS
 62
     7
 10
-98.560159
 20
85.71489
 11
-89.369335
 21
94.905716
  0
LINE
  8
0
  6
CONTINUOUS
 62
     7
 10
-99.820869
 20
86.975601
 11
-90.630045
 21
96.166428
  0
LINE
  8
0
  6
CONTINUOUS
 62
     7
 10
-98.560159
 20
85.71489
 11
-99.820869
 21
86.975601
  0
LINE
  8
0
  6
CONTINUOUS
 62
     7
 10
-92.092996
 20
77.124832
 11
-106.58868
 21
91.620522
  0
LINE
  8
0
  6
CONTINUOUS
 62
     7
 10
-106.58869
 20
91.620514
 11
-107.36573
 21
94.520447
  0
LINE
  8
0
  6
CONTINUOUS
 62
     7
 10
-107.36571
 20
94.520439
 11
-98.174884
 21
103.71127
  0
LINE
  8
0
  6
CONTINUOUS
 62
     7
 10
-98.174889
 20
103.71127
 11
-95.274959
 21
102.93423
  0
LINE
  8
0
  6
CONTINUOUS
 62
     7
 10
-71.72617
 20
162.17723
 11
-72.294003
 21
164.29641
  0
LINE
  8
0
  6
CONTINUOUS
 62
     7
 10
-80.781433
 20
153.12197
 11
-71.72617
 21
162.17723
  0
LINE
  8
0
  6
CONTINUOUS
 62
     7
 10
-82.90061
 20
153.68981
 11
-80.781427
 21
153.12198
  0
LINE
  8
0
  6
CONTINUOUS
 62
     7
 10
-94.214326
 20
165.00351
 11
-82.900606
 21
153.6898
  0
LINE
  8
0
  6
CONTINUOUS
 62
     7
 10
-87.763703
 20
160.10424
 11
-86.478155
 21
158.8187
  0
LINE
  8
0
  6
CONTINUOUS
 62
     7
 10
-86.478155
 20
158.8187
 11
-77.422892
 21
167.87395
  0
LINE
  8
0
  6
CONTINUOUS
 62
     7
 10
-87.763703
 20
160.10424
 11
-78.708439
 21
169.1595
  0
LINE
  8
0
  6
CONTINUOUS
 62
     7
 10
-83.607716
 20
175.61012
 11
-72.293997
 21
164.29641
  0
LINE
  8
0
  6
CONTINUOUS
 62
     7
 10
-78.708439
 20
169.1595
 11
-77.422892
 21
167.87395
  0
LINE
  8
0
  6
CONTINUOUS
 62
     7
 10
-80.779287
 20
88.438538
 11
-66.283596
 21
73.942856
  0
LINE
  8
0
  6
CONTINUOUS
 62
     7
 10
-74.312113
 20
79.848495
 11
-73.051403
 21
78.587784
  0
LINE
  8
0
  6
CONTINUOUS
 62
     7
 10
-83.502937
 20
70.657669
 11
-74.312113
 21
79.848495
  0
LINE
  8
0
  6
CONTINUOUS
 62
     7
 10
-82.242226
 20
69.396957
 11
-73.051403
 21
78.587784
  0
LINE
  8
0
  6
CONTINUOUS
 62
     7
 10
-83.502937
 20
70.657669
 11
-82.242226
 21
69.396957
  0
LINE
  8
0
  6
CONTINUOUS
 62
     7
 10
-92.092996
 20
77.124832
 11
-77.597307
 21
62.62915
  0
LINE
  8
0
  6
CONTINUOUS
 62
     7
 10
-77.5973
 20
62.629135
 11
-74.697371
 21
61.852097
  0
LINE
  8
0
  6
CONTINUOUS
 62
     7
 10
-74.697388
 20
61.852127
 11
-65.506565
 21
71.042953
  0
LINE
  8
0
  6
CONTINUOUS
 62
     7
 10
-65.506569
 20
71.042938
 11
-66.283604
 21
73.942871
  0
LINE
  8
0
  6
CONTINUOUS
 62
     7
 10
-86.920892
 20
125.49387
 11
-88.820899
 21
124.3969
  0
LINE
  8
0
  6
CONTINUOUS
 62
     7
 10
-86.920906
 20
138.29996
 11
-86.920906
 21
125.49387
  0
LINE
  8
0
  6
CONTINUOUS
 62
     7
 10
-88.820906
 20
139.3969
 11
-86.920925
 21
138.29995
  0
LINE
  8
0
  6
CONTINUOUS
 62
     7
 10
-104.8209
 20
139.39691
 11
-88.8209
 21
139.39691
  0
LINE
  8
0
  6
CONTINUOUS
 62
     7
 10
-96.795326
 20
138.29996
 11
-94.977303
 21
138.29996
  0
LINE
  8
0
  6
CONTINUOUS
 62
     7
 10
-94.977303
 20
138.29996
 11
-94.977303
 21
125.49387
  0
LINE
  8
0
  6
CONTINUOUS
 62
     7
 10
-96.795326
 20
138.29996
 11
-96.795326
 21
125.49387
  0
LINE
  8
0
  6
CONTINUOUS
 62
     7
 10
-104.8209
 20
124.3969
 11
-88.8209
 21
124.3969
  0
LINE
  8
0
  6
CONTINUOUS
 62
     7
 10
-96.795326
 20
125.49387
 11
-94.977272
 21
125.49387
  0
LINE
  8
0
  6
CONTINUOUS
 62
     7
 10
-122.7209
 20
125.49387
 11
-120.82089
 21
124.3969
  0
LINE
  8
0
  6
CONTINUOUS
 62
     7
 10
-122.72089
 20
138.29996
 11
-122.72089
 21
125.49387
  0
LINE
  8
0
  6
CONTINUOUS
 62
     7
 10
-120.82089
 20
139.39691
 11
-122.72087
 21
138.29996
  0
LINE
  8
0
  6
CONTINUOUS
 62
     7
 10
-104.8209
 20
139.39691
 11
-120.8209
 21
139.39691
  0
LINE
  8
0
  6
CONTINUOUS
 62
     7
 10
-112.84647
 20
138.29996
 11
-114.66453
 21
138.29996
  0
LINE
  8
0
  6
CONTINUOUS
 62
     7
 10
-114.66453
 20
138.29996
 11
-114.66453
 21
125.49387
  0
LINE
  8
0
  6
CONTINUOUS
 62
     7
 10
-112.84647
 20
138.29996
 11
-112.84647
 21
125.49387
  0
LINE
  8
0
  6
CONTINUOUS
 62
     7
 10
-104.8209
 20
124.3969
 11
-120.8209
 21
124.3969
  0
LINE
  8
0
  6
CONTINUOUS
 62
     7
 10
-112.84647
 20
125.49387
 11
-114.66453
 21
125.49387
  0
LINE
  8
0
  6
CONTINUOUS
 62
     7
 10
-99.085915
 20
203.14746
 11
-97.296089
 21
203.14746
  0
LINE
  8
0
  6
CONTINUOUS
 62
     7
 10
-99.085915
 20
203.14746
 11
-99.085915
 21
216.64635
  0
LINE
  8
0
  6
CONTINUOUS
 62
     7
 10
-97.296089
 20
203.14746
 11
-97.296089
 21
216.64635
  0
LINE
  8
0
  6
CONTINUOUS
 62
     7
 10
-99.085915
 20
216.64635
 11
-97.296089
 21
216.64635
  0
LINE
  8
0
  6
CONTINUOUS
 62
     7
 10
-104.8209
 20
217.3969
 11
-92.8209
 21
217.3969
  0
LINE
  8
0
  6
CONTINUOUS
 62
     7
 10
-91.520907
 20
216.64636
 11
-92.820924
 21
217.39692
  0
LINE
  8
0
  6
CONTINUOUS
 62
     7
 10
-91.520912
 20
203.14746
 11
-91.520912
 21
216.64635
  0
LINE
  8
0
  6
CONTINUOUS
 62
     7
 10
-92.820922
 20
202.3969
 11
-91.520906
 21
203.14746
  0
LINE
  8
0
  6
CONTINUOUS
 62
     7
 10
-104.8209
 20
202.39691
 11
-92.8209
 21
202.39691
  0
LINE
  8
0
  6
CONTINUOUS
 62
     7
 10
-110.55589
 20
203.14746
 11
-112.34571
 21
203.14746
  0
LINE
  8
0
  6
CONTINUOUS
 62
     7
 10
-110.55589
 20
203.14746
 11
-110.55589
 21
216.64635
  0
LINE
  8
0
  6
CONTINUOUS
 62
     7
 10
-112.34571
 20
203.14746
 11
-112.34571
 21
216.64635
  0
LINE
  8
0
  6
CONTINUOUS
 62
     7
 10
-110.55589
 20
216.64635
 11
-112.34571
 21
216.64635
  0
LINE
  8
0
  6
CONTINUOUS
 62
     7
 10
-104.8209
 20
217.3969
 11
-116.8209
 21
217.3969
  0
LINE
  8
0
  6
CONTINUOUS
 62
     7
 10
-118.12088
 20
216.64636
 11
-116.82089
 21
217.39691
  0
LINE
  8
0
  6
CONTINUOUS
 62
     7
 10
-118.12092
 20
203.14746
 11
-118.12092
 21
216.64635
  0
LINE
  8
0
  6
CONTINUOUS
 62
     7
 10
-116.8209
 20
202.3969
 11
-118.12089
 21
203.14745
  0
LINE
  8
0
  6
CONTINUOUS
 62
     7
 10
-104.8209
 20
202.39691
 11
-116.8209
 21
202.39691
  0
LINE
  8
0
  6
CONTINUOUS
 62
     7
 10
-90.314981
 20
252.01333
 11
-91.580578
 21
253.27893
  0
LINE
  8
0
  6
CONTINUOUS
 62
     7
 10
-90.314981
 20
252.01333
 11
-99.860145
 21
242.46816
  0
LINE
  8
0
  6
CONTINUOUS
 62
     7
 10
-91.580578
 20
253.27893
 11
-101.12574
 21
243.73376
  0
LINE
  8
0
  6
CONTINUOUS
 62
     7
 10
-99.860145
 20
242.46816
 11
-101.12574
 21
243.73376
  0
LINE
  8
0
  6
CONTINUOUS
 62
     7
 10
-96.335617
 20
237.8822
 11
-104.8209
 21
246.36748
  0
LINE
  8
0
  6
CONTINUOUS
 62
     7
 10
-105.20943
 20
247.81742
 11
-104.82091
 21
246.36744
  0
LINE
  8
0
  6
CONTINUOUS
 62
     7
 10
-95.664267
 20
257.36261
 11
-105.20943
 21
247.81745
  0
LINE
  8
0
  6
CONTINUOUS
 62
     7
 10
-94.214296
 20
256.97408
 11
-95.664246
 21
257.3626
  0
LINE
  8
0
  6
CONTINUOUS
 62
     7
 10
-85.729015
 20
248.4888
 11
-94.214296
 21
256.97408
  0
LINE
  8
0
  6
CONTINUOUS
 62
     7
 10
-82.204487
 20
243.90283
 11
-80.938889
 21
242.63724
  0
LINE
  8
0
  6
CONTINUOUS
 62
     7
 10
-82.204487
 20
243.90283
 11
-91.749651
 21
234.35767
  0
LINE
  8
0
  6
CONTINUOUS
 62
     7
 10
-80.938889
 20
242.63724
 11
-90.484054
 21
233.09207
  0
LINE
  8
0
  6
CONTINUOUS
 62
     7
 10
-91.749651
 20
234.35767
 11
-90.484054
 21
233.09207
  0
LINE
  8
0
  6
CONTINUOUS
 62
     7
 10
-96.335617
 20
237.8822
 11
-87.850335
 21
229.39692
  0
LINE
  8
0
  6
CONTINUOUS
 62
     7
 10
-86.400389
 20
229.0084
 11
-87.850368
 21
229.39692
  0
LINE
  8
0
  6
CONTINUOUS
 62
     7
 10
-76.855223
 20
238.55357
 11
-86.400387
 21
229.0084
  0
LINE
  8
0
  6
CONTINUOUS
 62
     7
 10
-77.243746
 20
240.00352
 11
-76.855228
 21
238.55355
  0
LINE
  8
0
  6
CONTINUOUS
 62
     7
 10
-85.729015
 20
248.4888
 11
-77.243734
 21
240.00352
  0
LINE
  8
0
  6
CONTINUOUS
 62
     7
 10
-104.8209
 20
30.396896
 11
-84.3209
 21
30.396896
  0
LINE
  8
0
  6
CONTINUOUS
 62
     7
 10
-94.173836
 20
31.897995
 11
-92.390923
 21
31.897995
  0
LINE
  8
0
  6
CONTINUOUS
 62
     7
 10
-94.173836
 20
44.895798
 11
-94.173836
 21
31.897995
  0
LINE
  8
0
  6
CONTINUOUS
 62
     7
 10
-92.390923
 20
44.895798
 11
-92.390923
 21
31.897995
  0
LINE
  8
0
  6
CONTINUOUS
 62
     7
 10
-94.173836
 20
44.895798
 11
-92.390923
 21
44.895798
  0
LINE
  8
0
  6
CONTINUOUS
 62
     7
 10
-104.8209
 20
46.396912
 11
-84.3209
 21
46.396912
  0
LINE
  8
0
  6
CONTINUOUS
 62
     7
 10
-84.320896
 20
46.396912
 11
-81.72089
 21
44.895798
  0
LINE
  8
0
  6
CONTINUOUS
 62
     7
 10
-81.720909
 20
44.895798
 11
-81.720909
 21
31.897995
  0
LINE
  8
0
  6
CONTINUOUS
 62
     7
 10
-81.720913
 20
31.89801
 11
-84.320919
 21
30.396896
  0
LINE
  8
0
  6
CONTINUOUS
 62
     7
 10
-104.8209
 20
30.396896
 11
-125.3209
 21
30.396896
  0
LINE
  8
0
  6
CONTINUOUS
 62
     7
 10
-115.46796
 20
31.897995
 11
-117.25086
 21
31.897995
  0
LINE
  8
0
  6
CONTINUOUS
 62
     7
 10
-115.46796
 20
44.895798
 11
-115.46796
 21
31.897995
  0
LINE
  8
0
  6
CONTINUOUS
 62
     7
 10
-117.25089
 20
44.895798
 11
-117.25089
 21
31.897995
  0
LINE
  8
0
  6
CONTINUOUS
 62
     7
 10
-115.46796
 20
44.895798
 11
-117.25089
 21
44.895798
  0
LINE
  8
0
  6
CONTINUOUS
 62
     7
 10
-104.8209
 20
46.396912
 11
-125.3209
 21
46.396912
  0
LINE
  8
0
  6
CONTINUOUS
 62
     7
 10
-125.32092
 20
46.396912
 11
-127.92092
 21
44.895798
  0
LINE
  8
0
  6
CONTINUOUS
 62
     7
 10
-127.92091
 20
44.895798
 11
-127.92091
 21
31.897995
  0
LINE
  8
0
  6
CONTINUOUS
 62
     7
 10
-127.9209
 20
31.89801
 11
-125.3209
 21
30.396896
  0
ARC
  8
0
  6
CONTINUOUS
 62
     7
 10
-113.01167
 20
236.95099
 40
1.5
 50
326.12916
 51
30.195057
  0
ARC
  8
0
  6
CONTINUOUS
 62
     7
 10
-108.44224
 20
230.89691
 40
2.5
 50
270
 51
45.000001
  0
ARC
  8
0
  6
CONTINUOUS
 62
     7
 10
-96.8209
 20
226.08321
 40
18
 50
146.12917
 51
168.87084
  0
ARC
  8
0
  6
CONTINUOUS
 62
     7
 10
-115.9542
 20
229.84712
 40
1.5
 50
284.80495
 51
348.87085
  0
ARC
  8
0
  6
CONTINUOUS
 62
     7
 10
-92.0709
 20
224.11569
 40
2
 50
135
 51
180.00001
  0
ARC
  8
0
  6
CONTINUOUS
 62
     7
 10
-120.11521
 20
153.60262
 40
2
 50
301.47643
 51
352.00384
  0
ARC
  8
0
  6
CONTINUOUS
 62
     7
 10
-94.0709
 20
149.94411
 40
24.299999
 50
142.99616
 51
172.00385
  0
ARC
  8
0
  6
CONTINUOUS
 62
     7
 10
-115.07395
 20
165.77325
 40
2
 50
322.99616
 51
13.523566
  0
ARC
  8
0
  6
CONTINUOUS
 62
     7
 10
-103.61381
 20
153.89691
 40
2
 50
270
 51
45.000001
  0
ARC
  8
0
  6
CONTINUOUS
 62
     7
 10
-88.5709
 20
147.66594
 40
2
 50
135
 51
180.00001
  0
ARC
  8
0
  6
CONTINUOUS
 62
     7
 10
-123.8209
 20
51.128922
 40
2
 50
300
 51
0
  0
ARC
  8
0
  6
CONTINUOUS
 62
     7
 10
-85.8209
 20
51.128922
 40
2
 50
180.00001
 51
240.00001
  0
ARC
  8
0
  6
CONTINUOUS
 62
     7
 10
-85.8209
 20
56.52684
 40
2
 50
135
 51
180.00001
  0
ARC
  8
0
  6
CONTINUOUS
 62
     7
 10
-82.004021
 20
60.343735
 40
2
 50
74.999999
 51
135
  0
ARC
  8
0
  6
CONTINUOUS
 62
     7
 10
-108.87408
 20
87.213791
 40
2
 50
315
 51
15
  0
ARC
  8
0
  6
CONTINUOUS
 62
     7
 10
-116.00623
 20
79.078156
 40
2
 50
321.41203
 51
4.8177973
  0
ARC
  8
0
  6
CONTINUOUS
 62
     7
 10
-89.8209
 20
58.183701
 40
31.5
 50
141.41203
 51
173.58797
  0
ARC
  8
0
  6
CONTINUOUS
 62
     7
 10
-102.40668
 20
63.396896
 40
3
 50
270
 51
45.000001
  0
ARC
  8
0
  6
CONTINUOUS
 62
     7
 10
-123.11134
 20
61.924881
 40
2
 50
310.1822
 51
353.58796
  0
POLYLINE
  8
0
  6
CONTINUOUS
 62
     7
 66
     1
 10
0
 20
0
  0
VERTEX
  8
0
  6
CONTINUOUS
 62
     7
 10
-94.010201
 20
165.20764
 42
-0.016924061
  0
VERTEX
  8
0
  6
CONTINUOUS
 62
     7
 10
-95.849592
 20
167.17655
 42
-0.016534971
  0
VERTEX
  8
0
  6
CONTINUOUS
 62
     7
 10
-97.553246
 20
169.26395
 42
-0.01623035
  0
VERTEX
  8
0
  6
CONTINUOUS
 62
     7
 10
-99.113594
 20
171.45412
 42
0
  0
SEQEND
  8
0
  0
POLYLINE
  8
0
  6
CONTINUOUS
 62
     7
 66
     1
 10
0
 20
0
  0
VERTEX
  8
0
  6
CONTINUOUS
 62
     7
 10
-97.040596
 20
187.49165
 42
-0.060910694
  0
VERTEX
  8
0
  6
CONTINUOUS
 62
     7
 10
-94.659565
 20
186.11777
 42
-0.069928102
  0
VERTEX
  8
0
  6
CONTINUOUS
 62
     7
 10
-92.717208
 20
184.17574
 42
-0.060970241
  0
VERTEX
  8
0
  6
CONTINUOUS
 62
     7
 10
-91.34388
 20
181.79494
 42
0
  0
SEQEND
  8
0
  0
POLYLINE
  8
0
  6
CONTINUOUS
 62
     7
 66
     1
 10
0
 20
0
  0
VERTEX
  8
0
  6
CONTINUOUS
 62
     7
 10
-100.39912
 20
172.73967
 42
-0.0609791
  0
VERTEX
  8
0
  6
CONTINUOUS
 62
     7
 10
-102.78026
 20
174.11326
 42
-0.069926704
  0
VERTEX
  8
0
  6
CONTINUOUS
 62
     7
 10
-104.72222
 20
176.0557
 42
-0.060901469
  0
VERTEX
  8
0
  6
CONTINUOUS
 62
     7
 10
-106.09586
 20
178.43639
 42
0
  0
SEQEND
  8
0
  0
POLYLINE
  8
0
  6
CONTINUOUS
 62
     7
 66
     1
 10
0
 20
0
  0
VERTEX
  8
0
  6
CONTINUOUS
 62
     7
 10
-90.058327
 20
180.50938
 42
-0.016246196
  0
VERTEX
  8
0
  6
CONTINUOUS
 62
     7
 10
-87.866103
 20
178.94747
 42
-0.016520511
  0
VERTEX
  8
0
  6
CONTINUOUS
 62
     7
 10
-85.780611
 20
177.24526
 42
-0.016923117
  0
VERTEX
  8
0
  6
CONTINUOUS
 62
     7
 10
-83.811836
 20
175.40599
 42
0
  0
SEQEND
  8
0
  0
POLYLINE
  8
0
  6
CONTINUOUS
 62
     7
 66
     1
 10
0
 20
0
  0
VERTEX
  8
0
  6
CONTINUOUS
 62
     7
 10
-80.983406
 20
88.234413
 42
0.019161765
  0
VERTEX
  8
0
  6
CONTINUOUS
 62
     7
 10
-83.609423
 20
90.665455
 42
0.018603461
  0
VERTEX
  8
0
  6
CONTINUOUS
 62
     7
 10
-86.41133
 20
92.891576
 42
0.018212728
  0
VERTEX
  8
0
  6
CONTINUOUS
 62
     7
 10
-89.369331
 20
94.905716
 42
0
  0
SEQEND
  8
0
  0
POLYLINE
  8
0
  6
CONTINUOUS
 62
     7
 66
     1
 10
0
 20
0
  0
VERTEX
  8
0
  6
CONTINUOUS
 62
     7
 10
-90.630028
 20
96.166428
 42
0.067338507
  0
VERTEX
  8
0
  6
CONTINUOUS
 62
     7
 10
-92.354762
 20
99.398862
 42
0.080048414
  0
VERTEX
  8
0
  6
CONTINUOUS
 62
     7
 10
-94.942569
 20
101.98625
 42
0.067284007
  0
VERTEX
  8
0
  6
CONTINUOUS
 62
     7
 10
-98.174873
 20
103.71127
 42
0
  0
SEQEND
  8
0
  0
POLYLINE
  8
0
  6
CONTINUOUS
 62
     7
 66
     1
 10
0
 20
0
  0
VERTEX
  8
0
  6
CONTINUOUS
 62
     7
 10
-99.820854
 20
86.975601
 42
-0.067339551
  0
VERTEX
  8
0
  6
CONTINUOUS
 62
     7
 10
-103.0533
 20
88.70032
 42
-0.080049109
  0
VERTEX
  8
0
  6
CONTINUOUS
 62
     7
 10
-105.64069
 20
91.288127
 42
-0.067285747
  0
VERTEX
  8
0
  6
CONTINUOUS
 62
     7
 10
-107.3657
 20
94.520439
 42
0
  0
SEQEND
  8
0
  0
POLYLINE
  8
0
  6
CONTINUOUS
 62
     7
 66
     1
 10
0
 20
0
  0
VERTEX
  8
0
  6
CONTINUOUS
 62
     7
 10
-91.888863
 20
77.328957
 42
-0.019162114
  0
VERTEX
  8
0
  6
CONTINUOUS
 62
     7
 10
-94.319901
 20
79.954974
 42
-0.018603839
  0
VERTEX
  8
0
  6
CONTINUOUS
 62
     7
 10
-96.546015
 20
82.756883
 42
-0.018213038
  0
VERTEX
  8
0
  6
CONTINUOUS
 62
     7
 10
-98.560143
 20
85.71489
 42
0
  0
SEQEND
  8
0
  0
POLYLINE
  8
0
  6
CONTINUOUS
 62
     7
 66
     1
 10
0
 20
0
  0
VERTEX
  8
0
  6
CONTINUOUS
 62
     7
 10
-94.010201
 20
165.20764
 42
0.016924471
  0
VERTEX
  8
0
  6
CONTINUOUS
 62
     7
 10
-92.041286
 20
163.36825
 42
0.016534934
  0
VERTEX
  8
0
  6
CONTINUOUS
 62
     7
 10
-89.953877
 20
161.6646
 42
0.016229968
  0
VERTEX
  8
0
  6
CONTINUOUS
 62
     7
 10
-87.76371
 20
160.10425
 42
0
  0
SEQEND
  8
0
  0
POLYLINE
  8
0
  6
CONTINUOUS
 62
     7
 66
     1
 10
0
 20
0
  0
VERTEX
  8
0
  6
CONTINUOUS
 62
     7
 10
-71.726173
 20
162.17725
 42
0.060910896
  0
VERTEX
  8
0
  6
CONTINUOUS
 62
     7
 10
-73.100051
 20
164.55828
 42
0.06992811
  0
VERTEX
  8
0
  6
CONTINUOUS
 62
     7
 10
-75.042088
 20
166.50063
 42
0.060970036
  0
VERTEX
  8
0
  6
CONTINUOUS
 62
     7
 10
-77.42289
 20
167.87396
 42
0
  0
SEQEND
  8
0
  0
POLYLINE
  8
0
  6
CONTINUOUS
 62
     7
 66
     1
 10
0
 20
0
  0
VERTEX
  8
0
  6
CONTINUOUS
 62
     7
 10
-86.478157
 20
158.8187
 42
0.060980736
  0
VERTEX
  8
0
  6
CONTINUOUS
 62
     7
 10
-85.104558
 20
156.43757
 42
0.069924786
  0
VERTEX
  8
0
  6
CONTINUOUS
 62
     7
 10
-83.162122
 20
154.49561
 42
0.060901541
  0
VERTEX
  8
0
  6
CONTINUOUS
 62
     7
 10
-80.781441
 20
153.12198
 42
0
  0
SEQEND
  8
0
  0
POLYLINE
  8
0
  6
CONTINUOUS
 62
     7
 66
     1
 10
0
 20
0
  0
VERTEX
  8
0
  6
CONTINUOUS
 62
     7
 10
-78.708443
 20
169.15952
 42
0.016246576
  0
VERTEX
  8
0
  6
CONTINUOUS
 62
     7
 10
-80.270357
 20
171.35173
 42
0.016520546
  0
VERTEX
  8
0
  6
CONTINUOUS
 62
     7
 10
-81.972565
 20
173.43722
 42
0.01692271
  0
VERTEX
  8
0
  6
CONTINUOUS
 62
     7
 10
-83.811836
 20
175.40599
 42
0
  0
SEQEND
  8
0
  0
POLYLINE
  8
0
  6
CONTINUOUS
 62
     7
 66
     1
 10
0
 20
0
  0
VERTEX
  8
0
  6
CONTINUOUS
 62
     7
 10
-80.983406
 20
88.234413
 42
-0.01916143
  0
VERTEX
  8
0
  6
CONTINUOUS
 62
     7
 10
-78.552362
 20
85.608398
 42
-0.018603465
  0
VERTEX
  8
0
  6
CONTINUOUS
 62
     7
 10
-76.326237
 20
82.806495
 42
-0.018213061
  0
VERTEX
  8
0
  6
CONTINUOUS
 62
     7
 10
-74.312096
 20
79.848495
 42
0
  0
SEQEND
  8
0
  0
POLYLINE
  8
0
  6
CONTINUOUS
 62
     7
 66
     1
 10
0
 20
0
  0
VERTEX
  8
0
  6
CONTINUOUS
 62
     7
 10
-73.051399
 20
78.587784
 42
-0.067337712
  0
VERTEX
  8
0
  6
CONTINUOUS
 62
     7
 10
-69.818961
 20
76.863055
 42
-0.080049186
  0
VERTEX
  8
0
  6
CONTINUOUS
 62
     7
 10
-67.231573
 20
74.275251
 42
-0.067284126
  0
VERTEX
  8
0
  6
CONTINUOUS
 62
     7
 10
-65.506554
 20
71.042946
 42
0
  0
SEQEND
  8
0
  0
POLYLINE
  8
0
  6
CONTINUOUS
 62
     7
 66
     1
 10
0
 20
0
  0
VERTEX
  8
0
  6
CONTINUOUS
 62
     7
 10
-82.24221
 20
69.396965
 42
0.067339105
  0
VERTEX
  8
0
  6
CONTINUOUS
 62
     7
 10
-80.517495
 20
66.16452
 42
0.080049726
  0
VERTEX
  8
0
  6
CONTINUOUS
 62
     7
 10
-77.929692
 20
63.577131
 42
0.067285659
  0
VERTEX
  8
0
  6
CONTINUOUS
 62
     7
 10
-74.69738
 20
61.852123
 42
0
  0
SEQEND
  8
0
  0
POLYLINE
  8
0
  6
CONTINUOUS
 62
     7
 66
     1
 10
0
 20
0
  0
VERTEX
  8
0
  6
CONTINUOUS
 62
     7
 10
-91.888863
 20
77.328957
 42
0.01916209
  0
VERTEX
  8
0
  6
CONTINUOUS
 62
     7
 10
-89.262843
 20
74.897915
 42
0.018603804
  0
VERTEX
  8
0
  6
CONTINUOUS
 62
     7
 10
-86.460931
 20
72.671799
 42
0.01821309
  0
VERTEX
  8
0
  6
CONTINUOUS
 62
     7
 10
-83.502922
 20
70.657669
 42
0
  0
SEQEND
  8
0
  0
POLYLINE
  8
0
  6
CONTINUOUS
 62
     7
 66
     1
 10
0
 20
0
  0
VERTEX
  8
0
  6
CONTINUOUS
 62
     7
 10
-104.8209
 20
139.10825
 42
-0.016924364
  0
VERTEX
  8
0
  6
CONTINUOUS
 62
     7
 10
-102.12802
 20
139.01666
 42
-0.01653495
  0
VERTEX
  8
0
  6
CONTINUOUS
 62
     7
 10
-99.447339
 20
138.74531
 42
-0.016230051
  0
VERTEX
  8
0
  6
CONTINUOUS
 62
     7
 10
-96.795326
 20
138.29996
 42
0
  0
SEQEND
  8
0
  0
POLYLINE
  8
0
  6
CONTINUOUS
 62
     7
 66
     1
 10
0
 20
0
  0
VERTEX
  8
0
  6
CONTINUOUS
 62
     7
 10
-86.920906
 20
125.49387
 42
-0.060911098
  0
VERTEX
  8
0
  6
CONTINUOUS
 62
     7
 10
-89.576028
 20
124.78172
 42
-0.069926963
  0
VERTEX
  8
0
  6
CONTINUOUS
 62
     7
 10
-92.322704
 20
124.78149
 42
-0.060970839
  0
VERTEX
  8
0
  6
CONTINUOUS
 62
     7
 10
-94.977272
 20
125.49387
 42
0
  0
SEQEND
  8
0
  0
POLYLINE
  8
0
  6
CONTINUOUS
 62
     7
 66
     1
 10
0
 20
0
  0
VERTEX
  8
0
  6
CONTINUOUS
 62
     7
 10
-94.977303
 20
138.29996
 42
-0.060980309
  0
VERTEX
  8
0
  6
CONTINUOUS
 62
     7
 10
-92.322303
 20
139.01239
 42
-0.069926141
  0
VERTEX
  8
0
  6
CONTINUOUS
 62
     7
 10
-89.575615
 20
139.01205
 42
-0.060900766
  0
VERTEX
  8
0
  6
CONTINUOUS
 62
     7
 10
-86.920906
 20
138.29996
 42
0
  0
SEQEND
  8
0
  0
POLYLINE
  8
0
  6
CONTINUOUS
 62
     7
 66
     1
 10
0
 20
0
  0
VERTEX
  8
0
  6
CONTINUOUS
 62
     7
 10
-96.795326
 20
125.49387
 42
-0.016245973
  0
VERTEX
  8
0
  6
CONTINUOUS
 62
     7
 10
-99.449901
 20
125.04818
 42
-0.016520532
  0
VERTEX
  8
0
  6
CONTINUOUS
 62
     7
 10
-102.12821
 20
124.77715
 42
-0.016923332
  0
VERTEX
  8
0
  6
CONTINUOUS
 62
     7
 10
-104.8209
 20
124.68558
 42
0
  0
SEQEND
  8
0
  0
POLYLINE
  8
0
  6
CONTINUOUS
 62
     7
 66
     1
 10
0
 20
0
  0
VERTEX
  8
0
  6
CONTINUOUS
 62
     7
 10
-104.8209
 20
139.10825
 42
0.016924364
  0
VERTEX
  8
0
  6
CONTINUOUS
 62
     7
 10
-107.51378
 20
139.01666
 42
0.01653495
  0
VERTEX
  8
0
  6
CONTINUOUS
 62
     7
 10
-110.19446
 20
138.74531
 42
0.016230051
  0
VERTEX
  8
0
  6
CONTINUOUS
 62
     7
 10
-112.84647
 20
138.29996
 42
0
  0
SEQEND
  8
0
  0
POLYLINE
  8
0
  6
CONTINUOUS
 62
     7
 66
     1
 10
0
 20
0
  0
VERTEX
  8
0
  6
CONTINUOUS
 62
     7
 10
-122.72089
 20
125.49387
 42
0.060911098
  0
VERTEX
  8
0
  6
CONTINUOUS
 62
     7
 10
-120.06577
 20
124.78172
 42
0.069926963
  0
VERTEX
  8
0
  6
CONTINUOUS
 62
     7
 10
-117.3191
 20
124.78149
 42
0.060970839
  0
VERTEX
  8
0
  6
CONTINUOUS
 62
     7
 10
-114.66453
 20
125.49387
 42
0
  0
SEQEND
  8
0
  0
POLYLINE
  8
0
  6
CONTINUOUS
 62
     7
 66
     1
 10
0
 20
0
  0
VERTEX
  8
0
  6
CONTINUOUS
 62
     7
 10
-114.66453
 20
138.29996
 42
0.060980074
  0
VERTEX
  8
0
  6
CONTINUOUS
 62
     7
 10
-117.31952
 20
139.01239
 42
0.069926301
  0
VERTEX
  8
0
  6
CONTINUOUS
 62
     7
 10
-120.0662
 20
139.01205
 42
0.060900889
  0
VERTEX
  8
0
  6
CONTINUOUS
 62
     7
 10
-122.72089
 20
138.29996
 42
0
  0
SEQEND
  8
0
  0
POLYLINE
  8
0
  6
CONTINUOUS
 62
     7
 66
     1
 10
0
 20
0
  0
VERTEX
  8
0
  6
CONTINUOUS
 62
     7
 10
-112.84647
 20
125.49387
 42
0.016245973
  0
VERTEX
  8
0
  6
CONTINUOUS
 62
     7
 10
-110.1919
 20
125.04818
 42
0.016520532
  0
VERTEX
  8
0
  6
CONTINUOUS
 62
     7
 10
-107.51359
 20
124.77715
 42
0.016923332
  0
VERTEX
  8
0
  6
CONTINUOUS
 62
     7
 10
-104.8209
 20
124.68558
 42
0
  0
SEQEND
  8
0
  0
POLYLINE
  8
0
  6
CONTINUOUS
 62
     7
 66
     1
 10
0
 20
0
  0
VERTEX
  8
0
  6
CONTINUOUS
 62
     7
 10
-97.296089
 20
203.14746
 42
0.050243631
  0
VERTEX
  8
0
  6
CONTINUOUS
 62
     7
 10
-95.38539
 20
202.73911
 42
0.054947064
  0
VERTEX
  8
0
  6
CONTINUOUS
 62
     7
 10
-93.430979
 20
202.73939
 42
0.050155593
  0
VERTEX
  8
0
  6
CONTINUOUS
 62
     7
 10
-91.520882
 20
203.14746
 42
0
  0
SEQEND
  8
0
  0
POLYLINE
  8
0
  6
CONTINUOUS
 62
     7
 66
     1
 10
0
 20
0
  0
VERTEX
  8
0
  6
CONTINUOUS
 62
     7
 10
-99.085915
 20
203.14746
 42
-0.013138069
  0
VERTEX
  8
0
  6
CONTINUOUS
 62
     7
 10
-100.98731
 20
202.89218
 42
-0.013285875
  0
VERTEX
  8
0
  6
CONTINUOUS
 62
     7
 10
-102.90038
 20
202.73759
 42
-0.013500074
  0
VERTEX
  8
0
  6
CONTINUOUS
 62
     7
 10
-104.8209
 20
202.68558
 42
0
  0
SEQEND
  8
0
  0
POLYLINE
  8
0
  6
CONTINUOUS
 62
     7
 66
     1
 10
0
 20
0
  0
VERTEX
  8
0
  6
CONTINUOUS
 62
     7
 10
-99.085915
 20
216.64635
 42
0.013138069
  0
VERTEX
  8
0
  6
CONTINUOUS
 62
     7
 10
-100.98731
 20
216.90163
 42
0.013285875
  0
VERTEX
  8
0
  6
CONTINUOUS
 62
     7
 10
-102.90038
 20
217.05622
 42
0.013500074
  0
VERTEX
  8
0
  6
CONTINUOUS
 62
     7
 10
-104.8209
 20
217.10823
 42
0
  0
SEQEND
  8
0
  0
POLYLINE
  8
0
  6
CONTINUOUS
 62
     7
 66
     1
 10
0
 20
0
  0
VERTEX
  8
0
  6
CONTINUOUS
 62
     7
 10
-97.296089
 20
216.64635
 42
-0.050243361
  0
VERTEX
  8
0
  6
CONTINUOUS
 62
     7
 10
-95.3854
 20
217.05469
 42
-0.054947299
  0
VERTEX
  8
0
  6
CONTINUOUS
 62
     7
 10
-93.430997
 20
217.05442
 42
-0.050155695
  0
VERTEX
  8
0
  6
CONTINUOUS
 62
     7
 10
-91.520912
 20
216.64635
 42
0
  0
SEQEND
  8
0
  0
POLYLINE
  8
0
  6
CONTINUOUS
 62
     7
 66
     1
 10
0
 20
0
  0
VERTEX
  8
0
  6
CONTINUOUS
 62
     7
 10
-112.34571
 20
203.14746
 42
-0.050243631
  0
VERTEX
  8
0
  6
CONTINUOUS
 62
     7
 10
-114.25641
 20
202.73911
 42
-0.054947064
  0
VERTEX
  8
0
  6
CONTINUOUS
 62
     7
 10
-116.21082
 20
202.73939
 42
-0.050155593
  0
VERTEX
  8
0
  6
CONTINUOUS
 62
     7
 10
-118.12092
 20
203.14746
 42
0
  0
SEQEND
  8
0
  0
POLYLINE
  8
0
  6
CONTINUOUS
 62
     7
 66
     1
 10
0
 20
0
  0
VERTEX
  8
0
  6
CONTINUOUS
 62
     7
 10
-110.55589
 20
203.14746
 42
0.013138069
  0
VERTEX
  8
0
  6
CONTINUOUS
 62
     7
 10
-108.65449
 20
202.89218
 42
0.013285875
  0
VERTEX
  8
0
  6
CONTINUOUS
 62
     7
 10
-106.74142
 20
202.73759
 42
0.013500074
  0
VERTEX
  8
0
  6
CONTINUOUS
 62
     7
 10
-104.8209
 20
202.68558
 42
0
  0
SEQEND
  8
0
  0
POLYLINE
  8
0
  6
CONTINUOUS
 62
     7
 66
     1
 10
0
 20
0
  0
VERTEX
  8
0
  6
CONTINUOUS
 62
     7
 10
-110.55589
 20
216.64635
 42
-0.013138069
  0
VERTEX
  8
0
  6
CONTINUOUS
 62
     7
 10
-108.65449
 20
216.90163
 42
-0.013285875
  0
VERTEX
  8
0
  6
CONTINUOUS
 62
     7
 10
-106.74142
 20
217.05622
 42
-0.013500074
  0
VERTEX
  8
0
  6
CONTINUOUS
 62
     7
 10
-104.8209
 20
217.10823
 42
0
  0
SEQEND
  8
0
  0
POLYLINE
  8
0
  6
CONTINUOUS
 62
     7
 66
     1
 10
0
 20
0
  0
VERTEX
  8
0
  6
CONTINUOUS
 62
     7
 10
-112.34571
 20
216.64635
 42
0.050243631
  0
VERTEX
  8
0
  6
CONTINUOUS
 62
     7
 10
-114.25641
 20
217.05469
 42
0.054947064
  0
VERTEX
  8
0
  6
CONTINUOUS
 62
     7
 10
-116.21082
 20
217.05442
 42
0.050155593
  0
VERTEX
  8
0
  6
CONTINUOUS
 62
     7
 10
-118.12092
 20
216.64635
 42
0
  0
SEQEND
  8
0
  0
POLYLINE
  8
0
  6
CONTINUOUS
 62
     7
 66
     1
 10
0
 20
0
  0
VERTEX
  8
0
  6
CONTINUOUS
 62
     7
 10
-91.580574
 20
253.27892
 42
0.050246199
  0
VERTEX
  8
0
  6
CONTINUOUS
 62
     7
 10
-92.642912
 20
254.91871
 42
0.054939216
  0
VERTEX
  8
0
  6
CONTINUOUS
 62
     7
 10
-94.02508
 20
256.3005
 42
0.050159785
  0
VERTEX
  8
0
  6
CONTINUOUS
 62
     7
 10
-95.664253
 20
257.36261
 42
0
  0
SEQEND
  8
0
  0
POLYLINE
  8
0
  6
CONTINUOUS
 62
     7
 66
     1
 10
0
 20
0
  0
VERTEX
  8
0
  6
CONTINUOUS
 62
     7
 10
-90.31498
 20
252.01332
 42
-0.013138828
  0
VERTEX
  8
0
  6
CONTINUOUS
 62
     7
 10
-88.789985
 20
250.84934
 42
-0.013285892
  0
VERTEX
  8
0
  6
CONTINUOUS
 62
     7
 10
-87.327935
 20
249.6059
 42
-0.013499308
  0
VERTEX
  8
0
  6
CONTINUOUS
 62
     7
 10
-85.933144
 20
248.28467
 42
0
  0
SEQEND
  8
0
  0
POLYLINE
  8
0
  6
CONTINUOUS
 62
     7
 66
     1
 10
0
 20
0
  0
VERTEX
  8
0
  6
CONTINUOUS
 62
     7
 10
-99.860146
 20
242.46817
 42
0.013137585
  0
VERTEX
  8
0
  6
CONTINUOUS
 62
     7
 10
-98.69617
 20
240.94317
 42
0.013285888
  0
VERTEX
  8
0
  6
CONTINUOUS
 62
     7
 10
-97.45274
 20
239.48111
 42
0.013500554
  0
VERTEX
  8
0
  6
CONTINUOUS
 62
     7
 10
-96.131508
 20
238.08632
 42
0
  0
SEQEND
  8
0
  0
POLYLINE
  8
0
  6
CONTINUOUS
 62
     7
 66
     1
 10
0
 20
0
  0
VERTEX
  8
0
  6
CONTINUOUS
 62
     7
 10
-101.12574
 20
243.73376
 42
-0.050243896
  0
VERTEX
  8
0
  6
CONTINUOUS
 62
     7
 10
-102.76555
 20
244.79609
 42
-0.054946439
  0
VERTEX
  8
0
  6
CONTINUOUS
 62
     7
 10
-104.14733
 20
246.17826
 42
-0.05015588
  0
VERTEX
  8
0
  6
CONTINUOUS
 62
     7
 10
-105.20942
 20
247.81744
 42
0
  0
SEQEND
  8
0
  0
POLYLINE
  8
0
  6
CONTINUOUS
 62
     7
 66
     1
 10
0
 20
0
  0
VERTEX
  8
0
  6
CONTINUOUS
 62
     7
 10
-80.938911
 20
242.63724
 42
-0.050242272
  0
VERTEX
  8
0
  6
CONTINUOUS
 62
     7
 10
-79.299097
 20
241.57492
 42
-0.054949396
  0
VERTEX
  8
0
  6
CONTINUOUS
 62
     7
 10
-77.917312
 20
240.19275
 42
-0.050154931
  0
VERTEX
  8
0
  6
CONTINUOUS
 62
     7
 10
-76.855232
 20
238.55356
 42
0
  0
SEQEND
  8
0
  0
POLYLINE
  8
0
  6
CONTINUOUS
 62
     7
 66
     1
 10
0
 20
0
  0
VERTEX
  8
0
  6
CONTINUOUS
 62
     7
 10
-82.204506
 20
243.90283
 42
0.013138143
  0
VERTEX
  8
0
  6
CONTINUOUS
 62
     7
 10
-83.368481
 20
245.42783
 42
0.013285927
  0
VERTEX
  8
0
  6
CONTINUOUS
 62
     7
 10
-84.611912
 20
246.88988
 42
0.013499965
  0
VERTEX
  8
0
  6
CONTINUOUS
 62
     7
 10
-85.933144
 20
248.28467
 42
0
  0
SEQEND
  8
0
  0
POLYLINE
  8
0
  6
CONTINUOUS
 62
     7
 66
     1
 10
0
 20
0
  0
VERTEX
  8
0
  6
CONTINUOUS
 62
     7
 10
-91.749641
 20
234.35767
 42
-0.01313771
  0
VERTEX
  8
0
  6
CONTINUOUS
 62
     7
 10
-93.274643
 20
235.52164
 42
-0.013285813
  0
VERTEX
  8
0
  6
CONTINUOUS
 62
     7
 10
-94.736708
 20
236.76508
 42
-0.013500486
  0
VERTEX
  8
0
  6
CONTINUOUS
 62
     7
 10
-96.131508
 20
238.08632
 42
0
  0
SEQEND
  8
0
  0
POLYLINE
  8
0
  6
CONTINUOUS
 62
     7
 66
     1
 10
0
 20
0
  0
VERTEX
  8
0
  6
CONTINUOUS
 62
     7
 10
-90.484047
 20
233.09207
 42
0.050243896
  0
VERTEX
  8
0
  6
CONTINUOUS
 62
     7
 10
-89.421725
 20
231.45226
 42
0.054946439
  0
VERTEX
  8
0
  6
CONTINUOUS
 62
     7
 10
-88.039556
 20
230.07048
 42
0.05015588
  0
VERTEX
  8
0
  6
CONTINUOUS
 62
     7
 10
-86.400368
 20
229.00839
 42
0
  0
SEQEND
  8
0
  0
POLYLINE
  8
0
  6
CONTINUOUS
 62
     7
 66
     1
 10
0
 20
0
  0
VERTEX
  8
0
  6
CONTINUOUS
 62
     7
 10
-104.8209
 20
30.685585
 42
0.01916166
  0
VERTEX
  8
0
  6
CONTINUOUS
 62
     7
 10
-101.24502
 20
30.823452
 42
0.018603478
  0
VERTEX
  8
0
  6
CONTINUOUS
 62
     7
 10
-97.689669
 20
31.230592
 42
0.018212825
  0
VERTEX
  8
0
  6
CONTINUOUS
 62
     7
 10
-94.173836
 20
31.898003
 42
0
  0
SEQEND
  8
0
  0
POLYLINE
  8
0
  6
CONTINUOUS
 62
     7
 66
     1
 10
0
 20
0
  0
VERTEX
  8
0
  6
CONTINUOUS
 62
     7
 10
-92.390923
 20
31.898003
 42
0.06733835
  0
VERTEX
  8
0
  6
CONTINUOUS
 62
     7
 10
-88.885677
 20
30.831897
 42
0.080048299
  0
VERTEX
  8
0
  6
CONTINUOUS
 62
     7
 10
-85.226266
 20
30.832194
 42
0.067284259
  0
VERTEX
  8
0
  6
CONTINUOUS
 62
     7
 10
-81.720909
 20
31.898003
 42
0
  0
SEQEND
  8
0
  0
POLYLINE
  8
0
  6
CONTINUOUS
 62
     7
 66
     1
 10
0
 20
0
  0
VERTEX
  8
0
  6
CONTINUOUS
 62
     7
 10
-92.390923
 20
44.895794
 42
-0.067339334
  0
VERTEX
  8
0
  6
CONTINUOUS
 62
     7
 10
-88.885679
 20
45.961919
 42
-0.080049956
  0
VERTEX
  8
0
  6
CONTINUOUS
 62
     7
 10
-85.226264
 20
45.961622
 42
-0.067285233
  0
VERTEX
  8
0
  6
CONTINUOUS
 62
     7
 10
-81.720909
 20
44.895794
 42
0
  0
SEQEND
  8
0
  0
POLYLINE
  8
0
  6
CONTINUOUS
 62
     7
 66
     1
 10
0
 20
0
  0
VERTEX
  8
0
  6
CONTINUOUS
 62
     7
 10
-104.8209
 20
46.108234
 42
-0.019162028
  0
VERTEX
  8
0
  6
CONTINUOUS
 62
     7
 10
-101.24502
 20
45.970364
 42
-0.018603816
  0
VERTEX
  8
0
  6
CONTINUOUS
 62
     7
 10
-97.689668
 20
45.563217
 42
-0.018213141
  0
VERTEX
  8
0
  6
CONTINUOUS
 62
     7
 10
-94.173836
 20
44.895794
 42
0
  0
SEQEND
  8
0
  0
POLYLINE
  8
0
  6
CONTINUOUS
 62
     7
 66
     1
 10
0
 20
0
  0
VERTEX
  8
0
  6
CONTINUOUS
 62
     7
 10
-104.8209
 20
30.685585
 42
-0.01916166
  0
VERTEX
  8
0
  6
CONTINUOUS
 62
     7
 10
-108.39678
 20
30.823452
 42
-0.018603478
  0
VERTEX
  8
0
  6
CONTINUOUS
 62
     7
 10
-111.95213
 20
31.230592
 42
-0.018212825
  0
VERTEX
  8
0
  6
CONTINUOUS
 62
     7
 10
-115.46796
 20
31.898003
 42
0
  0
SEQEND
  8
0
  0
POLYLINE
  8
0
  6
CONTINUOUS
 62
     7
 66
     1
 10
0
 20
0
  0
VERTEX
  8
0
  6
CONTINUOUS
 62
     7
 10
-117.25086
 20
31.898003
 42
-0.067338399
  0
VERTEX
  8
0
  6
CONTINUOUS
 62
     7
 10
-120.75612
 20
30.831897
 42
-0.080048168
  0
VERTEX
  8
0
  6
CONTINUOUS
 62
     7
 10
-124.41554
 20
30.832194
 42
-0.06728431
  0
VERTEX
  8
0
  6
CONTINUOUS
 62
     7
 10
-127.92091
 20
31.898003
 42
0
  0
SEQEND
  8
0
  0
POLYLINE
  8
0
  6
CONTINUOUS
 62
     7
 66
     1
 10
0
 20
0
  0
VERTEX
  8
0
  6
CONTINUOUS
 62
     7
 10
-117.25089
 20
44.895794
 42
0.067339482
  0
VERTEX
  8
0
  6
CONTINUOUS
 62
     7
 10
-120.75614
 20
45.961921
 42
0.080049952
  0
VERTEX
  8
0
  6
CONTINUOUS
 62
     7
 10
-124.41555
 20
45.96162
 42
0.067285088
  0
VERTEX
  8
0
  6
CONTINUOUS
 62
     7
 10
-127.92091
 20
44.895794
 42
0
  0
SEQEND
  8
0
  0
POLYLINE
  8
0
  6
CONTINUOUS
 62
     7
 66
     1
 10
0
 20
0
  0
VERTEX
  8
0
  6
CONTINUOUS
 62
     7
 10
-104.8209
 20
46.108234
 42
0.019162028
  0
VERTEX
  8
0
  6
CONTINUOUS
 62
     7
 10
-108.39678
 20
45.970364
 42
0.018603816
  0
VERTEX
  8
0
  6
CONTINUOUS
 62
     7
 10
-111.95213
 20
45.563217
 42
0.018213141
  0
VERTEX
  8
0
  6
CONTINUOUS
 62
     7
 10
-115.46796
 20
44.895794
 42
0
  0
SEQEND
  8
0
  0
TEXT
  8
0
  6
CONTINUOUS
 62
     7
 10
-176.10388
 20
271.3978
 40
5
 41
0.8437661
  1
ＭＲ－Ｊ　　４５゜エルボ
  0
TEXT
  8
0
  6
CONTINUOUS
 62
     7
 10
-116.37568
 20
252.14485
 40
4.8000002
 41
1.0285716
  1
13
  0
TEXT
  8
0
  6
CONTINUOUS
 62
     7
 10
-120.75282
 20
182.14906
 40
4.8000002
 41
1.0285716
  1
20
  0
TEXT
  8
0
  6
CONTINUOUS
 62
     7
 10
-125.94678
 20
96.470766
 40
4.8000002
 41
1.0285716
  1
25
  0
LINE
  8
1
  6
CONTINUOUS
 62
     7
 10
-210
 20
0
 11
0
 21
0
  0
LINE
  8
1
  6
CONTINUOUS
 62
     7
 10
-210
 20
297
 11
0
 21
297
  0
LINE
  8
1
  6
CONTINUOUS
 62
     7
 10
0
 20
297
 11
0
 21
0
  0
LINE
  8
1
  6
CONTINUOUS
 62
     7
 10
-210
 20
297
 11
-210
 21
0
  0
ENDSEC
  0
EOF
