  0
SECTION
  2
HEADER
  9
$EXTMAX
 10
297
 20
210
  9
$EXTMIN
 10
-297
 20
-210
  0
ENDSEC
  0
SECTION
  2
TABLES
  0
TABLE
  2
LTYPE
 70
    22
  0
LTYPE
  2
CONTINUOUS
 70
    64
  3
Solid line
 72
    65
 73
     0
 40
0.000000
  0
LTYPE
  2
DASHED
 70
    64
  3
__ __ __ __ __ __ __ __ __ __ __ __ __ __ __
 72
    65
 73
     2
 40
3.500000
 49
2.000000
 49
-1.500000
  0
LTYPE
  2
CENTER
 70
    64
  3
____ _ ____ _ ____ _ ____ _ ____ _ ____ _ ____
 72
    65
 73
     4
 40
17.500000
 49
13.000000
 49
-1.500000
 49
1.500000
 49
-1.500000
  0
LTYPE
  2
PHANTOM
 70
    64
  3
_____ _ _ _____ _ _ _____ _ _ _____ _ _ ____  
 72
    65
 73
     6
 40
15.500000
 49
8.000000
 49
-1.500000
 49
1.500000
 49
-1.500000
 49
1.500000
 49
-1.500000
  0
LTYPE
  2
DOT
 70
    64
  3
. . . . . . . . . . . . . . . . . . . . . . . .
 72
    65
 73
     2
 40
0.25
 49
0.0
 49
-0.25
  0
ENDTAB
  0
TABLE
  2
LAYER
 70
     1
  0
LAYER
  2
0
 70
     0
 62
     7
  6
CONTINUOUS
  0
ENDTAB
  0
TABLE
  2
STYLE
 70
     1
  0
STYLE
  2
STANDARD
 70
     0
 40
0.000000
 41
1.000000
 50
0.000000
 71
     0
 42
0.200000
  3
txt
  4
BIGFONT
  0
ENDTAB
  0
TABLE
  2
VIEW
 70
     0
  0
ENDTAB
  0
ENDSEC
  0
SECTION
  2
BLOCKS
  0
ENDSEC
  0
SECTION
  2
ENTITIES
  0
POINT
  8
0
  6
CONTINUOUS
 62
     7
 10
163.19356
 20
-977.86963
  0
POINT
  8
0
  6
CONTINUOUS
 62
     7
 10
-76.96167
 20
-977.86963
  0
POINT
  8
0
  6
CONTINUOUS
 62
     7
 10
-81.354752
 20
-783.10962
  0
POINT
  8
0
  6
CONTINUOUS
 62
     7
 10
123.19356
 20
-783.10962
  0
POINT
  8
0
  6
CONTINUOUS
 62
     7
 10
227.19052
 20
-131.65198
  0
POINT
  8
0
  6
CONTINUOUS
 62
     7
 10
79.08268
 20
-131.65198
  0
POINT
  8
0
  6
CONTINUOUS
 62
     7
 10
-74.066704
 20
-122.81644
  0
POINT
  8
0
  6
CONTINUOUS
 62
     7
 10
-206.59984
 20
-122.81644
  0
POINT
  8
0
  6
CONTINUOUS
 62
     7
 10
-192.075
 20
90.149994
  0
POINT
  8
0
  6
CONTINUOUS
 62
     7
 10
-92.074997
 20
90.149994
  0
POINT
  8
0
  6
CONTINUOUS
 62
     7
 10
71.067459
 20
77.455841
  0
POINT
  8
0
  6
CONTINUOUS
 62
     7
 10
195.41731
 20
77.455841
  0
POINT
  8
0
  6
CONTINUOUS
 62
     7
 10
-46.018211
 20
-370.19641
  0
POINT
  8
0
  6
CONTINUOUS
 62
     7
 10
-66.092033
 20
-535.12653
  0
POINT
  8
0
  6
CONTINUOUS
 62
     7
 10
98.838081
 20
-535.12653
  0
POINT
  8
0
  6
CONTINUOUS
 62
     7
 10
116.18873
 20
-370.19641
  0
POINT
  8
0
  6
CONTINUOUS
 62
     7
 10
535.02258
 20
-776.46716
  0
POINT
  8
0
  6
CONTINUOUS
 62
     7
 10
535.02258
 20
-975.73926
  0
POINT
  8
0
  6
CONTINUOUS
 62
     7
 10
449.04184
 20
84.831093
  0
POINT
  8
0
  6
CONTINUOUS
 62
     7
 10
671.19183
 20
84.831093
  0
POINT
  8
0
  6
CONTINUOUS
 62
     7
 10
435.36807
 20
-112.51589
  0
POINT
  8
0
  6
CONTINUOUS
 62
     7
 10
693.33319
 20
-114.441
  0
POINT
  8
0
  6
CONTINUOUS
 62
     7
 10
566.02045
 20
-535.12653
  0
POINT
  8
0
  6
CONTINUOUS
 62
     7
 10
557.16388
 20
-344.71097
  0
POINT
  8
0
  6
CONTINUOUS
 62
     7
 10
549.04181
 20
84.831093
  0
POINT
  8
0
  6
CONTINUOUS
 62
     7
 10
791.19183
 20
84.831093
  0
POINT
  8
0
  6
CONTINUOUS
 62
     7
 10
555.36804
 20
-112.51589
  0
POINT
  8
0
  6
CONTINUOUS
 62
     7
 10
833.33319
 20
-114.441
  0
POINT
  8
0
  6
CONTINUOUS
 62
     7
 10
697.16394
 20
-344.71097
  0
POINT
  8
0
  6
CONTINUOUS
 62
     7
 10
726.02045
 20
-535.12653
  0
POINT
  8
0
  6
CONTINUOUS
 62
     7
 10
735.02258
 20
-776.46716
  0
POINT
  8
0
  6
CONTINUOUS
 62
     7
 10
735.02258
 20
-975.73926
  0
POINT
  8
0
  6
CONTINUOUS
 62
     7
 10
402.04181
 20
84.831093
  0
POINT
  8
0
  6
CONTINUOUS
 62
     7
 10
496.04184
 20
84.831093
  0
POINT
  8
0
  6
CONTINUOUS
 62
     7
 10
618.19183
 20
84.831093
  0
POINT
  8
0
  6
CONTINUOUS
 62
     7
 10
724.19183
 20
84.831093
  0
POINT
  8
0
  6
CONTINUOUS
 62
     7
 10
377.86807
 20
-112.51589
  0
POINT
  8
0
  6
CONTINUOUS
 62
     7
 10
492.86807
 20
-112.51589
  0
POINT
  8
0
  6
CONTINUOUS
 62
     7
 10
627.83319
 20
-114.441
  0
POINT
  8
0
  6
CONTINUOUS
 62
     7
 10
758.83319
 20
-114.441
  0
POINT
  8
0
  6
CONTINUOUS
 62
     7
 10
485.66391
 20
-344.71097
  0
POINT
  8
0
  6
CONTINUOUS
 62
     7
 10
628.66394
 20
-344.71097
  0
POINT
  8
0
  6
CONTINUOUS
 62
     7
 10
485.52045
 20
-535.12653
  0
POINT
  8
0
  6
CONTINUOUS
 62
     7
 10
646.52045
 20
-535.12653
  0
POINT
  8
0
  6
CONTINUOUS
 62
     7
 10
485.52045
 20
-535.12653
  0
POINT
  8
0
  6
CONTINUOUS
 62
     7
 10
646.52045
 20
-535.12653
  0
LINE
  8
0
  6
CONTINUOUS
 62
     7
 10
-297
 20
-650
 11
-297
 21
-230
  0
LINE
  8
0
  6
CONTINUOUS
 62
     7
 10
-297
 20
-230
 11
297
 21
-230
  0
LINE
  8
0
  6
CONTINUOUS
 62
     7
 10
297
 20
-230
 11
297
 21
-650
  0
LINE
  8
0
  6
CONTINUOUS
 62
     7
 10
297
 20
-650
 11
-297
 21
-650
  0
LINE
  8
0
  6
CENTER
 62
     7
 10
-182.79475
 20
-783.10962
 11
21.885242
 21
-783.10962
  0
LINE
  8
0
  6
CENTER
 62
     7
 10
-81.354752
 20
-732.35962
 11
-81.354752
 21
-861.50958
  0
LINE
  8
0
  6
CONTINUOUS
 62
     7
 10
-138.5135
 20
-737.85962
 11
-24.195997
 21
-737.85962
  0
LINE
  8
0
  6
CONTINUOUS
 62
     7
 10
-30.35475
 20
-828.35962
 11
-24.195997
 21
-828.35962
  0
LINE
  8
0
  6
CONTINUOUS
 62
     7
 10
-126.85475
 20
-854.60962
 11
-35.854752
 21
-854.60962
  0
LINE
  8
0
  6
CONTINUOUS
 62
     7
 10
-35.854752
 20
-842.60962
 11
-35.854752
 21
-854.60962
  0
LINE
  8
0
  6
CONTINUOUS
 62
     7
 10
-38.354752
 20
-836.35962
 11
-38.354752
 21
-838.27948
  0
LINE
  8
0
  6
CONTINUOUS
 62
     7
 10
-126.85475
 20
-842.60962
 11
-35.854752
 21
-842.60962
  0
LINE
  8
0
  6
CONTINUOUS
 62
     7
 10
-132.35475
 20
-828.35962
 11
-138.5135
 21
-828.35962
  0
LINE
  8
0
  6
CONTINUOUS
 62
     7
 10
-124.35475
 20
-836.35962
 11
-124.35475
 21
-838.27948
  0
LINE
  8
0
  6
CONTINUOUS
 62
     7
 10
-126.85475
 20
-842.60962
 11
-126.85475
 21
-854.60962
  0
LINE
  8
0
  6
CONTINUOUS
 62
     7
 10
7.6452479
 20
-731.10962
 11
7.6452479
 21
-835.10962
  0
LINE
  8
0
  6
CONTINUOUS
 62
     7
 10
-20.354752
 20
-783.10962
 11
6.6452479
 21
-783.10962
  0
LINE
  8
0
  6
CONTINUOUS
 62
     7
 10
-21.354752
 20
-731.10962
 11
-21.354752
 21
-835.10962
  0
LINE
  8
0
  6
CONTINUOUS
 62
     7
 10
-19.354752
 20
-729.10962
 11
5.6452479
 21
-729.10962
  0
LINE
  8
0
  6
CONTINUOUS
 62
     7
 10
-19.354752
 20
-837.10962
 11
5.6452479
 21
-837.10962
  0
LINE
  8
0
  6
CONTINUOUS
 62
     7
 10
-21.35475
 20
-731.10962
 11
-19.354748
 21
-729.10962
  0
LINE
  8
0
  6
CONTINUOUS
 62
     7
 10
5.6452355
 20
-729.10956
 11
7.6452374
 21
-731.10956
  0
LINE
  8
0
  6
CONTINUOUS
 62
     7
 10
-21.354771
 20
-835.10962
 11
-19.354769
 21
-837.10962
  0
LINE
  8
0
  6
CONTINUOUS
 62
     7
 10
5.645237
 20
-837.10956
 11
7.6452389
 21
-835.10956
  0
LINE
  8
0
  6
CONTINUOUS
 62
     7
 10
-20.354752
 20
-750.97186
 11
6.6452479
 21
-750.97186
  0
LINE
  8
0
  6
CONTINUOUS
 62
     7
 10
-20.354752
 20
-815.24738
 11
6.6452479
 21
-815.24738
  0
LINE
  8
0
  6
CONTINUOUS
 62
     7
 10
-170.35475
 20
-731.10962
 11
-170.35475
 21
-835.10962
  0
LINE
  8
0
  6
CONTINUOUS
 62
     7
 10
-142.35475
 20
-783.10962
 11
-169.35475
 21
-783.10962
  0
LINE
  8
0
  6
CONTINUOUS
 62
     7
 10
-141.35475
 20
-731.10962
 11
-141.35475
 21
-835.10962
  0
LINE
  8
0
  6
CONTINUOUS
 62
     7
 10
-143.35475
 20
-729.10962
 11
-168.35475
 21
-729.10962
  0
LINE
  8
0
  6
CONTINUOUS
 62
     7
 10
-143.35475
 20
-837.10962
 11
-168.35475
 21
-837.10962
  0
LINE
  8
0
  6
CONTINUOUS
 62
     7
 10
-141.35478
 20
-731.10956
 11
-143.35478
 21
-729.10956
  0
LINE
  8
0
  6
CONTINUOUS
 62
     7
 10
-168.35477
 20
-729.10962
 11
-170.35477
 21
-731.10962
  0
LINE
  8
0
  6
CONTINUOUS
 62
     7
 10
-141.35475
 20
-835.10962
 11
-143.35475
 21
-837.10962
  0
LINE
  8
0
  6
CONTINUOUS
 62
     7
 10
-168.35477
 20
-837.10962
 11
-170.35474
 21
-835.10962
  0
LINE
  8
0
  6
CONTINUOUS
 62
     7
 10
-142.35475
 20
-750.97186
 11
-169.35475
 21
-750.97186
  0
LINE
  8
0
  6
CONTINUOUS
 62
     7
 10
-142.35475
 20
-815.24738
 11
-169.35475
 21
-815.24738
  0
LINE
  8
0
  6
CENTER
 62
     7
 10
-76.96167
 20
-919.94464
 11
-76.96167
 21
-1068.3446
  0
LINE
  8
0
  6
CENTER
 62
     7
 10
-190.88666
 20
-977.86963
 11
35.913334
 21
-977.86963
  0
LINE
  8
0
  6
CONTINUOUS
 62
     7
 10
-140.62042
 20
-925.61963
 11
-13.302853
 21
-925.61963
  0
LINE
  8
0
  6
CONTINUOUS
 62
     7
 10
-17.461666
 20
-1030.1196
 11
-13.302853
 21
-1030.1196
  0
LINE
  8
0
  6
CONTINUOUS
 62
     7
 10
-24.461666
 20
-1045.8696
 11
-24.461666
 21
-1058.8696
  0
LINE
  8
0
  6
CONTINUOUS
 62
     7
 10
-129.46167
 20
-1058.8696
 11
-24.461666
 21
-1058.8696
  0
LINE
  8
0
  6
CONTINUOUS
 62
     7
 10
-129.46167
 20
-1045.8696
 11
-24.461666
 21
-1045.8696
  0
LINE
  8
0
  6
CONTINUOUS
 62
     7
 10
-27.461666
 20
-1040.1196
 11
-27.461666
 21
-1041.2871
  0
LINE
  8
0
  6
CONTINUOUS
 62
     7
 10
-126.46167
 20
-1040.1196
 11
-126.46167
 21
-1041.2871
  0
LINE
  8
0
  6
CONTINUOUS
 62
     7
 10
-136.46167
 20
-1030.1196
 11
-140.62042
 21
-1030.1196
  0
LINE
  8
0
  6
CONTINUOUS
 62
     7
 10
-129.46167
 20
-1045.8696
 11
-129.46167
 21
-1058.8696
  0
LINE
  8
0
  6
CONTINUOUS
 62
     7
 10
-9.4616661
 20
-977.86963
 11
17.538334
 21
-977.86963
  0
LINE
  8
0
  6
CONTINUOUS
 62
     7
 10
18.538334
 20
-918.36963
 11
18.538334
 21
-1037.3696
  0
LINE
  8
0
  6
CONTINUOUS
 62
     7
 10
-10.461666
 20
-918.36963
 11
-10.461666
 21
-1037.3696
  0
LINE
  8
0
  6
CONTINUOUS
 62
     7
 10
-8.4616661
 20
-1039.3696
 11
16.538334
 21
-1039.3696
  0
LINE
  8
0
  6
CONTINUOUS
 62
     7
 10
-8.4616661
 20
-916.36963
 11
16.538334
 21
-916.36963
  0
LINE
  8
0
  6
CONTINUOUS
 62
     7
 10
-8.4616785
 20
-916.36963
 11
-10.46168
 21
-918.36963
  0
LINE
  8
0
  6
CONTINUOUS
 62
     7
 10
-10.461676
 20
-1037.3696
 11
-8.4616728
 21
-1039.3696
  0
LINE
  8
0
  6
CONTINUOUS
 62
     7
 10
16.538332
 20
-1039.3696
 11
18.538334
 21
-1037.3696
  0
LINE
  8
0
  6
CONTINUOUS
 62
     7
 10
16.538336
 20
-916.36963
 11
18.538338
 21
-918.36963
  0
LINE
  8
0
  6
CONTINUOUS
 62
     7
 10
-9.4616661
 20
-939.86053
 11
17.538334
 21
-939.86053
  0
LINE
  8
0
  6
CONTINUOUS
 62
     7
 10
-9.4616661
 20
-1015.8787
 11
17.538334
 21
-1015.8787
  0
LINE
  8
0
  6
CONTINUOUS
 62
     7
 10
-144.46167
 20
-1015.8787
 11
-171.46167
 21
-1015.8787
  0
LINE
  8
0
  6
CONTINUOUS
 62
     7
 10
-144.46167
 20
-977.86963
 11
-171.46167
 21
-977.86963
  0
LINE
  8
0
  6
CONTINUOUS
 62
     7
 10
-172.46167
 20
-918.36963
 11
-172.46167
 21
-1037.3696
  0
LINE
  8
0
  6
CONTINUOUS
 62
     7
 10
-143.46167
 20
-918.36963
 11
-143.46167
 21
-1037.3696
  0
LINE
  8
0
  6
CONTINUOUS
 62
     7
 10
-145.46167
 20
-1039.3696
 11
-170.46167
 21
-1039.3696
  0
LINE
  8
0
  6
CONTINUOUS
 62
     7
 10
-145.46167
 20
-916.36963
 11
-170.46167
 21
-916.36963
  0
LINE
  8
0
  6
CONTINUOUS
 62
     7
 10
-145.46162
 20
-916.36963
 11
-143.46162
 21
-918.36963
  0
LINE
  8
0
  6
CONTINUOUS
 62
     7
 10
-143.46162
 20
-1037.3696
 11
-145.46162
 21
-1039.3696
  0
LINE
  8
0
  6
CONTINUOUS
 62
     7
 10
-170.46164
 20
-1039.3696
 11
-172.46164
 21
-1037.3696
  0
LINE
  8
0
  6
CONTINUOUS
 62
     7
 10
-170.46169
 20
-916.36963
 11
-172.46169
 21
-918.36963
  0
LINE
  8
0
  6
CONTINUOUS
 62
     7
 10
-144.46167
 20
-939.86053
 11
-171.46167
 21
-939.86053
  0
LINE
  8
0
  6
CONTINUOUS
 62
     7
 10
-297
 20
-210
 11
-297
 21
210
  0
LINE
  8
0
  6
CONTINUOUS
 62
     7
 10
-297
 20
210
 11
297
 21
210
  0
LINE
  8
0
  6
CONTINUOUS
 62
     7
 10
297
 20
210
 11
297
 21
-210
  0
LINE
  8
0
  6
CONTINUOUS
 62
     7
 10
297
 20
-210
 11
-297
 21
-210
  0
LINE
  8
0
  6
CONTINUOUS
 62
     7
 10
-171.34471
 20
105.64999
 11
-212.80528
 21
105.64999
  0
LINE
  8
0
  6
CONTINUOUS
 62
     7
 10
-171.34471
 20
74.649994
 11
-175.575
 21
74.649994
  0
LINE
  8
0
  6
CONTINUOUS
 62
     7
 10
-178.575
 20
71.649994
 11
-178.575
 21
61.149994
  0
LINE
  8
0
  6
CONTINUOUS
 62
     7
 10
-212.80528
 20
74.649994
 11
-208.575
 21
74.649994
  0
LINE
  8
0
  6
CENTER
 62
     7
 10
-140.1875
 20
90.149994
 11
-246.23749
 21
90.149994
  0
LINE
  8
0
  6
CENTER
 62
     7
 10
-192.075
 20
106.70276
 11
-192.075
 21
57.273216
  0
LINE
  8
0
  6
CONTINUOUS
 62
     7
 10
-205.575
 20
71.649994
 11
-205.575
 21
61.149994
  0
LINE
  8
0
  6
CONTINUOUS
 62
     7
 10
-149.575
 20
109.14999
 11
-149.575
 21
71.149994
  0
LINE
  8
0
  6
CONTINUOUS
 62
     7
 10
-165.075
 20
111.14999
 11
-151.575
 21
111.14999
  0
LINE
  8
0
  6
CONTINUOUS
 62
     7
 10
-165.075
 20
69.149994
 11
-151.575
 21
69.149994
  0
LINE
  8
0
  6
CONTINUOUS
 62
     7
 10
-167.075
 20
109.14999
 11
-167.075
 21
71.149994
  0
LINE
  8
0
  6
CONTINUOUS
 62
     7
 10
-166.075
 20
98.84848
 11
-150.575
 21
98.84848
  0
LINE
  8
0
  6
CONTINUOUS
 62
     7
 10
-166.075
 20
81.451523
 11
-150.575
 21
81.451523
  0
LINE
  8
0
  6
CONTINUOUS
 62
     7
 10
-165.075
 20
111.15
 11
-167.075
 21
109.15
  0
LINE
  8
0
  6
CONTINUOUS
 62
     7
 10
-151.57498
 20
111.14999
 11
-149.575
 21
109.15
  0
LINE
  8
0
  6
CONTINUOUS
 62
     7
 10
-149.57498
 20
71.149994
 11
-151.57498
 21
69.149986
  0
LINE
  8
0
  6
CONTINUOUS
 62
     7
 10
-167.075
 20
71.150002
 11
-165.075
 21
69.150002
  0
LINE
  8
0
  6
CONTINUOUS
 62
     7
 10
-234.57501
 20
109.14999
 11
-234.57501
 21
71.149994
  0
LINE
  8
0
  6
CONTINUOUS
 62
     7
 10
-219.075
 20
111.14999
 11
-232.57501
 21
111.14999
  0
LINE
  8
0
  6
CONTINUOUS
 62
     7
 10
-219.075
 20
69.149994
 11
-232.57501
 21
69.149994
  0
LINE
  8
0
  6
CONTINUOUS
 62
     7
 10
-217.075
 20
109.14999
 11
-217.075
 21
71.149994
  0
LINE
  8
0
  6
CONTINUOUS
 62
     7
 10
-218.075
 20
98.84848
 11
-233.57501
 21
98.84848
  0
LINE
  8
0
  6
CONTINUOUS
 62
     7
 10
-218.075
 20
81.451523
 11
-233.57501
 21
81.451523
  0
LINE
  8
0
  6
CONTINUOUS
 62
     7
 10
-219.07498
 20
111.14998
 11
-217.07498
 21
109.14997
  0
LINE
  8
0
  6
CONTINUOUS
 62
     7
 10
-232.575
 20
111.15
 11
-234.575
 21
109.14999
  0
LINE
  8
0
  6
CONTINUOUS
 62
     7
 10
-234.575
 20
71.150002
 11
-232.575
 21
69.149994
  0
LINE
  8
0
  6
CONTINUOUS
 62
     7
 10
-217.07498
 20
71.149971
 11
-219.07498
 21
69.149971
  0
LINE
  8
0
  6
CENTER
 62
     7
 10
129.95497
 20
77.455841
 11
12.004962
 21
77.455841
  0
LINE
  8
0
  6
CENTER
 62
     7
 10
71.067459
 20
34.055767
 11
71.067459
 21
99.9086
  0
LINE
  8
0
  6
CONTINUOUS
 62
     7
 10
97.226227
 20
95.705841
 11
44.908695
 21
95.705841
  0
LINE
  8
0
  6
CONTINUOUS
 62
     7
 10
97.226227
 20
59.205837
 11
91.567459
 21
59.205837
  0
LINE
  8
0
  6
CONTINUOUS
 62
     7
 10
87.567459
 20
43.455837
 11
87.567459
 21
55.205845
  0
LINE
  8
0
  6
CONTINUOUS
 62
     7
 10
44.908695
 20
59.205837
 11
50.567463
 21
59.205837
  0
LINE
  8
0
  6
CONTINUOUS
 62
     7
 10
54.567463
 20
43.455837
 11
54.567463
 21
55.205845
  0
LINE
  8
0
  6
CONTINUOUS
 62
     7
 10
119.56747
 20
99.955841
 11
119.56747
 21
54.955845
  0
LINE
  8
0
  6
CONTINUOUS
 62
     7
 10
101.06746
 20
99.955841
 11
101.06746
 21
54.955845
  0
LINE
  8
0
  6
CONTINUOUS
 62
     7
 10
103.06746
 20
101.95584
 11
117.56747
 21
101.95584
  0
LINE
  8
0
  6
CONTINUOUS
 62
     7
 10
103.06746
 20
52.955845
 11
117.56747
 21
52.955845
  0
LINE
  8
0
  6
CONTINUOUS
 62
     7
 10
101.06747
 20
99.955841
 11
103.06747
 21
101.95584
  0
LINE
  8
0
  6
CONTINUOUS
 62
     7
 10
103.06746
 20
52.955849
 11
101.06746
 21
54.955853
  0
LINE
  8
0
  6
CONTINUOUS
 62
     7
 10
117.56746
 20
101.95586
 11
119.56747
 21
99.955849
  0
LINE
  8
0
  6
CONTINUOUS
 62
     7
 10
119.56747
 20
54.955845
 11
117.56747
 21
52.955845
  0
LINE
  8
0
  6
CONTINUOUS
 62
     7
 10
102.06746
 20
87.596954
 11
118.56747
 21
87.596954
  0
LINE
  8
0
  6
CONTINUOUS
 62
     7
 10
102.06746
 20
67.314743
 11
118.56747
 21
67.314743
  0
LINE
  8
0
  6
CONTINUOUS
 62
     7
 10
22.567463
 20
99.955841
 11
22.567463
 21
54.955845
  0
LINE
  8
0
  6
CONTINUOUS
 62
     7
 10
41.067463
 20
99.955841
 11
41.067463
 21
54.955845
  0
LINE
  8
0
  6
CONTINUOUS
 62
     7
 10
39.067463
 20
101.95584
 11
24.567463
 21
101.95584
  0
LINE
  8
0
  6
CONTINUOUS
 62
     7
 10
39.067463
 20
52.955845
 11
24.567463
 21
52.955845
  0
LINE
  8
0
  6
CONTINUOUS
 62
     7
 10
41.067463
 20
99.955849
 11
39.067474
 21
101.95584
  0
LINE
  8
0
  6
CONTINUOUS
 62
     7
 10
39.067467
 20
52.955841
 11
41.067467
 21
54.955845
  0
LINE
  8
0
  6
CONTINUOUS
 62
     7
 10
24.567469
 20
101.95584
 11
22.567467
 21
99.955841
  0
LINE
  8
0
  6
CONTINUOUS
 62
     7
 10
22.567461
 20
54.955845
 11
24.567463
 21
52.955845
  0
LINE
  8
0
  6
CONTINUOUS
 62
     7
 10
40.067463
 20
87.596954
 11
23.567463
 21
87.596954
  0
LINE
  8
0
  6
CONTINUOUS
 62
     7
 10
40.067463
 20
67.314743
 11
23.567463
 21
67.314743
  0
LINE
  8
0
  6
CENTER
 62
     7
 10
-206.59984
 20
-166.50121
 11
-206.59984
 21
-97.030167
  0
LINE
  8
0
  6
CONTINUOUS
 62
     7
 10
-175.94107
 20
-100.56644
 11
-237.25861
 21
-100.56644
  0
LINE
  8
0
  6
CONTINUOUS
 62
     7
 10
-175.94107
 20
-145.06644
 11
-181.09984
 21
-145.06644
  0
LINE
  8
0
  6
CONTINUOUS
 62
     7
 10
-186.09984
 20
-162.81644
 11
-186.09984
 21
-150.06644
  0
LINE
  8
0
  6
CONTINUOUS
 62
     7
 10
-237.25861
 20
-145.06644
 11
-232.09984
 21
-145.06644
  0
LINE
  8
0
  6
CONTINUOUS
 62
     7
 10
-227.09984
 20
-162.81644
 11
-227.09984
 21
-150.06644
  0
LINE
  8
0
  6
CENTER
 62
     7
 10
-143.07484
 20
-122.81644
 11
-265.82236
 21
-122.81644
  0
LINE
  8
0
  6
CONTINUOUS
 62
     7
 10
-153.59984
 20
-95.816437
 11
-153.59984
 21
-149.81644
  0
LINE
  8
0
  6
CONTINUOUS
 62
     7
 10
-172.09984
 20
-95.816437
 11
-172.09984
 21
-149.81644
  0
LINE
  8
0
  6
CONTINUOUS
 62
     7
 10
-170.09984
 20
-151.81644
 11
-155.59984
 21
-151.81644
  0
LINE
  8
0
  6
CONTINUOUS
 62
     7
 10
-170.09984
 20
-93.816437
 11
-155.59984
 21
-93.816437
  0
LINE
  8
0
  6
CONTINUOUS
 62
     7
 10
-172.09984
 20
-95.816444
 11
-170.09984
 21
-93.816437
  0
LINE
  8
0
  6
CONTINUOUS
 62
     7
 10
-155.59982
 20
-93.816437
 11
-153.59984
 21
-95.816437
  0
LINE
  8
0
  6
CONTINUOUS
 62
     7
 10
-172.09984
 20
-149.81644
 11
-170.09984
 21
-151.81644
  0
LINE
  8
0
  6
CONTINUOUS
 62
     7
 10
-155.59984
 20
-151.81644
 11
-153.59984
 21
-149.81645
  0
LINE
  8
0
  6
CONTINUOUS
 62
     7
 10
-171.09984
 20
-110.80423
 11
-154.59984
 21
-110.80423
  0
LINE
  8
0
  6
CONTINUOUS
 62
     7
 10
-171.09984
 20
-134.82863
 11
-154.59984
 21
-134.82863
  0
LINE
  8
0
  6
CONTINUOUS
 62
     7
 10
-259.59982
 20
-95.816437
 11
-259.59982
 21
-149.81644
  0
LINE
  8
0
  6
CONTINUOUS
 62
     7
 10
-241.09984
 20
-95.816437
 11
-241.09984
 21
-149.81644
  0
LINE
  8
0
  6
CONTINUOUS
 62
     7
 10
-243.09984
 20
-151.81644
 11
-257.59982
 21
-151.81644
  0
LINE
  8
0
  6
CONTINUOUS
 62
     7
 10
-243.09984
 20
-93.816437
 11
-257.59982
 21
-93.816437
  0
LINE
  8
0
  6
CONTINUOUS
 62
     7
 10
-241.09984
 20
-95.816444
 11
-243.09984
 21
-93.816437
  0
LINE
  8
0
  6
CONTINUOUS
 62
     7
 10
-257.59982
 20
-93.816429
 11
-259.59982
 21
-95.816429
  0
LINE
  8
0
  6
CONTINUOUS
 62
     7
 10
-241.09984
 20
-149.81644
 11
-243.09984
 21
-151.81644
  0
LINE
  8
0
  6
CONTINUOUS
 62
     7
 10
-257.59982
 20
-151.81642
 11
-259.59982
 21
-149.81642
  0
LINE
  8
0
  6
CONTINUOUS
 62
     7
 10
-242.09984
 20
-110.80423
 11
-258.59982
 21
-110.80423
  0
LINE
  8
0
  6
CONTINUOUS
 62
     7
 10
-242.09984
 20
-134.82863
 11
-258.59982
 21
-134.82863
  0
LINE
  8
0
  6
CENTER
 62
     7
 10
79.08268
 20
-98.926971
 11
79.08268
 21
-184.32698
  0
LINE
  8
0
  6
CENTER
 62
     7
 10
8.5401859
 20
-131.65198
 11
151.13017
 21
-131.65198
  0
LINE
  8
0
  6
CONTINUOUS
 62
     7
 10
40.412807
 20
-105.15198
 11
117.75256
 21
-105.15198
  0
LINE
  8
0
  6
CONTINUOUS
 62
     7
 10
110.08268
 20
-158.15198
 11
117.75256
 21
-158.15198
  0
LINE
  8
0
  6
CONTINUOUS
 62
     7
 10
104.08268
 20
-164.15198
 11
104.08268
 21
-178.15198
  0
LINE
  8
0
  6
CONTINUOUS
 62
     7
 10
54.082684
 20
-178.15198
 11
104.08268
 21
-178.15198
  0
LINE
  8
0
  6
CONTINUOUS
 62
     7
 10
48.082684
 20
-158.15198
 11
40.412807
 21
-158.15198
  0
LINE
  8
0
  6
CONTINUOUS
 62
     7
 10
54.082684
 20
-164.15198
 11
54.082684
 21
-178.15198
  0
LINE
  8
0
  6
CONTINUOUS
 62
     7
 10
140.08269
 20
-100.65198
 11
140.08269
 21
-162.65198
  0
LINE
  8
0
  6
CONTINUOUS
 62
     7
 10
121.08268
 20
-100.65198
 11
121.08268
 21
-162.65198
  0
LINE
  8
0
  6
CONTINUOUS
 62
     7
 10
123.08268
 20
-98.651978
 11
138.08269
 21
-98.651978
  0
LINE
  8
0
  6
CONTINUOUS
 62
     7
 10
123.08268
 20
-164.65198
 11
138.08269
 21
-164.65198
  0
LINE
  8
0
  6
CONTINUOUS
 62
     7
 10
121.08267
 20
-100.65197
 11
123.08267
 21
-98.65197
  0
LINE
  8
0
  6
CONTINUOUS
 62
     7
 10
138.08267
 20
-98.651978
 11
140.08269
 21
-100.65199
  0
LINE
  8
0
  6
CONTINUOUS
 62
     7
 10
140.08267
 20
-162.65199
 11
138.08267
 21
-164.65199
  0
LINE
  8
0
  6
CONTINUOUS
 62
     7
 10
121.08268
 20
-162.65196
 11
123.08268
 21
-164.65196
  0
LINE
  8
0
  6
CONTINUOUS
 62
     7
 10
122.08268
 20
-117.98293
 11
139.08269
 21
-117.98293
  0
LINE
  8
0
  6
CONTINUOUS
 62
     7
 10
122.08268
 20
-145.32101
 11
139.08269
 21
-145.32101
  0
LINE
  8
0
  6
CONTINUOUS
 62
     7
 10
18.082666
 20
-100.65198
 11
18.082666
 21
-162.65198
  0
LINE
  8
0
  6
CONTINUOUS
 62
     7
 10
37.082684
 20
-100.65198
 11
37.082684
 21
-162.65198
  0
LINE
  8
0
  6
CONTINUOUS
 62
     7
 10
35.082684
 20
-98.651978
 11
20.082682
 21
-98.651978
  0
LINE
  8
0
  6
CONTINUOUS
 62
     7
 10
35.082684
 20
-164.65198
 11
20.082682
 21
-164.65198
  0
LINE
  8
0
  6
CONTINUOUS
 62
     7
 10
37.082691
 20
-100.65197
 11
35.082691
 21
-98.65197
  0
LINE
  8
0
  6
CONTINUOUS
 62
     7
 10
20.082674
 20
-98.65197
 11
18.082684
 21
-100.65196
  0
LINE
  8
0
  6
CONTINUOUS
 62
     7
 10
18.082685
 20
-162.65196
 11
20.082687
 21
-164.65196
  0
LINE
  8
0
  6
CONTINUOUS
 62
     7
 10
37.082687
 20
-162.65198
 11
35.082684
 21
-164.65198
  0
LINE
  8
0
  6
CONTINUOUS
 62
     7
 10
36.082684
 20
-117.98293
 11
19.082666
 21
-117.98293
  0
LINE
  8
0
  6
CONTINUOUS
 62
     7
 10
36.082684
 20
-145.32101
 11
19.082666
 21
-145.32101
  0
LINE
  8
0
  6
CENTER
 62
     7
 10
-120.05572
 20
-370.19641
 11
36.989326
 21
-370.19641
  0
LINE
  8
0
  6
CENTER
 62
     7
 10
-46.018211
 20
-336.94641
 11
-46.018211
 21
-428.29642
  0
LINE
  8
0
  6
CONTINUOUS
 62
     7
 10
-88.188072
 20
-340.19641
 11
-3.8483188
 21
-340.19641
  0
LINE
  8
0
  6
CONTINUOUS
 62
     7
 10
-12.01821
 20
-400.19641
 11
-3.8483188
 21
-400.19641
  0
LINE
  8
0
  6
CONTINUOUS
 62
     7
 10
-18.018209
 20
-406.19641
 11
-18.018209
 21
-421.19641
  0
LINE
  8
0
  6
CONTINUOUS
 62
     7
 10
-74.018211
 20
-421.19641
 11
-18.018209
 21
-421.19641
  0
LINE
  8
0
  6
CONTINUOUS
 62
     7
 10
-80.018211
 20
-400.19641
 11
-88.188072
 21
-400.19641
  0
LINE
  8
0
  6
CONTINUOUS
 62
     7
 10
-74.018211
 20
-406.19641
 11
-74.018211
 21
-421.19641
  0
LINE
  8
0
  6
CONTINUOUS
 62
     7
 10
20.481821
 20
-335.69641
 11
20.481821
 21
-404.69641
  0
LINE
  8
0
  6
CONTINUOUS
 62
     7
 10
-0.51821005
 20
-370.19641
 11
19.481821
 21
-370.19641
  0
LINE
  8
0
  6
CONTINUOUS
 62
     7
 10
-1.5182101
 20
-335.69641
 11
-1.5182101
 21
-404.69641
  0
LINE
  8
0
  6
CONTINUOUS
 62
     7
 10
0.48178992
 20
-333.69641
 11
18.481821
 21
-333.69641
  0
LINE
  8
0
  6
CONTINUOUS
 62
     7
 10
0.48178992
 20
-406.69641
 11
18.481821
 21
-406.69641
  0
LINE
  8
0
  6
CONTINUOUS
 62
     7
 10
-0.51821005
 20
-347.63818
 11
19.481821
 21
-347.63818
  0
LINE
  8
0
  6
CONTINUOUS
 62
     7
 10
-0.51821005
 20
-392.75467
 11
19.481821
 21
-392.75467
  0
LINE
  8
0
  6
CONTINUOUS
 62
     7
 10
-1.5181746
 20
-335.69641
 11
0.48180601
 21
-333.69644
  0
LINE
  8
0
  6
CONTINUOUS
 62
     7
 10
18.481804
 20
-333.69641
 11
20.481806
 21
-335.69641
  0
LINE
  8
0
  6
CONTINUOUS
 62
     7
 10
-1.5181866
 20
-404.69644
 11
0.48181564
 21
-406.69644
  0
LINE
  8
0
  6
CONTINUOUS
 62
     7
 10
20.481804
 20
-404.69644
 11
18.4818
 21
-406.69644
  0
LINE
  8
0
  6
CONTINUOUS
 62
     7
 10
-112.51821
 20
-335.69641
 11
-112.51821
 21
-404.69641
  0
LINE
  8
0
  6
CONTINUOUS
 62
     7
 10
-91.518211
 20
-370.19641
 11
-111.51821
 21
-370.19641
  0
LINE
  8
0
  6
CONTINUOUS
 62
     7
 10
-90.518211
 20
-335.69641
 11
-90.518211
 21
-404.69641
  0
LINE
  8
0
  6
CONTINUOUS
 62
     7
 10
-92.518211
 20
-333.69641
 11
-110.51821
 21
-333.69641
  0
LINE
  8
0
  6
CONTINUOUS
 62
     7
 10
-92.518211
 20
-406.69641
 11
-110.51821
 21
-406.69641
  0
LINE
  8
0
  6
CONTINUOUS
 62
     7
 10
-91.518211
 20
-347.63818
 11
-111.51821
 21
-347.63818
  0
LINE
  8
0
  6
CONTINUOUS
 62
     7
 10
-91.518211
 20
-392.75467
 11
-111.51821
 21
-392.75467
  0
LINE
  8
0
  6
CONTINUOUS
 62
     7
 10
-90.518188
 20
-335.69641
 11
-92.518188
 21
-333.69641
  0
LINE
  8
0
  6
CONTINUOUS
 62
     7
 10
-110.5182
 20
-333.69641
 11
-112.5182
 21
-335.69641
  0
LINE
  8
0
  6
CONTINUOUS
 62
     7
 10
-90.518188
 20
-404.69641
 11
-92.518188
 21
-406.69641
  0
LINE
  8
0
  6
CONTINUOUS
 62
     7
 10
-112.51821
 20
-404.69641
 11
-110.5182
 21
-406.69641
  0
LINE
  8
0
  6
CENTER
 62
     7
 10
-66.092033
 20
-492.07654
 11
-66.092033
 21
-603.72656
  0
LINE
  8
0
  6
CENTER
 62
     7
 10
-157.44203
 20
-535.12653
 11
25.607981
 21
-535.12653
  0
LINE
  8
0
  6
CONTINUOUS
 62
     7
 10
-116.26189
 20
-498.62653
 11
-15.922172
 21
-498.62653
  0
LINE
  8
0
  6
CONTINUOUS
 62
     7
 10
-25.092031
 20
-571.62653
 11
-15.922172
 21
-571.62653
  0
LINE
  8
0
  6
CONTINUOUS
 62
     7
 10
-101.09203
 20
-594.12653
 11
-31.092031
 21
-594.12653
  0
LINE
  8
0
  6
CONTINUOUS
 62
     7
 10
-31.092031
 20
-577.62653
 11
-31.092031
 21
-594.12653
  0
LINE
  8
0
  6
CONTINUOUS
 62
     7
 10
-101.09203
 20
-577.62653
 11
-101.09203
 21
-594.12653
  0
LINE
  8
0
  6
CONTINUOUS
 62
     7
 10
-107.09203
 20
-571.62653
 11
-116.26189
 21
-571.62653
  0
LINE
  8
0
  6
CONTINUOUS
 62
     7
 10
8.9079676
 20
-493.62653
 11
8.9079676
 21
-576.62653
  0
LINE
  8
0
  6
CONTINUOUS
 62
     7
 10
-13.592032
 20
-535.12653
 11
7.907968
 21
-535.12653
  0
LINE
  8
0
  6
CONTINUOUS
 62
     7
 10
-14.592032
 20
-493.62653
 11
-14.592032
 21
-576.62653
  0
LINE
  8
0
  6
CONTINUOUS
 62
     7
 10
-12.592032
 20
-491.62653
 11
6.907968
 21
-491.62653
  0
LINE
  8
0
  6
CONTINUOUS
 62
     7
 10
-12.592032
 20
-578.62653
 11
6.907968
 21
-578.62653
  0
LINE
  8
0
  6
CONTINUOUS
 62
     7
 10
-14.592018
 20
-493.62656
 11
-12.592015
 21
-491.62656
  0
LINE
  8
0
  6
CONTINUOUS
 62
     7
 10
6.9079947
 20
-491.62653
 11
8.9079971
 21
-493.62653
  0
LINE
  8
0
  6
CONTINUOUS
 62
     7
 10
-14.592037
 20
-576.62653
 11
-12.592035
 21
-578.62653
  0
LINE
  8
0
  6
CONTINUOUS
 62
     7
 10
6.9079752
 20
-578.62653
 11
8.9079771
 21
-576.62653
  0
LINE
  8
0
  6
CONTINUOUS
 62
     7
 10
7.907968
 20
-508.24207
 11
-13.592032
 21
-508.24207
  0
LINE
  8
0
  6
CONTINUOUS
 62
     7
 10
7.907968
 20
-562.01099
 11
-13.592032
 21
-562.01099
  0
LINE
  8
0
  6
CONTINUOUS
 62
     7
 10
-141.09203
 20
-493.62653
 11
-141.09203
 21
-576.62653
  0
LINE
  8
0
  6
CONTINUOUS
 62
     7
 10
-118.59203
 20
-535.12653
 11
-140.09203
 21
-535.12653
  0
LINE
  8
0
  6
CONTINUOUS
 62
     7
 10
-117.59203
 20
-493.62653
 11
-117.59203
 21
-576.62653
  0
LINE
  8
0
  6
CONTINUOUS
 62
     7
 10
-119.59203
 20
-491.62653
 11
-139.09203
 21
-491.62653
  0
LINE
  8
0
  6
CONTINUOUS
 62
     7
 10
-119.59203
 20
-578.62653
 11
-139.09203
 21
-578.62653
  0
LINE
  8
0
  6
CONTINUOUS
 62
     7
 10
-117.59204
 20
-493.62653
 11
-119.59203
 21
-491.62656
  0
LINE
  8
0
  6
CONTINUOUS
 62
     7
 10
-139.09204
 20
-491.62653
 11
-141.09204
 21
-493.62653
  0
LINE
  8
0
  6
CONTINUOUS
 62
     7
 10
-117.592
 20
-576.62653
 11
-119.592
 21
-578.62653
  0
LINE
  8
0
  6
CONTINUOUS
 62
     7
 10
-139.09204
 20
-578.62653
 11
-141.09204
 21
-576.62653
  0
LINE
  8
0
  6
CONTINUOUS
 62
     7
 10
-140.09203
 20
-508.24207
 11
-118.59203
 21
-508.24207
  0
LINE
  8
0
  6
CONTINUOUS
 62
     7
 10
-140.09203
 20
-562.01099
 11
-118.59203
 21
-562.01099
  0
LINE
  8
0
  6
CONTINUOUS
 62
     7
 10
-178.575
 20
61.149994
 11
-205.575
 21
61.149994
  0
LINE
  8
0
  6
CONTINUOUS
 62
     7
 10
87.567459
 20
43.455837
 11
54.567463
 21
43.455837
  0
LINE
  8
0
  6
CONTINUOUS
 62
     7
 10
-186.09984
 20
-162.81644
 11
-227.09984
 21
-162.81644
  0
LINE
  8
0
  6
CONTINUOUS
 62
     7
 10
-297
 20
-1090
 11
-297
 21
-670
  0
LINE
  8
0
  6
CONTINUOUS
 62
     7
 10
-297
 20
-670
 11
297
 21
-670
  0
LINE
  8
0
  6
CONTINUOUS
 62
     7
 10
297
 20
-1090
 11
-297
 21
-1090
  0
LINE
  8
0
  6
CONTINUOUS
 62
     7
 10
297
 20
-670
 11
297
 21
-1090
  0
LINE
  8
0
  6
CONTINUOUS
 62
     7
 10
-71.075012
 20
98.848473
 11
-83.376518
 21
111.14999
  0
LINE
  8
0
  6
CONTINUOUS
 62
     7
 10
-83.376526
 20
111.14999
 11
-100.77348
 21
111.14999
  0
LINE
  8
0
  6
CONTINUOUS
 62
     7
 10
-113.075
 20
98.848465
 11
-100.77349
 21
111.14998
  0
LINE
  8
0
  6
CONTINUOUS
 62
     7
 10
-113.075
 20
81.451508
 11
-113.075
 21
98.848465
  0
LINE
  8
0
  6
CONTINUOUS
 62
     7
 10
-100.7735
 20
69.149986
 11
-113.07501
 21
81.451492
  0
LINE
  8
0
  6
CONTINUOUS
 62
     7
 10
-83.376526
 20
69.149994
 11
-100.77348
 21
69.149994
  0
LINE
  8
0
  6
CONTINUOUS
 62
     7
 10
-71.075012
 20
81.4515
 11
-83.376526
 21
69.149986
  0
LINE
  8
0
  6
CONTINUOUS
 62
     7
 10
-71.074997
 20
98.848465
 11
-71.074997
 21
81.451508
  0
LINE
  8
0
  6
CENTER
 62
     7
 10
-92.074997
 20
113.43588
 11
-92.074997
 21
66.86409
  0
LINE
  8
0
  6
CONTINUOUS
 62
     7
 10
219.90013
 20
87.596954
 11
205.55843
 21
101.93865
  0
LINE
  8
0
  6
CONTINUOUS
 62
     7
 10
205.55843
 20
101.93864
 11
185.2762
 21
101.93864
  0
LINE
  8
0
  6
CONTINUOUS
 62
     7
 10
170.93451
 20
87.596947
 11
185.2762
 21
101.93864
  0
LINE
  8
0
  6
CONTINUOUS
 62
     7
 10
170.93451
 20
67.314728
 11
170.93451
 21
87.596939
  0
LINE
  8
0
  6
CONTINUOUS
 62
     7
 10
185.2762
 20
52.973022
 11
170.93449
 21
67.31472
  0
LINE
  8
0
  6
CONTINUOUS
 62
     7
 10
205.55843
 20
52.973022
 11
185.2762
 21
52.973022
  0
LINE
  8
0
  6
CONTINUOUS
 62
     7
 10
219.90012
 20
67.314728
 11
205.55843
 21
52.97303
  0
LINE
  8
0
  6
CONTINUOUS
 62
     7
 10
219.90013
 20
87.596939
 11
219.90013
 21
67.314728
  0
LINE
  8
0
  6
CENTER
 62
     7
 10
195.41731
 20
103.49173
 11
195.41731
 21
51.419937
  0
LINE
  8
0
  6
CONTINUOUS
 62
     7
 10
-45.066692
 20
-110.80424
 11
-62.054508
 21
-93.816429
  0
LINE
  8
0
  6
CONTINUOUS
 62
     7
 10
-62.054516
 20
-93.816437
 11
-86.078896
 21
-93.816437
  0
LINE
  8
0
  6
CONTINUOUS
 62
     7
 10
-103.06671
 20
-110.80424
 11
-86.078896
 21
-93.816429
  0
LINE
  8
0
  6
CONTINUOUS
 62
     7
 10
-103.0667
 20
-134.82864
 11
-103.0667
 21
-110.80424
  0
LINE
  8
0
  6
CONTINUOUS
 62
     7
 10
-86.078896
 20
-151.81645
 11
-103.06671
 21
-134.82863
  0
LINE
  8
0
  6
CONTINUOUS
 62
     7
 10
-62.054516
 20
-151.81644
 11
-86.078896
 21
-151.81644
  0
LINE
  8
0
  6
CONTINUOUS
 62
     7
 10
-45.066692
 20
-134.82864
 11
-62.054504
 21
-151.81645
  0
LINE
  8
0
  6
CONTINUOUS
 62
     7
 10
-45.066708
 20
-110.80424
 11
-45.066708
 21
-134.82864
  0
LINE
  8
0
  6
CENTER
 62
     7
 10
-74.066704
 20
-87.707558
 11
-74.066704
 21
-156.94473
  0
LINE
  8
0
  6
CONTINUOUS
 62
     7
 10
260.19055
 20
-117.98293
 11
240.85957
 21
-98.651978
  0
LINE
  8
0
  6
CONTINUOUS
 62
     7
 10
240.85957
 20
-98.651978
 11
213.52147
 21
-98.651978
  0
LINE
  8
0
  6
CONTINUOUS
 62
     7
 10
194.19054
 20
-117.98293
 11
213.52148
 21
-98.651978
  0
LINE
  8
0
  6
CONTINUOUS
 62
     7
 10
194.19052
 20
-145.32103
 11
194.19052
 21
-117.98293
  0
LINE
  8
0
  6
CONTINUOUS
 62
     7
 10
213.52148
 20
-164.65198
 11
194.19054
 21
-145.32103
  0
LINE
  8
0
  6
CONTINUOUS
 62
     7
 10
240.85957
 20
-164.65198
 11
213.52147
 21
-164.65198
  0
LINE
  8
0
  6
CONTINUOUS
 62
     7
 10
260.19055
 20
-145.32103
 11
240.85959
 21
-164.65199
  0
LINE
  8
0
  6
CONTINUOUS
 62
     7
 10
260.19052
 20
-117.98293
 11
260.19052
 21
-145.32103
  0
LINE
  8
0
  6
CENTER
 62
     7
 10
227.19052
 20
-97.766083
 11
227.19052
 21
-165.53787
  0
LINE
  8
0
  6
CENTER
 62
     7
 10
116.18873
 20
-328.3714
 11
116.18873
 21
-412.72141
  0
LINE
  8
0
  6
CONTINUOUS
 62
     7
 10
154.56712
 20
-370.19641
 11
147.23752
 21
-347.63818
  0
LINE
  8
0
  6
CONTINUOUS
 62
     7
 10
147.2375
 20
-347.63815
 11
128.04831
 21
-333.69641
  0
LINE
  8
0
  6
CONTINUOUS
 62
     7
 10
104.32917
 20
-333.69641
 11
128.04829
 21
-333.69641
  0
LINE
  8
0
  6
CONTINUOUS
 62
     7
 10
85.139984
 20
-347.63818
 11
104.32915
 21
-333.69641
  0
LINE
  8
0
  6
CONTINUOUS
 62
     7
 10
77.810341
 20
-370.19641
 11
85.139961
 21
-347.63815
  0
LINE
  8
0
  6
CONTINUOUS
 62
     7
 10
85.139999
 20
-392.75467
 11
77.810387
 21
-370.19644
  0
LINE
  8
0
  6
CONTINUOUS
 62
     7
 10
104.32917
 20
-406.69641
 11
85.139977
 21
-392.75467
  0
LINE
  8
0
  6
CONTINUOUS
 62
     7
 10
128.04829
 20
-406.69641
 11
104.32917
 21
-406.69641
  0
LINE
  8
0
  6
CONTINUOUS
 62
     7
 10
147.23747
 20
-392.75467
 11
128.04831
 21
-406.69641
  0
LINE
  8
0
  6
CONTINUOUS
 62
     7
 10
154.56709
 20
-370.19641
 11
147.23747
 21
-392.75464
  0
LINE
  8
0
  6
CONTINUOUS
 62
     7
 10
144.57672
 20
-535.12653
 11
135.8414
 21
-508.242
  0
LINE
  8
0
  6
CONTINUOUS
 62
     7
 10
135.8414
 20
-508.24203
 11
112.9721
 21
-491.6265
  0
LINE
  8
0
  6
CONTINUOUS
 62
     7
 10
84.704109
 20
-491.62653
 11
112.97211
 21
-491.62653
  0
LINE
  8
0
  6
CONTINUOUS
 62
     7
 10
61.834793
 20
-508.24203
 11
84.704086
 21
-491.62653
  0
LINE
  8
0
  6
CONTINUOUS
 62
     7
 10
53.099487
 20
-535.12653
 11
61.834782
 21
-508.24203
  0
LINE
  8
0
  6
CONTINUOUS
 62
     7
 10
61.834793
 20
-562.01105
 11
53.099483
 21
-535.12646
  0
LINE
  8
0
  6
CONTINUOUS
 62
     7
 10
84.704079
 20
-578.62653
 11
61.834785
 21
-562.01099
  0
LINE
  8
0
  6
CONTINUOUS
 62
     7
 10
112.97211
 20
-578.62653
 11
84.704109
 21
-578.62653
  0
LINE
  8
0
  6
CONTINUOUS
 62
     7
 10
135.84137
 20
-562.01099
 11
112.97207
 21
-578.62646
  0
LINE
  8
0
  6
CONTINUOUS
 62
     7
 10
144.57669
 20
-535.12653
 11
135.8414
 21
-562.01099
  0
LINE
  8
0
  6
CENTER
 62
     7
 10
98.838081
 20
-481.92651
 11
98.838081
 21
-586.2265
  0
LINE
  8
0
  6
CENTER
 62
     7
 10
123.19356
 20
-839.92444
 11
123.19356
 21
-725.573
  0
LINE
  8
0
  6
CENTER
 62
     7
 10
163.19356
 20
-916.36963
 11
163.19356
 21
-1039.3696
  0
LINE
  8
0
  6
CONTINUOUS
 62
     7
 10
227.85847
 20
-977.86957
 11
215.50856
 21
-939.86047
  0
LINE
  8
0
  6
CONTINUOUS
 62
     7
 10
215.50859
 20
-939.86053
 11
183.17615
 21
-916.36963
  0
LINE
  8
0
  6
CONTINUOUS
 62
     7
 10
143.211
 20
-916.36963
 11
183.17612
 21
-916.36963
  0
LINE
  8
0
  6
CONTINUOUS
 62
     7
 10
110.87856
 20
-939.86053
 11
143.21103
 21
-916.36963
  0
LINE
  8
0
  6
CONTINUOUS
 62
     7
 10
98.528618
 20
-977.86963
 11
110.87851
 21
-939.86053
  0
LINE
  8
0
  6
CONTINUOUS
 62
     7
 10
110.87852
 20
-1015.8787
 11
98.528618
 21
-977.86957
  0
LINE
  8
0
  6
CONTINUOUS
 62
     7
 10
143.211
 20
-1039.3696
 11
110.87857
 21
-1015.8787
  0
LINE
  8
0
  6
CONTINUOUS
 62
     7
 10
183.17612
 20
-1039.3696
 11
143.211
 21
-1039.3696
  0
LINE
  8
0
  6
CONTINUOUS
 62
     7
 10
215.50861
 20
-1015.8787
 11
183.17615
 21
-1039.3696
  0
LINE
  8
0
  6
CONTINUOUS
 62
     7
 10
227.85849
 20
-977.86969
 11
215.50859
 21
-1015.8787
  0
LINE
  8
0
  6
CENTER
 62
     7
 10
180.51848
 20
-783.10962
 11
63.196804
 21
-783.10962
  0
LINE
  8
0
  6
CENTER
 62
     7
 10
96.026779
 20
-977.86963
 11
232.04355
 21
-977.86963
  0
LINE
  8
0
  6
CENTER
 62
     7
 10
48.545052
 20
-535.12653
 11
150.46779
 21
-535.12653
  0
LINE
  8
0
  6
CENTER
 62
     7
 10
73.354805
 20
-370.19641
 11
159.04414
 21
-370.19641
  0
LINE
  8
0
  6
CENTER
 62
     7
 10
185.18634
 20
-131.65198
 11
268.70297
 21
-131.65198
  0
LINE
  8
0
  6
CENTER
 62
     7
 10
-109.6087
 20
-122.81644
 11
-37.447674
 21
-122.81644
  0
LINE
  8
0
  6
CENTER
 62
     7
 10
-119.54223
 20
90.149994
 11
-66.045044
 21
90.149994
  0
LINE
  8
0
  6
CENTER
 62
     7
 10
162.39513
 20
77.455841
 11
225.5771
 21
77.455841
  0
LINE
  8
0
  6
CONTINUOUS
 62
     7
 10
179.97252
 20
-783.10962
 11
169.12869
 21
-749.73572
  0
LINE
  8
0
  6
CONTINUOUS
 62
     7
 10
169.12871
 20
-749.73572
 11
140.73924
 21
-729.10956
  0
LINE
  8
0
  6
CONTINUOUS
 62
     7
 10
105.64789
 20
-729.10962
 11
140.73923
 21
-729.10962
  0
LINE
  8
0
  6
CONTINUOUS
 62
     7
 10
77.258415
 20
-749.73578
 11
105.64788
 21
-729.10962
  0
LINE
  8
0
  6
CONTINUOUS
 62
     7
 10
66.414597
 20
-783.10962
 11
77.2584
 21
-749.73578
  0
LINE
  8
0
  6
CONTINUOUS
 62
     7
 10
77.258415
 20
-816.48346
 11
66.414589
 21
-783.10956
  0
LINE
  8
0
  6
CONTINUOUS
 62
     7
 10
105.64787
 20
-837.10962
 11
77.258408
 21
-816.48346
  0
LINE
  8
0
  6
CONTINUOUS
 62
     7
 10
140.73923
 20
-837.10962
 11
105.64789
 21
-837.10962
  0
LINE
  8
0
  6
CONTINUOUS
 62
     7
 10
169.12869
 20
-816.48346
 11
140.73923
 21
-837.10956
  0
LINE
  8
0
  6
CONTINUOUS
 62
     7
 10
179.9725
 20
-783.10962
 11
169.12869
 21
-816.4834
  0
LINE
  8
0
  6
CONTINUOUS
 62
     7
 10
317
 20
-1090
 11
317
 21
-670
  0
LINE
  8
0
  6
CONTINUOUS
 62
     7
 10
317
 20
-670
 11
911
 21
-670
  0
LINE
  8
0
  6
CONTINUOUS
 62
     7
 10
911
 20
-670
 11
911
 21
-1090
  0
LINE
  8
0
  6
CONTINUOUS
 62
     7
 10
911
 20
-1090
 11
317
 21
-1090
  0
LINE
  8
0
  6
CENTER
 62
     7
 10
433.58255
 20
-776.46716
 11
638.26257
 21
-776.46716
  0
LINE
  8
0
  6
CENTER
 62
     7
 10
535.02258
 20
-725.71716
 11
535.02258
 21
-854.86719
  0
LINE
  8
0
  6
CONTINUOUS
 62
     7
 10
597.02258
 20
-727.46716
 11
602.02258
 21
-727.46716
  0
LINE
  8
0
  6
CONTINUOUS
 62
     7
 10
597.02258
 20
-727.46716
 11
597.02258
 21
-825.46716
  0
LINE
  8
0
  6
CONTINUOUS
 62
     7
 10
477.8638
 20
-731.21716
 11
592.18134
 21
-731.21716
  0
LINE
  8
0
  6
CONTINUOUS
 62
     7
 10
586.02258
 20
-821.71716
 11
592.18134
 21
-821.71716
  0
LINE
  8
0
  6
CONTINUOUS
 62
     7
 10
597.02258
 20
-825.46716
 11
602.02258
 21
-825.46716
  0
LINE
  8
0
  6
CONTINUOUS
 62
     7
 10
489.52255
 20
-847.96716
 11
580.52258
 21
-847.96716
  0
LINE
  8
0
  6
CONTINUOUS
 62
     7
 10
580.52258
 20
-835.96716
 11
580.52258
 21
-847.96716
  0
LINE
  8
0
  6
CONTINUOUS
 62
     7
 10
578.02258
 20
-829.71716
 11
578.02258
 21
-831.63702
  0
LINE
  8
0
  6
CONTINUOUS
 62
     7
 10
489.52255
 20
-835.96716
 11
580.52258
 21
-835.96716
  0
LINE
  8
0
  6
CONTINUOUS
 62
     7
 10
473.02255
 20
-727.46716
 11
473.02255
 21
-825.46716
  0
LINE
  8
0
  6
CONTINUOUS
 62
     7
 10
484.02255
 20
-821.71716
 11
477.8638
 21
-821.71716
  0
LINE
  8
0
  6
CONTINUOUS
 62
     7
 10
492.02255
 20
-829.71716
 11
492.02255
 21
-831.63702
  0
LINE
  8
0
  6
CONTINUOUS
 62
     7
 10
489.52255
 20
-835.96716
 11
489.52255
 21
-847.96716
  0
LINE
  8
0
  6
CONTINUOUS
 62
     7
 10
631.02258
 20
-724.46716
 11
631.02258
 21
-828.46716
  0
LINE
  8
0
  6
CONTINUOUS
 62
     7
 10
603.02258
 20
-776.46716
 11
630.02258
 21
-776.46716
  0
LINE
  8
0
  6
CONTINUOUS
 62
     7
 10
633.02258
 20
-736.0672
 11
633.02258
 21
-816.86719
  0
LINE
  8
0
  6
CONTINUOUS
 62
     7
 10
602.02258
 20
-724.46716
 11
602.02258
 21
-828.46716
  0
LINE
  8
0
  6
CONTINUOUS
 62
     7
 10
604.02258
 20
-722.46716
 11
629.02258
 21
-722.46716
  0
LINE
  8
0
  6
CONTINUOUS
 62
     7
 10
604.02258
 20
-830.46716
 11
629.02258
 21
-830.46716
  0
LINE
  8
0
  6
CONTINUOUS
 62
     7
 10
602.02252
 20
-724.46722
 11
604.02252
 21
-722.46722
  0
LINE
  8
0
  6
CONTINUOUS
 62
     7
 10
629.02258
 20
-722.46716
 11
631.02258
 21
-724.46716
  0
LINE
  8
0
  6
CONTINUOUS
 62
     7
 10
602.02258
 20
-828.46722
 11
604.02258
 21
-830.46722
  0
LINE
  8
0
  6
CONTINUOUS
 62
     7
 10
629.02258
 20
-830.46722
 11
631.02258
 21
-828.46722
  0
LINE
  8
0
  6
CONTINUOUS
 62
     7
 10
603.02258
 20
-744.32941
 11
630.02258
 21
-744.32941
  0
LINE
  8
0
  6
CONTINUOUS
 62
     7
 10
603.02258
 20
-808.60492
 11
630.02258
 21
-808.60492
  0
LINE
  8
0
  6
CONTINUOUS
 62
     7
 10
633.02258
 20
-736.0672
 11
631.02258
 21
-735.53131
  0
LINE
  8
0
  6
CONTINUOUS
 62
     7
 10
633.02258
 20
-816.86725
 11
631.02258
 21
-817.40314
  0
LINE
  8
0
  6
CONTINUOUS
 62
     7
 10
437.02252
 20
-816.86719
 11
439.02252
 21
-817.40308
  0
LINE
  8
0
  6
CONTINUOUS
 62
     7
 10
473.02255
 20
-727.46716
 11
468.02255
 21
-727.46716
  0
LINE
  8
0
  6
CONTINUOUS
 62
     7
 10
473.02255
 20
-825.46716
 11
468.02255
 21
-825.46716
  0
LINE
  8
0
  6
CONTINUOUS
 62
     7
 10
439.02255
 20
-724.46716
 11
439.02255
 21
-828.46716
  0
LINE
  8
0
  6
CONTINUOUS
 62
     7
 10
467.02255
 20
-776.46716
 11
440.02255
 21
-776.46716
  0
LINE
  8
0
  6
CONTINUOUS
 62
     7
 10
437.02255
 20
-736.0672
 11
437.02255
 21
-816.86719
  0
LINE
  8
0
  6
CONTINUOUS
 62
     7
 10
468.02255
 20
-724.46716
 11
468.02255
 21
-828.46716
  0
LINE
  8
0
  6
CONTINUOUS
 62
     7
 10
466.02255
 20
-722.46716
 11
441.02255
 21
-722.46716
  0
LINE
  8
0
  6
CONTINUOUS
 62
     7
 10
466.02255
 20
-830.46716
 11
441.02255
 21
-830.46716
  0
LINE
  8
0
  6
CONTINUOUS
 62
     7
 10
468.02255
 20
-724.46722
 11
466.02255
 21
-722.46722
  0
LINE
  8
0
  6
CONTINUOUS
 62
     7
 10
441.02258
 20
-722.46716
 11
439.02258
 21
-724.46716
  0
LINE
  8
0
  6
CONTINUOUS
 62
     7
 10
468.02255
 20
-828.46722
 11
466.02255
 21
-830.46722
  0
LINE
  8
0
  6
CONTINUOUS
 62
     7
 10
441.02255
 20
-830.46722
 11
439.02252
 21
-828.46722
  0
LINE
  8
0
  6
CONTINUOUS
 62
     7
 10
467.02255
 20
-744.32941
 11
440.02255
 21
-744.32941
  0
LINE
  8
0
  6
CONTINUOUS
 62
     7
 10
467.02255
 20
-808.60492
 11
440.02255
 21
-808.60492
  0
LINE
  8
0
  6
CONTINUOUS
 62
     7
 10
437.02255
 20
-736.0672
 11
439.02252
 21
-735.53131
  0
LINE
  8
0
  6
CENTER
 62
     7
 10
535.02258
 20
-917.81427
 11
535.02258
 21
-1066.2142
  0
LINE
  8
0
  6
CENTER
 62
     7
 10
421.09756
 20
-975.73926
 11
647.89758
 21
-975.73926
  0
LINE
  8
0
  6
CONTINUOUS
 62
     7
 10
603.52258
 20
-919.73926
 11
603.52258
 21
-1031.7393
  0
LINE
  8
0
  6
CONTINUOUS
 62
     7
 10
603.52258
 20
-919.73926
 11
608.52258
 21
-919.73926
  0
LINE
  8
0
  6
CONTINUOUS
 62
     7
 10
471.3638
 20
-923.48926
 11
598.6814
 21
-923.48926
  0
LINE
  8
0
  6
CONTINUOUS
 62
     7
 10
594.52258
 20
-1027.9893
 11
598.6814
 21
-1027.9893
  0
LINE
  8
0
  6
CONTINUOUS
 62
     7
 10
603.52258
 20
-1031.7393
 11
608.52258
 21
-1031.7393
  0
LINE
  8
0
  6
CONTINUOUS
 62
     7
 10
587.52258
 20
-1043.7393
 11
587.52258
 21
-1056.7393
  0
LINE
  8
0
  6
CONTINUOUS
 62
     7
 10
482.52255
 20
-1056.7393
 11
587.52258
 21
-1056.7393
  0
LINE
  8
0
  6
CONTINUOUS
 62
     7
 10
482.52255
 20
-1043.7393
 11
587.52258
 21
-1043.7393
  0
LINE
  8
0
  6
CONTINUOUS
 62
     7
 10
584.52258
 20
-1037.9893
 11
584.52258
 21
-1039.1567
  0
LINE
  8
0
  6
CONTINUOUS
 62
     7
 10
466.52255
 20
-919.73926
 11
466.52255
 21
-1031.7393
  0
LINE
  8
0
  6
CONTINUOUS
 62
     7
 10
485.52255
 20
-1037.9893
 11
485.52255
 21
-1039.1567
  0
LINE
  8
0
  6
CONTINUOUS
 62
     7
 10
475.52255
 20
-1027.9893
 11
471.3638
 21
-1027.9893
  0
LINE
  8
0
  6
CONTINUOUS
 62
     7
 10
482.52255
 20
-1043.7393
 11
482.52255
 21
-1056.7393
  0
LINE
  8
0
  6
CONTINUOUS
 62
     7
 10
609.52258
 20
-975.73926
 11
636.52258
 21
-975.73926
  0
LINE
  8
0
  6
CONTINUOUS
 62
     7
 10
637.52258
 20
-916.23926
 11
637.52258
 21
-1035.2393
  0
LINE
  8
0
  6
CONTINUOUS
 62
     7
 10
608.52258
 20
-916.23926
 11
608.52258
 21
-1035.2393
  0
LINE
  8
0
  6
CONTINUOUS
 62
     7
 10
610.52258
 20
-1037.2393
 11
635.52258
 21
-1037.2393
  0
LINE
  8
0
  6
CONTINUOUS
 62
     7
 10
610.52258
 20
-914.23926
 11
635.52258
 21
-914.23926
  0
LINE
  8
0
  6
CONTINUOUS
 62
     7
 10
610.52258
 20
-914.23926
 11
608.52258
 21
-916.23926
  0
LINE
  8
0
  6
CONTINUOUS
 62
     7
 10
608.52252
 20
-1035.2393
 11
610.52252
 21
-1037.2393
  0
LINE
  8
0
  6
CONTINUOUS
 62
     7
 10
635.52252
 20
-1037.2393
 11
637.52252
 21
-1035.2393
  0
LINE
  8
0
  6
CONTINUOUS
 62
     7
 10
635.52264
 20
-914.23932
 11
637.52258
 21
-916.23926
  0
LINE
  8
0
  6
CONTINUOUS
 62
     7
 10
639.52258
 20
-928.88928
 11
639.52258
 21
-1022.5893
  0
LINE
  8
0
  6
CONTINUOUS
 62
     7
 10
639.52252
 20
-928.88928
 11
637.52252
 21
-928.35339
  0
LINE
  8
0
  6
CONTINUOUS
 62
     7
 10
639.52258
 20
-1022.5892
 11
637.52258
 21
-1023.1251
  0
LINE
  8
0
  6
CONTINUOUS
 62
     7
 10
609.52258
 20
-937.73022
 11
636.52258
 21
-937.73022
  0
LINE
  8
0
  6
CONTINUOUS
 62
     7
 10
609.52258
 20
-1013.7484
 11
636.52258
 21
-1013.7484
  0
LINE
  8
0
  6
CONTINUOUS
 62
     7
 10
460.52255
 20
-1013.7484
 11
433.52255
 21
-1013.7484
  0
LINE
  8
0
  6
CONTINUOUS
 62
     7
 10
466.52255
 20
-919.73926
 11
461.52255
 21
-919.73926
  0
LINE
  8
0
  6
CONTINUOUS
 62
     7
 10
466.52255
 20
-1031.7393
 11
461.52255
 21
-1031.7393
  0
LINE
  8
0
  6
CONTINUOUS
 62
     7
 10
460.52255
 20
-975.73926
 11
433.52255
 21
-975.73926
  0
LINE
  8
0
  6
CONTINUOUS
 62
     7
 10
432.52255
 20
-916.23926
 11
432.52255
 21
-1035.2393
  0
LINE
  8
0
  6
CONTINUOUS
 62
     7
 10
461.52255
 20
-916.23926
 11
461.52255
 21
-1035.2393
  0
LINE
  8
0
  6
CONTINUOUS
 62
     7
 10
459.52255
 20
-1037.2393
 11
434.52255
 21
-1037.2393
  0
LINE
  8
0
  6
CONTINUOUS
 62
     7
 10
459.52255
 20
-914.23926
 11
434.52255
 21
-914.23926
  0
LINE
  8
0
  6
CONTINUOUS
 62
     7
 10
459.52261
 20
-914.23926
 11
461.52261
 21
-916.23926
  0
LINE
  8
0
  6
CONTINUOUS
 62
     7
 10
461.52258
 20
-1035.2393
 11
459.52258
 21
-1037.2393
  0
LINE
  8
0
  6
CONTINUOUS
 62
     7
 10
434.52261
 20
-1037.2394
 11
432.52258
 21
-1035.2393
  0
LINE
  8
0
  6
CONTINUOUS
 62
     7
 10
434.52258
 20
-914.23926
 11
432.52258
 21
-916.23926
  0
LINE
  8
0
  6
CONTINUOUS
 62
     7
 10
430.52255
 20
-928.88928
 11
430.52255
 21
-1022.5893
  0
LINE
  8
0
  6
CONTINUOUS
 62
     7
 10
430.52258
 20
-928.88928
 11
432.52258
 21
-928.35339
  0
LINE
  8
0
  6
CONTINUOUS
 62
     7
 10
430.52255
 20
-1022.5892
 11
432.52255
 21
-1023.1252
  0
LINE
  8
0
  6
CONTINUOUS
 62
     7
 10
460.52255
 20
-937.73022
 11
433.52255
 21
-937.73022
  0
LINE
  8
0
  6
CONTINUOUS
 62
     7
 10
317
 20
-210
 11
317
 21
210
  0
LINE
  8
0
  6
CONTINUOUS
 62
     7
 10
317
 20
210
 11
911
 21
210
  0
LINE
  8
0
  6
CONTINUOUS
 62
     7
 10
911
 20
210
 11
911
 21
-210
  0
LINE
  8
0
  6
CONTINUOUS
 62
     7
 10
911
 20
-210
 11
317
 21
-210
  0
LINE
  8
0
  6
CONTINUOUS
 62
     7
 10
469.77213
 20
100.33109
 11
428.31155
 21
100.33109
  0
LINE
  8
0
  6
CONTINUOUS
 62
     7
 10
469.77213
 20
69.331093
 11
465.54184
 21
69.331093
  0
LINE
  8
0
  6
CONTINUOUS
 62
     7
 10
462.54184
 20
66.331093
 11
462.54184
 21
55.831093
  0
LINE
  8
0
  6
CONTINUOUS
 62
     7
 10
428.31155
 20
69.331093
 11
432.54184
 21
69.331093
  0
LINE
  8
0
  6
CENTER
 62
     7
 10
500.92932
 20
84.831093
 11
394.87933
 21
84.831093
  0
LINE
  8
0
  6
CENTER
 62
     7
 10
449.04184
 20
101.38386
 11
449.04184
 21
51.954315
  0
LINE
  8
0
  6
CONTINUOUS
 62
     7
 10
435.54184
 20
66.331093
 11
435.54184
 21
55.831093
  0
LINE
  8
0
  6
CONTINUOUS
 62
     7
 10
478.54184
 20
66.831093
 11
474.10223
 21
66.831093
  0
LINE
  8
0
  6
CONTINUOUS
 62
     7
 10
478.54184
 20
102.83109
 11
474.10223
 21
102.83109
  0
LINE
  8
0
  6
CONTINUOUS
 62
     7
 10
474.10223
 20
66.831093
 11
474.10223
 21
102.83109
  0
LINE
  8
0
  6
CONTINUOUS
 62
     7
 10
423.98141
 20
66.831093
 11
423.98141
 21
102.83109
  0
LINE
  8
0
  6
CONTINUOUS
 62
     7
 10
496.04184
 20
103.83109
 11
496.04184
 21
65.831093
  0
LINE
  8
0
  6
CONTINUOUS
 62
     7
 10
480.54184
 20
105.83109
 11
494.04184
 21
105.83109
  0
LINE
  8
0
  6
CONTINUOUS
 62
     7
 10
480.54184
 20
63.831093
 11
494.04184
 21
63.831093
  0
LINE
  8
0
  6
CONTINUOUS
 62
     7
 10
478.54184
 20
103.83109
 11
478.54184
 21
65.831093
  0
LINE
  8
0
  6
CONTINUOUS
 62
     7
 10
479.54184
 20
93.529579
 11
495.04184
 21
93.529579
  0
LINE
  8
0
  6
CONTINUOUS
 62
     7
 10
479.54184
 20
76.132622
 11
495.04184
 21
76.132622
  0
LINE
  8
0
  6
CONTINUOUS
 62
     7
 10
480.54184
 20
105.83109
 11
478.54187
 21
103.8311
  0
LINE
  8
0
  6
CONTINUOUS
 62
     7
 10
494.04187
 20
105.83111
 11
496.04184
 21
103.83112
  0
LINE
  8
0
  6
CONTINUOUS
 62
     7
 10
496.04187
 20
65.831108
 11
494.04187
 21
63.831104
  0
LINE
  8
0
  6
CONTINUOUS
 62
     7
 10
478.54184
 20
65.831085
 11
480.54184
 21
63.831081
  0
LINE
  8
0
  6
CONTINUOUS
 62
     7
 10
498.04184
 20
97.581093
 11
498.04184
 21
72.081093
  0
LINE
  8
0
  6
CONTINUOUS
 62
     7
 10
496.04184
 20
98.116989
 11
498.04184
 21
97.581093
  0
LINE
  8
0
  6
CONTINUOUS
 62
     7
 10
496.04184
 20
71.545204
 11
498.04184
 21
72.081108
  0
LINE
  8
0
  6
CONTINUOUS
 62
     7
 10
402.04181
 20
71.545197
 11
400.04181
 21
72.0811
  0
LINE
  8
0
  6
CONTINUOUS
 62
     7
 10
419.54184
 20
66.831093
 11
423.98141
 21
66.831093
  0
LINE
  8
0
  6
CONTINUOUS
 62
     7
 10
419.54184
 20
102.83109
 11
423.98141
 21
102.83109
  0
LINE
  8
0
  6
CONTINUOUS
 62
     7
 10
402.04181
 20
103.83109
 11
402.04181
 21
65.831093
  0
LINE
  8
0
  6
CONTINUOUS
 62
     7
 10
417.54184
 20
105.83109
 11
404.04181
 21
105.83109
  0
LINE
  8
0
  6
CONTINUOUS
 62
     7
 10
417.54184
 20
63.831093
 11
404.04181
 21
63.831093
  0
LINE
  8
0
  6
CONTINUOUS
 62
     7
 10
419.54184
 20
103.83109
 11
419.54184
 21
65.831093
  0
LINE
  8
0
  6
CONTINUOUS
 62
     7
 10
418.54184
 20
93.529579
 11
403.04181
 21
93.529579
  0
LINE
  8
0
  6
CONTINUOUS
 62
     7
 10
418.54184
 20
76.132622
 11
403.04181
 21
76.132622
  0
LINE
  8
0
  6
CONTINUOUS
 62
     7
 10
417.54184
 20
105.83107
 11
419.54184
 21
103.83106
  0
LINE
  8
0
  6
CONTINUOUS
 62
     7
 10
404.04181
 20
105.8311
 11
402.04181
 21
103.8311
  0
LINE
  8
0
  6
CONTINUOUS
 62
     7
 10
402.04181
 20
65.831093
 11
404.04181
 21
63.831089
  0
LINE
  8
0
  6
CONTINUOUS
 62
     7
 10
419.54181
 20
65.831078
 11
417.54181
 21
63.831074
  0
LINE
  8
0
  6
CONTINUOUS
 62
     7
 10
400.04181
 20
97.581093
 11
400.04181
 21
72.081093
  0
LINE
  8
0
  6
CONTINUOUS
 62
     7
 10
402.04181
 20
98.116997
 11
400.04184
 21
97.581108
  0
LINE
  8
0
  6
CENTER
 62
     7
 10
730.07935
 20
84.831093
 11
612.12933
 21
84.831093
  0
LINE
  8
0
  6
CENTER
 62
     7
 10
671.19183
 20
41.431023
 11
671.19183
 21
107.28385
  0
LINE
  8
0
  6
CONTINUOUS
 62
     7
 10
697.35059
 20
103.08109
 11
645.03308
 21
103.08109
  0
LINE
  8
0
  6
CONTINUOUS
 62
     7
 10
697.35059
 20
66.581093
 11
691.69183
 21
66.581093
  0
LINE
  8
0
  6
CONTINUOUS
 62
     7
 10
687.69183
 20
50.831093
 11
687.69183
 21
62.5811
  0
LINE
  8
0
  6
CONTINUOUS
 62
     7
 10
645.03308
 20
66.581093
 11
650.69183
 21
66.581093
  0
LINE
  8
0
  6
CONTINUOUS
 62
     7
 10
705.69183
 20
63.831093
 11
701.81573
 21
63.831093
  0
LINE
  8
0
  6
CONTINUOUS
 62
     7
 10
705.69183
 20
105.83109
 11
701.81573
 21
105.83109
  0
LINE
  8
0
  6
CONTINUOUS
 62
     7
 10
654.69183
 20
50.831093
 11
654.69183
 21
62.5811
  0
LINE
  8
0
  6
CONTINUOUS
 62
     7
 10
701.81573
 20
63.831093
 11
701.81573
 21
105.83109
  0
LINE
  8
0
  6
CONTINUOUS
 62
     7
 10
724.19183
 20
107.33109
 11
724.19183
 21
62.3311
  0
LINE
  8
0
  6
CONTINUOUS
 62
     7
 10
705.69183
 20
107.33109
 11
705.69183
 21
62.3311
  0
LINE
  8
0
  6
CONTINUOUS
 62
     7
 10
707.69183
 20
109.33109
 11
722.19183
 21
109.33109
  0
LINE
  8
0
  6
CONTINUOUS
 62
     7
 10
707.69183
 20
60.3311
 11
722.19183
 21
60.3311
  0
LINE
  8
0
  6
CONTINUOUS
 62
     7
 10
705.69183
 20
107.33109
 11
707.69177
 21
109.33105
  0
LINE
  8
0
  6
CONTINUOUS
 62
     7
 10
707.69183
 20
60.331081
 11
705.69183
 21
62.331085
  0
LINE
  8
0
  6
CONTINUOUS
 62
     7
 10
722.19177
 20
109.33107
 11
724.19177
 21
107.33107
  0
LINE
  8
0
  6
CONTINUOUS
 62
     7
 10
724.19183
 20
62.331081
 11
722.19183
 21
60.331081
  0
LINE
  8
0
  6
CONTINUOUS
 62
     7
 10
706.69183
 20
94.972206
 11
723.19183
 21
94.972206
  0
LINE
  8
0
  6
CONTINUOUS
 62
     7
 10
706.69183
 20
74.689995
 11
723.19183
 21
74.689995
  0
LINE
  8
0
  6
CONTINUOUS
 62
     7
 10
726.19183
 20
100.33109
 11
726.19183
 21
69.331093
  0
LINE
  8
0
  6
CONTINUOUS
 62
     7
 10
724.19183
 20
100.86703
 11
726.19183
 21
100.33113
  0
LINE
  8
0
  6
CONTINUOUS
 62
     7
 10
724.19183
 20
68.795212
 11
726.19183
 21
69.331116
  0
LINE
  8
0
  6
CONTINUOUS
 62
     7
 10
636.69183
 20
63.831093
 11
640.56793
 21
63.831093
  0
LINE
  8
0
  6
CONTINUOUS
 62
     7
 10
636.69183
 20
105.83109
 11
640.56793
 21
105.83109
  0
LINE
  8
0
  6
CONTINUOUS
 62
     7
 10
640.56793
 20
63.831093
 11
640.56793
 21
105.83109
  0
LINE
  8
0
  6
CONTINUOUS
 62
     7
 10
618.19183
 20
107.33109
 11
618.19183
 21
62.3311
  0
LINE
  8
0
  6
CONTINUOUS
 62
     7
 10
636.69183
 20
107.33109
 11
636.69183
 21
62.3311
  0
LINE
  8
0
  6
CONTINUOUS
 62
     7
 10
634.69183
 20
109.33109
 11
620.19183
 21
109.33109
  0
LINE
  8
0
  6
CONTINUOUS
 62
     7
 10
634.69183
 20
60.3311
 11
620.19183
 21
60.3311
  0
LINE
  8
0
  6
CONTINUOUS
 62
     7
 10
636.69183
 20
107.33115
 11
634.69183
 21
109.33115
  0
LINE
  8
0
  6
CONTINUOUS
 62
     7
 10
634.69183
 20
60.331116
 11
636.69183
 21
62.33112
  0
LINE
  8
0
  6
CONTINUOUS
 62
     7
 10
620.19183
 20
109.33115
 11
618.19183
 21
107.33115
  0
LINE
  8
0
  6
CONTINUOUS
 62
     7
 10
618.19183
 20
62.33112
 11
620.19183
 21
60.331116
  0
LINE
  8
0
  6
CONTINUOUS
 62
     7
 10
635.69183
 20
94.972206
 11
619.19183
 21
94.972206
  0
LINE
  8
0
  6
CONTINUOUS
 62
     7
 10
635.69183
 20
74.689995
 11
619.19183
 21
74.689995
  0
LINE
  8
0
  6
CONTINUOUS
 62
     7
 10
616.19183
 20
100.33109
 11
616.19183
 21
69.331093
  0
LINE
  8
0
  6
CONTINUOUS
 62
     7
 10
618.19183
 20
100.867
 11
616.19183
 21
100.3311
  0
LINE
  8
0
  6
CONTINUOUS
 62
     7
 10
618.19183
 20
68.795197
 11
616.19183
 21
69.3311
  0
LINE
  8
0
  6
CENTER
 62
     7
 10
435.36807
 20
-156.20065
 11
435.36807
 21
-86.729622
  0
LINE
  8
0
  6
CONTINUOUS
 62
     7
 10
466.02682
 20
-90.265892
 11
404.70929
 21
-90.265892
  0
LINE
  8
0
  6
CONTINUOUS
 62
     7
 10
466.02682
 20
-134.76588
 11
460.86807
 21
-134.76588
  0
LINE
  8
0
  6
CONTINUOUS
 62
     7
 10
455.86807
 20
-152.51588
 11
455.86807
 21
-139.76588
  0
LINE
  8
0
  6
CONTINUOUS
 62
     7
 10
404.70929
 20
-134.76588
 11
409.86807
 21
-134.76588
  0
LINE
  8
0
  6
CONTINUOUS
 62
     7
 10
474.36807
 20
-137.51588
 11
470.49197
 21
-137.51588
  0
LINE
  8
0
  6
CONTINUOUS
 62
     7
 10
474.36807
 20
-87.515892
 11
470.49197
 21
-87.515892
  0
LINE
  8
0
  6
CONTINUOUS
 62
     7
 10
414.86807
 20
-152.51588
 11
414.86807
 21
-139.76588
  0
LINE
  8
0
  6
CENTER
 62
     7
 10
498.89307
 20
-112.51589
 11
369.21805
 21
-112.51589
  0
LINE
  8
0
  6
CONTINUOUS
 62
     7
 10
470.49197
 20
-87.515892
 11
470.49197
 21
-137.51588
  0
LINE
  8
0
  6
CONTINUOUS
 62
     7
 10
400.24414
 20
-87.515892
 11
400.24414
 21
-137.51588
  0
LINE
  8
0
  6
CONTINUOUS
 62
     7
 10
492.86807
 20
-85.515892
 11
492.86807
 21
-139.51588
  0
LINE
  8
0
  6
CONTINUOUS
 62
     7
 10
474.36807
 20
-85.515892
 11
474.36807
 21
-139.51588
  0
LINE
  8
0
  6
CONTINUOUS
 62
     7
 10
476.36807
 20
-141.51588
 11
490.86807
 21
-141.51588
  0
LINE
  8
0
  6
CONTINUOUS
 62
     7
 10
476.36807
 20
-83.515892
 11
490.86807
 21
-83.515892
  0
LINE
  8
0
  6
CONTINUOUS
 62
     7
 10
474.36804
 20
-85.515877
 11
476.36804
 21
-83.515877
  0
LINE
  8
0
  6
CONTINUOUS
 62
     7
 10
490.86807
 20
-83.515854
 11
492.86807
 21
-85.515854
  0
LINE
  8
0
  6
CONTINUOUS
 62
     7
 10
474.36807
 20
-139.51588
 11
476.36807
 21
-141.51588
  0
LINE
  8
0
  6
CONTINUOUS
 62
     7
 10
490.86807
 20
-141.51588
 11
492.86807
 21
-139.5159
  0
LINE
  8
0
  6
CONTINUOUS
 62
     7
 10
475.36807
 20
-100.50368
 11
491.86807
 21
-100.50368
  0
LINE
  8
0
  6
CONTINUOUS
 62
     7
 10
475.36807
 20
-124.52808
 11
491.86807
 21
-124.52808
  0
LINE
  8
0
  6
CONTINUOUS
 62
     7
 10
494.86807
 20
-93.615883
 11
494.86807
 21
-131.41588
  0
LINE
  8
0
  6
CONTINUOUS
 62
     7
 10
494.86804
 20
-93.615875
 11
492.86804
 21
-93.079987
  0
LINE
  8
0
  6
CONTINUOUS
 62
     7
 10
494.86804
 20
-131.41588
 11
492.86804
 21
-131.95178
  0
LINE
  8
0
  6
CONTINUOUS
 62
     7
 10
396.36807
 20
-137.51588
 11
400.24414
 21
-137.51588
  0
LINE
  8
0
  6
CONTINUOUS
 62
     7
 10
396.36807
 20
-87.515892
 11
400.24414
 21
-87.515892
  0
LINE
  8
0
  6
CONTINUOUS
 62
     7
 10
375.86804
 20
-131.41588
 11
377.86804
 21
-131.95177
  0
LINE
  8
0
  6
CONTINUOUS
 62
     7
 10
377.86807
 20
-85.515892
 11
377.86807
 21
-139.51588
  0
LINE
  8
0
  6
CONTINUOUS
 62
     7
 10
396.36807
 20
-85.515892
 11
396.36807
 21
-139.51588
  0
LINE
  8
0
  6
CONTINUOUS
 62
     7
 10
394.36807
 20
-141.51588
 11
379.86807
 21
-141.51588
  0
LINE
  8
0
  6
CONTINUOUS
 62
     7
 10
394.36807
 20
-83.515892
 11
379.86807
 21
-83.515892
  0
LINE
  8
0
  6
CONTINUOUS
 62
     7
 10
396.36804
 20
-85.515884
 11
394.36804
 21
-83.515877
  0
LINE
  8
0
  6
CONTINUOUS
 62
     7
 10
379.86807
 20
-83.515869
 11
377.86804
 21
-85.515869
  0
LINE
  8
0
  6
CONTINUOUS
 62
     7
 10
396.36804
 20
-139.51588
 11
394.36804
 21
-141.51588
  0
LINE
  8
0
  6
CONTINUOUS
 62
     7
 10
379.86804
 20
-141.51588
 11
377.86804
 21
-139.51587
  0
LINE
  8
0
  6
CONTINUOUS
 62
     7
 10
395.36807
 20
-100.50368
 11
378.86807
 21
-100.50368
  0
LINE
  8
0
  6
CONTINUOUS
 62
     7
 10
395.36807
 20
-124.52808
 11
378.86807
 21
-124.52808
  0
LINE
  8
0
  6
CONTINUOUS
 62
     7
 10
375.86807
 20
-93.615883
 11
375.86807
 21
-131.41588
  0
LINE
  8
0
  6
CONTINUOUS
 62
     7
 10
375.86804
 20
-93.615883
 11
377.86804
 21
-93.079979
  0
LINE
  8
0
  6
CENTER
 62
     7
 10
693.33319
 20
-81.715996
 11
693.33319
 21
-167.116
  0
LINE
  8
0
  6
CENTER
 62
     7
 10
622.79065
 20
-114.441
 11
765.38068
 21
-114.441
  0
LINE
  8
0
  6
CONTINUOUS
 62
     7
 10
736.33319
 20
-85.441002
 11
739.83319
 21
-85.441002
  0
LINE
  8
0
  6
CONTINUOUS
 62
     7
 10
736.33319
 20
-85.441002
 11
736.33319
 21
-143.44099
  0
LINE
  8
0
  6
CONTINUOUS
 62
     7
 10
654.66327
 20
-87.941002
 11
732.00305
 21
-87.941002
  0
LINE
  8
0
  6
CONTINUOUS
 62
     7
 10
724.33319
 20
-140.94099
 11
732.00305
 21
-140.94099
  0
LINE
  8
0
  6
CONTINUOUS
 62
     7
 10
736.33319
 20
-143.44099
 11
739.83319
 21
-143.44099
  0
LINE
  8
0
  6
CONTINUOUS
 62
     7
 10
718.33319
 20
-146.94099
 11
718.33319
 21
-160.94099
  0
LINE
  8
0
  6
CONTINUOUS
 62
     7
 10
668.33319
 20
-160.94099
 11
718.33319
 21
-160.94099
  0
LINE
  8
0
  6
CONTINUOUS
 62
     7
 10
650.33319
 20
-85.441002
 11
650.33319
 21
-143.44099
  0
LINE
  8
0
  6
CONTINUOUS
 62
     7
 10
662.33319
 20
-140.94099
 11
654.66327
 21
-140.94099
  0
LINE
  8
0
  6
CONTINUOUS
 62
     7
 10
668.33319
 20
-146.94099
 11
668.33319
 21
-160.94099
  0
LINE
  8
0
  6
CONTINUOUS
 62
     7
 10
758.83319
 20
-83.441002
 11
758.83319
 21
-145.44099
  0
LINE
  8
0
  6
CONTINUOUS
 62
     7
 10
739.83319
 20
-83.441002
 11
739.83319
 21
-145.44099
  0
LINE
  8
0
  6
CONTINUOUS
 62
     7
 10
760.83319
 20
-91.090996
 11
760.83319
 21
-137.791
  0
LINE
  8
0
  6
CONTINUOUS
 62
     7
 10
741.83319
 20
-81.441002
 11
756.83319
 21
-81.441002
  0
LINE
  8
0
  6
CONTINUOUS
 62
     7
 10
741.83319
 20
-147.44099
 11
756.83319
 21
-147.44099
  0
LINE
  8
0
  6
CONTINUOUS
 62
     7
 10
739.83313
 20
-83.440987
 11
741.83313
 21
-81.440979
  0
LINE
  8
0
  6
CONTINUOUS
 62
     7
 10
756.83319
 20
-81.441002
 11
758.83319
 21
-83.44101
  0
LINE
  8
0
  6
CONTINUOUS
 62
     7
 10
758.83313
 20
-145.44096
 11
756.83313
 21
-147.44096
  0
LINE
  8
0
  6
CONTINUOUS
 62
     7
 10
739.83313
 20
-145.44095
 11
741.83313
 21
-147.44095
  0
LINE
  8
0
  6
CONTINUOUS
 62
     7
 10
740.83319
 20
-100.77195
 11
757.83319
 21
-100.77195
  0
LINE
  8
0
  6
CONTINUOUS
 62
     7
 10
740.83319
 20
-128.11005
 11
757.83319
 21
-128.11005
  0
LINE
  8
0
  6
CONTINUOUS
 62
     7
 10
760.83319
 20
-91.090996
 11
758.83319
 21
-90.555099
  0
LINE
  8
0
  6
CONTINUOUS
 62
     7
 10
760.83319
 20
-137.791
 11
758.83319
 21
-138.3269
  0
LINE
  8
0
  6
CONTINUOUS
 62
     7
 10
625.83319
 20
-137.791
 11
627.83319
 21
-138.3269
  0
LINE
  8
0
  6
CONTINUOUS
 62
     7
 10
650.33319
 20
-85.441002
 11
646.83319
 21
-85.441002
  0
LINE
  8
0
  6
CONTINUOUS
 62
     7
 10
650.33319
 20
-143.44099
 11
646.83319
 21
-143.44099
  0
LINE
  8
0
  6
CONTINUOUS
 62
     7
 10
627.83319
 20
-83.441002
 11
627.83319
 21
-145.44099
  0
LINE
  8
0
  6
CONTINUOUS
 62
     7
 10
646.83319
 20
-83.441002
 11
646.83319
 21
-145.44099
  0
LINE
  8
0
  6
CONTINUOUS
 62
     7
 10
625.83319
 20
-91.090996
 11
625.83319
 21
-137.791
  0
LINE
  8
0
  6
CONTINUOUS
 62
     7
 10
644.83319
 20
-81.441002
 11
629.83319
 21
-81.441002
  0
LINE
  8
0
  6
CONTINUOUS
 62
     7
 10
644.83319
 20
-147.44099
 11
629.83319
 21
-147.44099
  0
LINE
  8
0
  6
CONTINUOUS
 62
     7
 10
646.83319
 20
-83.440987
 11
644.83319
 21
-81.440987
  0
LINE
  8
0
  6
CONTINUOUS
 62
     7
 10
629.83319
 20
-81.44101
 11
627.83319
 21
-83.44101
  0
LINE
  8
0
  6
CONTINUOUS
 62
     7
 10
627.83319
 20
-145.44104
 11
629.83319
 21
-147.44104
  0
LINE
  8
0
  6
CONTINUOUS
 62
     7
 10
646.83319
 20
-145.44102
 11
644.83319
 21
-147.44102
  0
LINE
  8
0
  6
CONTINUOUS
 62
     7
 10
645.83319
 20
-100.77195
 11
628.83319
 21
-100.77195
  0
LINE
  8
0
  6
CONTINUOUS
 62
     7
 10
645.83319
 20
-128.11005
 11
628.83319
 21
-128.11005
  0
LINE
  8
0
  6
CONTINUOUS
 62
     7
 10
625.83319
 20
-91.090988
 11
627.83313
 21
-90.555107
  0
LINE
  8
0
  6
CENTER
 62
     7
 10
477.6264
 20
-344.71097
 11
634.67145
 21
-344.71097
  0
LINE
  8
0
  6
CENTER
 62
     7
 10
557.16388
 20
-311.46097
 11
557.16388
 21
-402.81097
  0
LINE
  8
0
  6
CONTINUOUS
 62
     7
 10
603.66388
 20
-312.21097
 11
603.66388
 21
-377.21097
  0
LINE
  8
0
  6
CONTINUOUS
 62
     7
 10
603.66388
 20
-312.21097
 11
606.66388
 21
-312.21097
  0
LINE
  8
0
  6
CONTINUOUS
 62
     7
 10
514.99402
 20
-314.71097
 11
599.3338
 21
-314.71097
  0
LINE
  8
0
  6
CONTINUOUS
 62
     7
 10
591.16388
 20
-374.71097
 11
599.3338
 21
-374.71097
  0
LINE
  8
0
  6
CONTINUOUS
 62
     7
 10
603.66388
 20
-377.21097
 11
606.66388
 21
-377.21097
  0
LINE
  8
0
  6
CONTINUOUS
 62
     7
 10
585.16388
 20
-380.71097
 11
585.16388
 21
-395.71097
  0
LINE
  8
0
  6
CONTINUOUS
 62
     7
 10
529.16388
 20
-395.71097
 11
585.16388
 21
-395.71097
  0
LINE
  8
0
  6
CONTINUOUS
 62
     7
 10
510.66391
 20
-312.21097
 11
510.66391
 21
-377.21097
  0
LINE
  8
0
  6
CONTINUOUS
 62
     7
 10
523.16388
 20
-374.71097
 11
514.99402
 21
-374.71097
  0
LINE
  8
0
  6
CONTINUOUS
 62
     7
 10
529.16388
 20
-380.71097
 11
529.16388
 21
-395.71097
  0
LINE
  8
0
  6
CONTINUOUS
 62
     7
 10
628.66394
 20
-310.21097
 11
628.66394
 21
-379.21097
  0
LINE
  8
0
  6
CONTINUOUS
 62
     7
 10
607.66388
 20
-344.71097
 11
627.66394
 21
-344.71097
  0
LINE
  8
0
  6
CONTINUOUS
 62
     7
 10
606.66388
 20
-310.21097
 11
606.66388
 21
-379.21097
  0
LINE
  8
0
  6
CONTINUOUS
 62
     7
 10
608.66388
 20
-308.21097
 11
626.66394
 21
-308.21097
  0
LINE
  8
0
  6
CONTINUOUS
 62
     7
 10
608.66388
 20
-381.21097
 11
626.66394
 21
-381.21097
  0
LINE
  8
0
  6
CONTINUOUS
 62
     7
 10
630.66394
 20
-318.26099
 11
630.66394
 21
-371.16098
  0
LINE
  8
0
  6
CONTINUOUS
 62
     7
 10
607.66388
 20
-322.15274
 11
627.66394
 21
-322.15274
  0
LINE
  8
0
  6
CONTINUOUS
 62
     7
 10
607.66388
 20
-367.26923
 11
627.66394
 21
-367.26923
  0
LINE
  8
0
  6
CONTINUOUS
 62
     7
 10
606.66388
 20
-310.21097
 11
608.66394
 21
-308.21097
  0
LINE
  8
0
  6
CONTINUOUS
 62
     7
 10
626.66388
 20
-308.21094
 11
628.66388
 21
-310.21094
  0
LINE
  8
0
  6
CONTINUOUS
 62
     7
 10
606.66388
 20
-379.21094
 11
608.66388
 21
-381.21094
  0
LINE
  8
0
  6
CONTINUOUS
 62
     7
 10
628.66394
 20
-379.21097
 11
626.66394
 21
-381.21097
  0
LINE
  8
0
  6
CONTINUOUS
 62
     7
 10
630.66394
 20
-318.26099
 11
628.66394
 21
-317.72507
  0
LINE
  8
0
  6
CONTINUOUS
 62
     7
 10
630.66388
 20
-371.16098
 11
628.66388
 21
-371.6969
  0
LINE
  8
0
  6
CONTINUOUS
 62
     7
 10
483.66391
 20
-371.16098
 11
485.66394
 21
-371.6969
  0
LINE
  8
0
  6
CONTINUOUS
 62
     7
 10
510.66391
 20
-312.21097
 11
507.66391
 21
-312.21097
  0
LINE
  8
0
  6
CONTINUOUS
 62
     7
 10
510.66391
 20
-377.21097
 11
507.66391
 21
-377.21097
  0
LINE
  8
0
  6
CONTINUOUS
 62
     7
 10
485.66391
 20
-310.21097
 11
485.66391
 21
-379.21097
  0
LINE
  8
0
  6
CONTINUOUS
 62
     7
 10
506.66391
 20
-344.71097
 11
486.66391
 21
-344.71097
  0
LINE
  8
0
  6
CONTINUOUS
 62
     7
 10
507.66391
 20
-310.21097
 11
507.66391
 21
-379.21097
  0
LINE
  8
0
  6
CONTINUOUS
 62
     7
 10
505.66391
 20
-308.21097
 11
487.66391
 21
-308.21097
  0
LINE
  8
0
  6
CONTINUOUS
 62
     7
 10
505.66391
 20
-381.21097
 11
487.66391
 21
-381.21097
  0
LINE
  8
0
  6
CONTINUOUS
 62
     7
 10
483.66391
 20
-318.26099
 11
483.66391
 21
-371.16098
  0
LINE
  8
0
  6
CONTINUOUS
 62
     7
 10
506.66391
 20
-322.15274
 11
486.66391
 21
-322.15274
  0
LINE
  8
0
  6
CONTINUOUS
 62
     7
 10
506.66391
 20
-367.26923
 11
486.66391
 21
-367.26923
  0
LINE
  8
0
  6
CONTINUOUS
 62
     7
 10
507.66397
 20
-310.21103
 11
505.66397
 21
-308.21103
  0
LINE
  8
0
  6
CONTINUOUS
 62
     7
 10
487.66394
 20
-308.211
 11
485.66394
 21
-310.211
  0
LINE
  8
0
  6
CONTINUOUS
 62
     7
 10
507.66397
 20
-379.211
 11
505.66397
 21
-381.211
  0
LINE
  8
0
  6
CONTINUOUS
 62
     7
 10
485.66394
 20
-379.21103
 11
487.66397
 21
-381.21103
  0
LINE
  8
0
  6
CONTINUOUS
 62
     7
 10
483.66394
 20
-318.26096
 11
485.66391
 21
-317.72507
  0
LINE
  8
0
  6
CENTER
 62
     7
 10
566.02045
 20
-492.07651
 11
566.02045
 21
-603.72656
  0
LINE
  8
0
  6
CENTER
 62
     7
 10
474.67044
 20
-535.12653
 11
657.72046
 21
-535.12653
  0
LINE
  8
0
  6
CONTINUOUS
 62
     7
 10
620.52045
 20
-496.12653
 11
620.52045
 21
-574.12653
  0
LINE
  8
0
  6
CONTINUOUS
 62
     7
 10
620.52045
 20
-496.12653
 11
623.02045
 21
-496.12653
  0
LINE
  8
0
  6
CONTINUOUS
 62
     7
 10
515.85059
 20
-498.62653
 11
616.19031
 21
-498.62653
  0
LINE
  8
0
  6
CONTINUOUS
 62
     7
 10
607.02045
 20
-571.62653
 11
616.19031
 21
-571.62653
  0
LINE
  8
0
  6
CONTINUOUS
 62
     7
 10
620.52045
 20
-574.12653
 11
623.02045
 21
-574.12653
  0
LINE
  8
0
  6
CONTINUOUS
 62
     7
 10
531.02045
 20
-594.12653
 11
601.02045
 21
-594.12653
  0
LINE
  8
0
  6
CONTINUOUS
 62
     7
 10
601.02045
 20
-577.62653
 11
601.02045
 21
-594.12653
  0
LINE
  8
0
  6
CONTINUOUS
 62
     7
 10
511.52045
 20
-496.12653
 11
511.52045
 21
-574.12653
  0
LINE
  8
0
  6
CONTINUOUS
 62
     7
 10
531.02045
 20
-577.62653
 11
531.02045
 21
-594.12653
  0
LINE
  8
0
  6
CONTINUOUS
 62
     7
 10
525.02045
 20
-571.62653
 11
515.85059
 21
-571.62653
  0
LINE
  8
0
  6
CONTINUOUS
 62
     7
 10
646.52045
 20
-493.62653
 11
646.52045
 21
-576.62653
  0
LINE
  8
0
  6
CONTINUOUS
 62
     7
 10
624.02045
 20
-535.12653
 11
645.52045
 21
-535.12653
  0
LINE
  8
0
  6
CONTINUOUS
 62
     7
 10
625.02045
 20
-491.62653
 11
644.52045
 21
-491.62653
  0
LINE
  8
0
  6
CONTINUOUS
 62
     7
 10
625.02045
 20
-578.62653
 11
644.52045
 21
-578.62653
  0
LINE
  8
0
  6
CONTINUOUS
 62
     7
 10
623.02045
 20
-493.62656
 11
625.02045
 21
-491.62656
  0
LINE
  8
0
  6
CONTINUOUS
 62
     7
 10
644.52051
 20
-491.62656
 11
646.52051
 21
-493.62656
  0
LINE
  8
0
  6
CONTINUOUS
 62
     7
 10
623.02051
 20
-576.62659
 11
625.02051
 21
-578.62659
  0
LINE
  8
0
  6
CONTINUOUS
 62
     7
 10
644.52051
 20
-578.62659
 11
646.52051
 21
-576.62659
  0
LINE
  8
0
  6
CONTINUOUS
 62
     7
 10
648.52045
 20
-502.67651
 11
648.52045
 21
-567.57654
  0
LINE
  8
0
  6
CONTINUOUS
 62
     7
 10
645.52045
 20
-508.24203
 11
624.02045
 21
-508.24203
  0
LINE
  8
0
  6
CONTINUOUS
 62
     7
 10
645.52045
 20
-562.01099
 11
624.02045
 21
-562.01099
  0
LINE
  8
0
  6
CONTINUOUS
 62
     7
 10
648.52045
 20
-502.67654
 11
646.52045
 21
-502.14066
  0
LINE
  8
0
  6
CONTINUOUS
 62
     7
 10
648.52045
 20
-567.57648
 11
646.52045
 21
-568.11243
  0
LINE
  8
0
  6
CONTINUOUS
 62
     7
 10
483.52042
 20
-567.57654
 11
485.52042
 21
-568.11243
  0
LINE
  8
0
  6
CONTINUOUS
 62
     7
 10
511.52045
 20
-496.12653
 11
509.02045
 21
-496.12653
  0
LINE
  8
0
  6
CONTINUOUS
 62
     7
 10
511.52045
 20
-574.12653
 11
509.02045
 21
-574.12653
  0
LINE
  8
0
  6
CONTINUOUS
 62
     7
 10
485.52045
 20
-493.62653
 11
485.52045
 21
-576.62653
  0
LINE
  8
0
  6
CONTINUOUS
 62
     7
 10
508.02045
 20
-535.12653
 11
486.52045
 21
-535.12653
  0
LINE
  8
0
  6
CONTINUOUS
 62
     7
 10
509.02045
 20
-493.62653
 11
509.02045
 21
-576.62653
  0
LINE
  8
0
  6
CONTINUOUS
 62
     7
 10
507.02045
 20
-491.62653
 11
487.52045
 21
-491.62653
  0
LINE
  8
0
  6
CONTINUOUS
 62
     7
 10
507.02045
 20
-578.62653
 11
487.52045
 21
-578.62653
  0
LINE
  8
0
  6
CONTINUOUS
 62
     7
 10
509.02042
 20
-493.62653
 11
507.02042
 21
-491.62653
  0
LINE
  8
0
  6
CONTINUOUS
 62
     7
 10
487.52045
 20
-491.62653
 11
485.52045
 21
-493.62653
  0
LINE
  8
0
  6
CONTINUOUS
 62
     7
 10
509.02045
 20
-576.62653
 11
507.02045
 21
-578.62653
  0
LINE
  8
0
  6
CONTINUOUS
 62
     7
 10
487.52042
 20
-578.62646
 11
485.52042
 21
-576.62646
  0
LINE
  8
0
  6
CONTINUOUS
 62
     7
 10
483.52045
 20
-502.67651
 11
483.52045
 21
-567.57654
  0
LINE
  8
0
  6
CONTINUOUS
 62
     7
 10
486.52045
 20
-508.24203
 11
508.02045
 21
-508.24203
  0
LINE
  8
0
  6
CONTINUOUS
 62
     7
 10
486.52045
 20
-562.01099
 11
508.02045
 21
-562.01099
  0
LINE
  8
0
  6
CONTINUOUS
 62
     7
 10
483.52045
 20
-502.67648
 11
485.52045
 21
-502.14059
  0
LINE
  8
0
  6
CONTINUOUS
 62
     7
 10
462.54184
 20
55.831093
 11
435.54184
 21
55.831093
  0
LINE
  8
0
  6
CONTINUOUS
 62
     7
 10
687.69183
 20
50.831093
 11
654.69183
 21
50.831093
  0
LINE
  8
0
  6
CONTINUOUS
 62
     7
 10
455.86807
 20
-152.51588
 11
414.86807
 21
-152.51588
  0
LINE
  8
0
  6
CONTINUOUS
 62
     7
 10
317
 20
-650
 11
317
 21
-230
  0
LINE
  8
0
  6
CONTINUOUS
 62
     7
 10
911
 20
-650
 11
317
 21
-650
  0
LINE
  8
0
  6
CONTINUOUS
 62
     7
 10
317
 20
-230
 11
911
 21
-230
  0
LINE
  8
0
  6
CONTINUOUS
 62
     7
 10
911
 20
-230
 11
911
 21
-650
  0
LINE
  8
0
  6
CONTINUOUS
 62
     7
 10
799.68756
 20
-975.73926
 11
787.33771
 21
-937.73016
  0
LINE
  8
0
  6
CONTINUOUS
 62
     7
 10
787.33765
 20
-937.73029
 11
755.00513
 21
-914.23932
  0
LINE
  8
0
  6
CONTINUOUS
 62
     7
 10
715.04004
 20
-914.23926
 11
755.00519
 21
-914.23926
  0
LINE
  8
0
  6
CONTINUOUS
 62
     7
 10
682.70752
 20
-937.73016
 11
715.04004
 21
-914.2392
  0
LINE
  8
0
  6
CONTINUOUS
 62
     7
 10
670.35767
 20
-975.73932
 11
682.70758
 21
-937.73016
  0
LINE
  8
0
  6
CONTINUOUS
 62
     7
 10
682.70758
 20
-1013.7484
 11
670.35767
 21
-975.73932
  0
LINE
  8
0
  6
CONTINUOUS
 62
     7
 10
715.0401
 20
-1037.2394
 11
682.70758
 21
-1013.7484
  0
LINE
  8
0
  6
CONTINUOUS
 62
     7
 10
755.00519
 20
-1037.2393
 11
715.04004
 21
-1037.2393
  0
LINE
  8
0
  6
CONTINUOUS
 62
     7
 10
787.33759
 20
-1013.7483
 11
755.00513
 21
-1037.2393
  0
LINE
  8
0
  6
CONTINUOUS
 62
     7
 10
799.6875
 20
-975.73926
 11
787.33759
 21
-1013.7484
  0
LINE
  8
0
  6
CONTINUOUS
 62
     7
 10
570.04181
 20
93.529587
 11
557.74036
 21
105.83109
  0
LINE
  8
0
  6
CONTINUOUS
 62
     7
 10
557.7403
 20
105.83109
 11
540.34332
 21
105.83109
  0
LINE
  8
0
  6
CONTINUOUS
 62
     7
 10
528.04181
 20
93.529587
 11
540.34332
 21
105.83109
  0
LINE
  8
0
  6
CONTINUOUS
 62
     7
 10
528.04181
 20
76.132607
 11
528.04181
 21
93.529564
  0
LINE
  8
0
  6
CONTINUOUS
 62
     7
 10
540.34332
 20
63.831104
 11
528.04187
 21
76.132599
  0
LINE
  8
0
  6
CONTINUOUS
 62
     7
 10
557.7403
 20
63.831093
 11
540.34332
 21
63.831093
  0
LINE
  8
0
  6
CONTINUOUS
 62
     7
 10
570.04181
 20
76.132576
 11
557.74036
 21
63.831081
  0
LINE
  8
0
  6
CONTINUOUS
 62
     7
 10
570.04181
 20
93.529564
 11
570.04181
 21
76.132607
  0
LINE
  8
0
  6
CONTINUOUS
 62
     7
 10
815.67462
 20
94.972198
 11
801.33295
 21
109.3139
  0
LINE
  8
0
  6
CONTINUOUS
 62
     7
 10
801.33295
 20
109.3139
 11
781.05072
 21
109.3139
  0
LINE
  8
0
  6
CONTINUOUS
 62
     7
 10
766.70905
 20
94.972221
 11
781.05072
 21
109.31392
  0
LINE
  8
0
  6
CONTINUOUS
 62
     7
 10
766.70905
 20
74.68998
 11
766.70905
 21
94.972191
  0
LINE
  8
0
  6
CONTINUOUS
 62
     7
 10
781.05072
 20
60.348267
 11
766.70898
 21
74.689964
  0
LINE
  8
0
  6
CONTINUOUS
 62
     7
 10
801.33295
 20
60.348274
 11
781.05072
 21
60.348274
  0
LINE
  8
0
  6
CONTINUOUS
 62
     7
 10
815.67462
 20
74.69001
 11
801.33295
 21
60.348309
  0
LINE
  8
0
  6
CONTINUOUS
 62
     7
 10
815.67462
 20
94.972191
 11
815.67462
 21
74.68998
  0
LINE
  8
0
  6
CONTINUOUS
 62
     7
 10
584.36804
 20
-100.5037
 11
567.38025
 21
-83.515877
  0
LINE
  8
0
  6
CONTINUOUS
 62
     7
 10
567.38025
 20
-83.515892
 11
543.35583
 21
-83.515892
  0
LINE
  8
0
  6
CONTINUOUS
 62
     7
 10
526.36804
 20
-100.5037
 11
543.35583
 21
-83.5159
  0
LINE
  8
0
  6
CONTINUOUS
 62
     7
 10
526.36804
 20
-124.52809
 11
526.36804
 21
-100.5037
  0
LINE
  8
0
  6
CONTINUOUS
 62
     7
 10
543.35583
 20
-141.5159
 11
526.36804
 21
-124.52807
  0
LINE
  8
0
  6
CONTINUOUS
 62
     7
 10
567.38025
 20
-141.5159
 11
543.35583
 21
-141.5159
  0
LINE
  8
0
  6
CONTINUOUS
 62
     7
 10
584.36804
 20
-124.52811
 11
567.38025
 21
-141.51591
  0
LINE
  8
0
  6
CONTINUOUS
 62
     7
 10
584.36804
 20
-100.5037
 11
584.36804
 21
-124.52809
  0
LINE
  8
0
  6
CONTINUOUS
 62
     7
 10
866.33319
 20
-100.77191
 11
847.00226
 21
-81.440971
  0
LINE
  8
0
  6
CONTINUOUS
 62
     7
 10
847.0022
 20
-81.441002
 11
819.66412
 21
-81.441002
  0
LINE
  8
0
  6
CONTINUOUS
 62
     7
 10
800.33319
 20
-100.77195
 11
819.66412
 21
-81.441017
  0
LINE
  8
0
  6
CONTINUOUS
 62
     7
 10
800.33319
 20
-128.11005
 11
800.33319
 21
-100.77196
  0
LINE
  8
0
  6
CONTINUOUS
 62
     7
 10
819.66412
 20
-147.44098
 11
800.33319
 21
-128.11005
  0
LINE
  8
0
  6
CONTINUOUS
 62
     7
 10
847.0022
 20
-147.44101
 11
819.66412
 21
-147.44101
  0
LINE
  8
0
  6
CONTINUOUS
 62
     7
 10
866.33319
 20
-128.11006
 11
847.00226
 21
-147.44099
  0
LINE
  8
0
  6
CONTINUOUS
 62
     7
 10
866.33319
 20
-100.77196
 11
866.33319
 21
-128.11005
  0
LINE
  8
0
  6
CONTINUOUS
 62
     7
 10
735.5423
 20
-344.711
 11
728.21271
 21
-322.15271
  0
LINE
  8
0
  6
CONTINUOUS
 62
     7
 10
728.21265
 20
-322.15274
 11
709.0235
 21
-308.211
  0
LINE
  8
0
  6
CONTINUOUS
 62
     7
 10
685.30432
 20
-308.21097
 11
709.0235
 21
-308.21097
  0
LINE
  8
0
  6
CONTINUOUS
 62
     7
 10
666.11517
 20
-322.15274
 11
685.30438
 21
-308.211
  0
LINE
  8
0
  6
CONTINUOUS
 62
     7
 10
658.78558
 20
-344.71097
 11
666.11517
 21
-322.15274
  0
LINE
  8
0
  6
CONTINUOUS
 62
     7
 10
666.11517
 20
-367.26923
 11
658.78558
 21
-344.71094
  0
LINE
  8
0
  6
CONTINUOUS
 62
     7
 10
685.30432
 20
-381.21097
 11
666.11517
 21
-367.26923
  0
LINE
  8
0
  6
CONTINUOUS
 62
     7
 10
709.0235
 20
-381.21097
 11
685.30432
 21
-381.21097
  0
LINE
  8
0
  6
CONTINUOUS
 62
     7
 10
728.21265
 20
-367.2692
 11
709.02344
 21
-381.21094
  0
LINE
  8
0
  6
CONTINUOUS
 62
     7
 10
735.5423
 20
-344.71097
 11
728.21271
 21
-367.26923
  0
LINE
  8
0
  6
CONTINUOUS
 62
     7
 10
771.75903
 20
-535.12653
 11
763.02374
 21
-508.24207
  0
LINE
  8
0
  6
CONTINUOUS
 62
     7
 10
763.02374
 20
-508.24207
 11
740.15448
 21
-491.62653
  0
LINE
  8
0
  6
CONTINUOUS
 62
     7
 10
711.88647
 20
-491.62653
 11
740.15448
 21
-491.62653
  0
LINE
  8
0
  6
CONTINUOUS
 62
     7
 10
689.01715
 20
-508.24207
 11
711.88647
 21
-491.62656
  0
LINE
  8
0
  6
CONTINUOUS
 62
     7
 10
680.28186
 20
-535.12653
 11
689.01715
 21
-508.24203
  0
LINE
  8
0
  6
CONTINUOUS
 62
     7
 10
689.01709
 20
-562.01105
 11
680.2818
 21
-535.12653
  0
LINE
  8
0
  6
CONTINUOUS
 62
     7
 10
711.88647
 20
-578.62653
 11
689.01715
 21
-562.01105
  0
LINE
  8
0
  6
CONTINUOUS
 62
     7
 10
740.15448
 20
-578.62653
 11
711.88647
 21
-578.62653
  0
LINE
  8
0
  6
CONTINUOUS
 62
     7
 10
763.02374
 20
-562.01099
 11
740.15442
 21
-578.62653
  0
LINE
  8
0
  6
CONTINUOUS
 62
     7
 10
771.75903
 20
-535.12653
 11
763.02374
 21
-562.01099
  0
LINE
  8
0
  6
CENTER
 62
     7
 10
549.04181
 20
111.03109
 11
549.04181
 21
58.631096
  0
LINE
  8
0
  6
CENTER
 62
     7
 10
522.84186
 20
84.831093
 11
575.24182
 21
84.831093
  0
LINE
  8
0
  6
CENTER
 62
     7
 10
791.19183
 20
115.33109
 11
791.19183
 21
54.331093
  0
LINE
  8
0
  6
CENTER
 62
     7
 10
760.69183
 20
84.831093
 11
821.69183
 21
84.831093
  0
LINE
  8
0
  6
CENTER
 62
     7
 10
833.33319
 20
-75.555099
 11
833.33319
 21
-153.3269
  0
LINE
  8
0
  6
CENTER
 62
     7
 10
794.44727
 20
-114.441
 11
872.21906
 21
-114.441
  0
LINE
  8
0
  6
CENTER
 62
     7
 10
555.36804
 20
-80.165894
 11
555.36804
 21
-144.86589
  0
LINE
  8
0
  6
CENTER
 62
     7
 10
523.01807
 20
-112.51589
 11
587.71808
 21
-112.51589
  0
LINE
  8
0
  6
CENTER
 62
     7
 10
697.16394
 20
-305.01099
 11
697.16394
 21
-384.41098
  0
LINE
  8
0
  6
CENTER
 62
     7
 10
657.46393
 20
-344.71097
 11
736.86389
 21
-344.71097
  0
LINE
  8
0
  6
CENTER
 62
     7
 10
726.02045
 20
-487.14063
 11
726.02045
 21
-583.11243
  0
LINE
  8
0
  6
CENTER
 62
     7
 10
678.03455
 20
-535.12653
 11
774.00635
 21
-535.12653
  0
LINE
  8
0
  6
CENTER
 62
     7
 10
735.02258
 20
-720.53131
 11
735.02258
 21
-832.40308
  0
LINE
  8
0
  6
CENTER
 62
     7
 10
679.08667
 20
-776.46716
 11
790.9585
 21
-776.46716
  0
LINE
  8
0
  6
CENTER
 62
     7
 10
735.02258
 20
-910.63928
 11
735.02258
 21
-1040.8392
  0
LINE
  8
0
  6
CENTER
 62
     7
 10
669.92261
 20
-975.73926
 11
800.12256
 21
-975.73926
  0
LINE
  8
0
  6
CONTINUOUS
 62
     7
 10
791.80151
 20
-776.46722
 11
780.9577
 21
-743.09338
  0
LINE
  8
0
  6
CONTINUOUS
 62
     7
 10
780.95776
 20
-743.09338
 11
752.5683
 21
-722.46722
  0
LINE
  8
0
  6
CONTINUOUS
 62
     7
 10
717.47693
 20
-722.46716
 11
752.56824
 21
-722.46716
  0
LINE
  8
0
  6
CONTINUOUS
 62
     7
 10
689.0874
 20
-743.09338
 11
717.47687
 21
-722.46716
  0
LINE
  8
0
  6
CONTINUOUS
 62
     7
 10
678.24359
 20
-776.46722
 11
689.0874
 21
-743.09338
  0
LINE
  8
0
  6
CONTINUOUS
 62
     7
 10
689.08746
 20
-809.84106
 11
678.24365
 21
-776.46722
  0
LINE
  8
0
  6
CONTINUOUS
 62
     7
 10
717.47693
 20
-830.46722
 11
689.08746
 21
-809.84106
  0
LINE
  8
0
  6
CONTINUOUS
 62
     7
 10
752.56824
 20
-830.46716
 11
717.47693
 21
-830.46716
  0
LINE
  8
0
  6
CONTINUOUS
 62
     7
 10
780.9577
 20
-809.841
 11
752.56818
 21
-830.46722
  0
LINE
  8
0
  6
CONTINUOUS
 62
     7
 10
791.80151
 20
-776.46722
 11
780.9577
 21
-809.84106
  0
LINE
  8
0
  6
CONTINUOUS
 62
     7
 10
623.02045
 20
-493.62653
 11
623.02045
 21
-576.62653
  0
ARC
  8
0
  6
CONTINUOUS
 62
     7
 10
-24.195997
 20
-732.85962
 40
5
 50
270
 51
304.62804
  0
ARC
  8
0
  6
CONTINUOUS
 62
     7
 10
-24.195997
 20
-833.35962
 40
5
 50
55.371965
 51
90.000003
  0
ARC
  8
0
  6
CONTINUOUS
 62
     7
 10
-33.354752
 20
-838.27948
 40
5
 50
179.99999
 51
240.00001
  0
ARC
  8
0
  6
CONTINUOUS
 62
     7
 10
-30.35475
 20
-836.35962
 40
8
 50
90.000003
 51
180.00001
  0
ARC
  8
0
  6
CONTINUOUS
 62
     7
 10
-132.35475
 20
-836.35962
 40
8
 50
0
 51
90.000003
  0
ARC
  8
0
  6
CONTINUOUS
 62
     7
 10
-138.5135
 20
-833.35962
 40
5
 50
90.000003
 51
124.62803
  0
ARC
  8
0
  6
CONTINUOUS
 62
     7
 10
-129.35475
 20
-838.27948
 40
5
 50
300
 51
0
  0
ARC
  8
0
  6
CONTINUOUS
 62
     7
 10
-138.5135
 20
-732.85962
 40
5
 50
235.37197
 51
270
  0
ARC
  8
0
  6
CONTINUOUS
 62
     7
 10
-13.302853
 20
-920.61963
 40
5
 50
270
 51
304.62798
  0
ARC
  8
0
  6
CONTINUOUS
 62
     7
 10
-13.302853
 20
-1035.1196
 40
5
 50
55.372016
 51
90.000003
  0
ARC
  8
0
  6
CONTINUOUS
 62
     7
 10
-22.461666
 20
-1041.2871
 40
5
 50
180.00001
 51
246.42183
  0
ARC
  8
0
  6
CONTINUOUS
 62
     7
 10
-17.461666
 20
-1040.1196
 40
10
 50
90.000003
 51
180.00001
  0
ARC
  8
0
  6
CONTINUOUS
 62
     7
 10
-140.62042
 20
-1035.1196
 40
5
 50
90.000003
 51
124.62803
  0
ARC
  8
0
  6
CONTINUOUS
 62
     7
 10
-140.62042
 20
-920.61963
 40
5
 50
235.37197
 51
270
  0
ARC
  8
0
  6
CONTINUOUS
 62
     7
 10
-131.46167
 20
-1041.2871
 40
5
 50
293.57818
 51
0
  0
ARC
  8
0
  6
CONTINUOUS
 62
     7
 10
-136.46167
 20
-1040.1196
 40
10
 50
0
 51
90.000003
  0
ARC
  8
0
  6
CONTINUOUS
 62
     7
 10
-171.34471
 20
69.649994
 40
5
 50
31.356855
 51
90.000003
  0
ARC
  8
0
  6
CONTINUOUS
 62
     7
 10
-175.575
 20
71.649994
 40
3
 50
89.999989
 51
180.00001
  0
ARC
  8
0
  6
CONTINUOUS
 62
     7
 10
-208.575
 20
71.649994
 40
3
 50
2.5044777E-006
 51
90.000003
  0
ARC
  8
0
  6
CONTINUOUS
 62
     7
 10
-171.34471
 20
110.64999
 40
5
 50
270
 51
328.64314
  0
ARC
  8
0
  6
CONTINUOUS
 62
     7
 10
-212.80528
 20
69.649994
 40
5
 50
89.999989
 51
148.64314
  0
ARC
  8
0
  6
CONTINUOUS
 62
     7
 10
-212.80528
 20
110.64999
 40
5
 50
211.35686
 51
270
  0
ARC
  8
0
  6
CONTINUOUS
 62
     7
 10
97.226227
 20
54.205845
 40
5
 50
39.803317
 51
90.000003
  0
ARC
  8
0
  6
CONTINUOUS
 62
     7
 10
91.567459
 20
55.205845
 40
4
 50
89.999989
 51
180.00001
  0
ARC
  8
0
  6
CONTINUOUS
 62
     7
 10
50.567463
 20
55.205845
 40
4
 50
2.5044777E-006
 51
90.000003
  0
ARC
  8
0
  6
CONTINUOUS
 62
     7
 10
97.226227
 20
100.70584
 40
5
 50
270
 51
320.19668
  0
ARC
  8
0
  6
CONTINUOUS
 62
     7
 10
44.908695
 20
100.70584
 40
5
 50
219.80332
 51
270
  0
ARC
  8
0
  6
CONTINUOUS
 62
     7
 10
44.908695
 20
54.205845
 40
5
 50
89.999996
 51
140.19668
  0
ARC
  8
0
  6
CONTINUOUS
 62
     7
 10
-175.94107
 20
-150.06644
 40
5
 50
39.803248
 51
90.000003
  0
ARC
  8
0
  6
CONTINUOUS
 62
     7
 10
-181.09984
 20
-150.06644
 40
5
 50
89.999989
 51
180.00001
  0
ARC
  8
0
  6
CONTINUOUS
 62
     7
 10
-232.09984
 20
-150.06644
 40
5
 50
2.5044775E-006
 51
90.000003
  0
ARC
  8
0
  6
CONTINUOUS
 62
     7
 10
-175.94107
 20
-95.566437
 40
5
 50
270
 51
320.19675
  0
ARC
  8
0
  6
CONTINUOUS
 62
     7
 10
-237.25861
 20
-95.566437
 40
5
 50
219.80332
 51
270
  0
ARC
  8
0
  6
CONTINUOUS
 62
     7
 10
-237.25861
 20
-150.06644
 40
5
 50
89.999989
 51
140.19668
  0
ARC
  8
0
  6
CONTINUOUS
 62
     7
 10
117.75256
 20
-100.15198
 40
5
 50
270
 51
311.76099
  0
ARC
  8
0
  6
CONTINUOUS
 62
     7
 10
117.75256
 20
-163.15198
 40
5
 50
48.239007
 51
90.000003
  0
ARC
  8
0
  6
CONTINUOUS
 62
     7
 10
110.08268
 20
-164.15198
 40
6
 50
90.000003
 51
180.00001
  0
ARC
  8
0
  6
CONTINUOUS
 62
     7
 10
48.082684
 20
-164.15198
 40
6
 50
0
 51
90.000003
  0
ARC
  8
0
  6
CONTINUOUS
 62
     7
 10
40.412807
 20
-100.15198
 40
5
 50
228.23901
 51
270
  0
ARC
  8
0
  6
CONTINUOUS
 62
     7
 10
40.412807
 20
-163.15198
 40
5
 50
90.000003
 51
131.76099
  0
ARC
  8
0
  6
CONTINUOUS
 62
     7
 10
-3.8483188
 20
-335.19641
 40
5
 50
270
 51
297.77657
  0
ARC
  8
0
  6
CONTINUOUS
 62
     7
 10
-3.8483188
 20
-405.19641
 40
5
 50
62.223433
 51
90.000003
  0
ARC
  8
0
  6
CONTINUOUS
 62
     7
 10
-12.01821
 20
-406.19641
 40
6
 50
90.000003
 51
180.00001
  0
ARC
  8
0
  6
CONTINUOUS
 62
     7
 10
-88.188072
 20
-335.19641
 40
5
 50
242.22324
 51
270
  0
ARC
  8
0
  6
CONTINUOUS
 62
     7
 10
-88.188072
 20
-405.19641
 40
5
 50
90.000003
 51
117.77676
  0
ARC
  8
0
  6
CONTINUOUS
 62
     7
 10
-80.018211
 20
-406.19641
 40
6
 50
0
 51
90.000003
  0
ARC
  8
0
  6
CONTINUOUS
 62
     7
 10
-15.922172
 20
-493.62653
 40
5
 50
270
 51
285.42788
  0
ARC
  8
0
  6
CONTINUOUS
 62
     7
 10
-15.922172
 20
-576.62653
 40
5
 50
74.572121
 51
90.000003
  0
ARC
  8
0
  6
CONTINUOUS
 62
     7
 10
-25.092031
 20
-577.62653
 40
6
 50
90.000003
 51
180.00001
  0
ARC
  8
0
  6
CONTINUOUS
 62
     7
 10
-107.09203
 20
-577.62653
 40
6
 50
0
 51
90.000003
  0
ARC
  8
0
  6
CONTINUOUS
 62
     7
 10
-116.26189
 20
-576.62653
 40
5
 50
90.000003
 51
105.42795
  0
ARC
  8
0
  6
CONTINUOUS
 62
     7
 10
-116.26189
 20
-493.62653
 40
5
 50
254.57205
 51
270
  0
CIRCLE
  8
0
  6
CONTINUOUS
 62
     7
 10
-92.074997
 20
90.149994
 40
11.5
  0
CIRCLE
  8
0
  6
CONTINUOUS
 62
     7
 10
195.41731
 20
77.455841
 40
14.25
  0
CIRCLE
  8
0
  6
CONTINUOUS
 62
     7
 10
-74.066704
 20
-122.81644
 40
17.75
  0
CIRCLE
  8
0
  6
CONTINUOUS
 62
     7
 10
227.19052
 20
-131.65198
 40
22
  0
CIRCLE
  8
0
  6
CONTINUOUS
 62
     7
 10
116.18873
 20
-370.19641
 40
25
  0
CIRCLE
  8
0
  6
CONTINUOUS
 62
     7
 10
98.838081
 20
-535.12653
 40
31
  0
CIRCLE
  8
0
  6
CONTINUOUS
 62
     7
 10
123.19356
 20
-783.10962
 40
39.25
  0
CIRCLE
  8
0
  6
CONTINUOUS
 62
     7
 10
163.19356
 20
-977.86963
 40
45.75
  0
ARC
  8
0
  6
CONTINUOUS
 62
     7
 10
592.18134
 20
-726.21716
 40
5
 50
270
 51
345.52249
  0
ARC
  8
0
  6
CONTINUOUS
 62
     7
 10
592.18134
 20
-826.71716
 40
5
 50
14.477511
 51
90.000003
  0
ARC
  8
0
  6
CONTINUOUS
 62
     7
 10
583.02258
 20
-831.63702
 40
5
 50
179.99999
 51
240.00001
  0
ARC
  8
0
  6
CONTINUOUS
 62
     7
 10
586.02258
 20
-829.71716
 40
8
 50
90.000003
 51
180.00001
  0
ARC
  8
0
  6
CONTINUOUS
 62
     7
 10
484.02255
 20
-829.71716
 40
8
 50
0
 51
90.000003
  0
ARC
  8
0
  6
CONTINUOUS
 62
     7
 10
477.8638
 20
-826.71716
 40
5
 50
90.000003
 51
165.52249
  0
ARC
  8
0
  6
CONTINUOUS
 62
     7
 10
487.02255
 20
-831.63702
 40
5
 50
300
 51
0
  0
ARC
  8
0
  6
CONTINUOUS
 62
     7
 10
477.8638
 20
-726.21716
 40
5
 50
194.47751
 51
270
  0
ARC
  8
0
  6
CONTINUOUS
 62
     7
 10
598.6814
 20
-918.48926
 40
5
 50
270
 51
345.5225
  0
ARC
  8
0
  6
CONTINUOUS
 62
     7
 10
598.6814
 20
-1032.9893
 40
5
 50
14.477511
 51
90.000003
  0
ARC
  8
0
  6
CONTINUOUS
 62
     7
 10
589.52258
 20
-1039.1567
 40
5
 50
180.00001
 51
246.42183
  0
ARC
  8
0
  6
CONTINUOUS
 62
     7
 10
594.52258
 20
-1037.9893
 40
10
 50
90.000003
 51
180.00001
  0
ARC
  8
0
  6
CONTINUOUS
 62
     7
 10
471.3638
 20
-1032.9893
 40
5
 50
90.000003
 51
165.52249
  0
ARC
  8
0
  6
CONTINUOUS
 62
     7
 10
471.3638
 20
-918.48926
 40
5
 50
194.47751
 51
270
  0
ARC
  8
0
  6
CONTINUOUS
 62
     7
 10
480.52255
 20
-1039.1567
 40
5
 50
293.57818
 51
0
  0
ARC
  8
0
  6
CONTINUOUS
 62
     7
 10
475.52255
 20
-1037.9893
 40
10
 50
0
 51
90.000003
  0
ARC
  8
0
  6
CONTINUOUS
 62
     7
 10
469.77213
 20
64.331093
 40
5
 50
30.000004
 51
90.000003
  0
ARC
  8
0
  6
CONTINUOUS
 62
     7
 10
465.54184
 20
66.331093
 40
3
 50
89.999989
 51
180.00001
  0
ARC
  8
0
  6
CONTINUOUS
 62
     7
 10
432.54184
 20
66.331093
 40
3
 50
2.5044777E-006
 51
90.000003
  0
ARC
  8
0
  6
CONTINUOUS
 62
     7
 10
469.77213
 20
105.33109
 40
5
 50
270
 51
330
  0
ARC
  8
0
  6
CONTINUOUS
 62
     7
 10
428.31155
 20
64.331093
 40
5
 50
89.999989
 51
150.00001
  0
ARC
  8
0
  6
CONTINUOUS
 62
     7
 10
428.31155
 20
105.33109
 40
5
 50
210
 51
270
  0
ARC
  8
0
  6
CONTINUOUS
 62
     7
 10
697.35059
 20
61.5811
 40
5
 50
26.743683
 51
90.000003
  0
ARC
  8
0
  6
CONTINUOUS
 62
     7
 10
691.69183
 20
62.5811
 40
4
 50
89.999989
 51
180.00001
  0
ARC
  8
0
  6
CONTINUOUS
 62
     7
 10
650.69183
 20
62.5811
 40
4
 50
2.5044777E-006
 51
90.000003
  0
ARC
  8
0
  6
CONTINUOUS
 62
     7
 10
697.35059
 20
108.08109
 40
5
 50
270
 51
333.25631
  0
ARC
  8
0
  6
CONTINUOUS
 62
     7
 10
645.03308
 20
108.08109
 40
5
 50
206.74368
 51
270
  0
ARC
  8
0
  6
CONTINUOUS
 62
     7
 10
645.03308
 20
61.5811
 40
5
 50
89.999996
 51
153.25632
  0
ARC
  8
0
  6
CONTINUOUS
 62
     7
 10
466.02682
 20
-139.76588
 40
5
 50
26.743683
 51
90.000003
  0
ARC
  8
0
  6
CONTINUOUS
 62
     7
 10
460.86807
 20
-139.76588
 40
5
 50
89.999989
 51
180.00001
  0
ARC
  8
0
  6
CONTINUOUS
 62
     7
 10
409.86807
 20
-139.76588
 40
5
 50
2.5044775E-006
 51
90.000003
  0
ARC
  8
0
  6
CONTINUOUS
 62
     7
 10
466.02682
 20
-85.265892
 40
5
 50
270
 51
333.25631
  0
ARC
  8
0
  6
CONTINUOUS
 62
     7
 10
404.70929
 20
-85.265892
 40
5
 50
206.74368
 51
270
  0
ARC
  8
0
  6
CONTINUOUS
 62
     7
 10
404.70929
 20
-139.76588
 40
5
 50
89.999989
 51
153.25632
  0
ARC
  8
0
  6
CONTINUOUS
 62
     7
 10
732.00305
 20
-82.941002
 40
5
 50
270
 51
329.99999
  0
ARC
  8
0
  6
CONTINUOUS
 62
     7
 10
732.00305
 20
-145.94099
 40
5
 50
30.000001
 51
90.000003
  0
ARC
  8
0
  6
CONTINUOUS
 62
     7
 10
724.33319
 20
-146.94099
 40
6
 50
90.000003
 51
180.00001
  0
ARC
  8
0
  6
CONTINUOUS
 62
     7
 10
662.33319
 20
-146.94099
 40
6
 50
0
 51
90.000003
  0
ARC
  8
0
  6
CONTINUOUS
 62
     7
 10
654.66327
 20
-82.941002
 40
5
 50
210
 51
270
  0
ARC
  8
0
  6
CONTINUOUS
 62
     7
 10
654.66327
 20
-145.94099
 40
5
 50
90.000003
 51
150
  0
ARC
  8
0
  6
CONTINUOUS
 62
     7
 10
599.3338
 20
-309.71097
 40
5
 50
270
 51
330
  0
ARC
  8
0
  6
CONTINUOUS
 62
     7
 10
599.3338
 20
-379.71097
 40
5
 50
30.000001
 51
90.000003
  0
ARC
  8
0
  6
CONTINUOUS
 62
     7
 10
591.16388
 20
-380.71097
 40
6
 50
90.000003
 51
180.00001
  0
ARC
  8
0
  6
CONTINUOUS
 62
     7
 10
514.99402
 20
-309.71097
 40
5
 50
210
 51
270
  0
ARC
  8
0
  6
CONTINUOUS
 62
     7
 10
514.99402
 20
-379.71097
 40
5
 50
90.000003
 51
150
  0
ARC
  8
0
  6
CONTINUOUS
 62
     7
 10
523.16388
 20
-380.71097
 40
6
 50
0
 51
90.000003
  0
ARC
  8
0
  6
CONTINUOUS
 62
     7
 10
616.19031
 20
-493.62653
 40
5
 50
270
 51
330
  0
ARC
  8
0
  6
CONTINUOUS
 62
     7
 10
616.19031
 20
-576.62653
 40
5
 50
30.000001
 51
90.000003
  0
ARC
  8
0
  6
CONTINUOUS
 62
     7
 10
607.02045
 20
-577.62653
 40
6
 50
90.000003
 51
180.00001
  0
ARC
  8
0
  6
CONTINUOUS
 62
     7
 10
525.02045
 20
-577.62653
 40
6
 50
0
 51
90.000003
  0
ARC
  8
0
  6
CONTINUOUS
 62
     7
 10
515.85059
 20
-576.62653
 40
5
 50
90.000003
 51
150
  0
ARC
  8
0
  6
CONTINUOUS
 62
     7
 10
515.85059
 20
-493.62653
 40
5
 50
210
 51
270
  0
CIRCLE
  8
0
  6
CONTINUOUS
 62
     7
 10
735.02258
 20
-776.46716
 40
40.400002
  0
CIRCLE
  8
0
  6
CONTINUOUS
 62
     7
 10
735.02258
 20
-776.46716
 40
40.935898
  0
CIRCLE
  8
0
  6
CONTINUOUS
 62
     7
 10
735.02258
 20
-776.46716
 40
38.650002
  0
CIRCLE
  8
0
  6
CONTINUOUS
 62
     7
 10
735.02258
 20
-975.73926
 40
46.849998
  0
CIRCLE
  8
0
  6
CONTINUOUS
 62
     7
 10
735.02258
 20
-975.73926
 40
47.385899
  0
CIRCLE
  8
0
  6
CONTINUOUS
 62
     7
 10
735.02258
 20
-975.73926
 40
45.099998
  0
CIRCLE
  8
0
  6
CONTINUOUS
 62
     7
 10
549.04181
 20
84.831093
 40
11.2
  0
CIRCLE
  8
0
  6
CONTINUOUS
 62
     7
 10
549.04181
 20
84.831093
 40
12.75
  0
CIRCLE
  8
0
  6
CONTINUOUS
 62
     7
 10
549.04181
 20
84.831093
 40
13.285898
  0
CIRCLE
  8
0
  6
CONTINUOUS
 62
     7
 10
791.19183
 20
84.831093
 40
16.035898
  0
CIRCLE
  8
0
  6
CONTINUOUS
 62
     7
 10
791.19183
 20
84.831093
 40
13.95
  0
CIRCLE
  8
0
  6
CONTINUOUS
 62
     7
 10
791.19183
 20
84.831093
 40
15.5
  0
CIRCLE
  8
0
  6
CONTINUOUS
 62
     7
 10
555.36804
 20
-112.51589
 40
18.9
  0
CIRCLE
  8
0
  6
CONTINUOUS
 62
     7
 10
555.36804
 20
-112.51589
 40
19.435898
  0
CIRCLE
  8
0
  6
CONTINUOUS
 62
     7
 10
555.36804
 20
-112.51589
 40
17.35
  0
CIRCLE
  8
0
  6
CONTINUOUS
 62
     7
 10
833.33319
 20
-114.441
 40
23.35
  0
CIRCLE
  8
0
  6
CONTINUOUS
 62
     7
 10
833.33319
 20
-114.441
 40
23.885899
  0
CIRCLE
  8
0
  6
CONTINUOUS
 62
     7
 10
833.33319
 20
-114.441
 40
21.700001
  0
CIRCLE
  8
0
  6
CONTINUOUS
 62
     7
 10
697.16394
 20
-344.71097
 40
26.450001
  0
CIRCLE
  8
0
  6
CONTINUOUS
 62
     7
 10
697.16394
 20
-344.71097
 40
26.985899
  0
CIRCLE
  8
0
  6
CONTINUOUS
 62
     7
 10
697.16394
 20
-344.71097
 40
24.700001
  0
CIRCLE
  8
0
  6
CONTINUOUS
 62
     7
 10
726.02045
 20
-535.12653
 40
32.450001
  0
CIRCLE
  8
0
  6
CONTINUOUS
 62
     7
 10
726.02045
 20
-535.12653
 40
32.985897
  0
CIRCLE
  8
0
  6
CONTINUOUS
 62
     7
 10
726.02045
 20
-535.12653
 40
30.700001
  0
TEXT
  8
0
  6
CONTINUOUS
 62
     7
 10
-98.105434
 20
-717.82025
 40
10
 41
1.0129871
  1
21/2
  0
TEXT
  8
0
  6
CONTINUOUS
 62
     7
 10
-81.997456
 20
-905.25848
 40
10
 41
1.0714291
  1
3
  0
TEXT
  8
0
  6
CONTINUOUS
 62
     7
 10
-203.2726
 20
133.66043
 40
10
 41
1.0178573
  1
1/2
  0
TEXT
  8
0
  6
CONTINUOUS
 62
     7
 10
55.566944
 20
119.45911
 40
10
 41
1.0178573
  1
3/4
  0
TEXT
  8
0
  6
CONTINUOUS
 62
     7
 10
-211.87778
 20
-82.320358
 40
10
 41
1.0714291
  1
1
  0
TEXT
  8
0
  6
CONTINUOUS
 62
     7
 10
63.599384
 20
-80.062874
 40
10
 41
1.0129871
  1
11/4
  0
TEXT
  8
0
  6
CONTINUOUS
 62
     7
 10
-60.545574
 20
-317.10013
 40
10
 41
1.0129871
  1
11/2
  0
TEXT
  8
0
  6
CONTINUOUS
 62
     7
 10
-70.593121
 20
-477.50873
 40
10
 41
1.0714291
  1
2
  0
TEXT
  8
0
  6
CONTINUOUS
 62
     7
 10
-284.02899
 20
219.03569
 40
15
 41
0.84289037
  1
ＬＡ　チ－ズ枝部ねじ付き　（Ｔ）
  0
TEXT
  8
0
  6
CONTINUOUS
 62
     7
 10
515.95024
 20
-705.45959
 40
10
 41
1.0129871
  1
21/2
  0
TEXT
  8
0
  6
CONTINUOUS
 62
     7
 10
531.7949
 20
-895.21552
 40
10
 41
1.0714291
  1
3
  0
TEXT
  8
0
  6
CONTINUOUS
 62
     7
 10
429.00505
 20
125.93089
 40
10
 41
1.0178573
  1
1/2
  0
TEXT
  8
0
  6
CONTINUOUS
 62
     7
 10
653.28379
 20
120.14304
 40
10
 41
1.0178573
  1
3/4
  0
TEXT
  8
0
  6
CONTINUOUS
 62
     7
 10
431.67161
 20
-62.5783
 40
10
 41
1.0714291
  1
1
  0
TEXT
  8
0
  6
CONTINUOUS
 62
     7
 10
676.20781
 20
-61.13134
 40
10
 41
1.0129871
  1
11/4
  0
TEXT
  8
0
  6
CONTINUOUS
 62
     7
 10
538.53221
 20
-291.67633
 40
10
 41
1.0129871
  1
11/2
  0
TEXT
  8
0
  6
CONTINUOUS
 62
     7
 10
563.82096
 20
-471.89752
 40
10
 41
1.0714291
  1
2
  0
TEXT
  8
0
  6
CONTINUOUS
 62
     7
 10
321.99133
 20
221.14243
 40
15
 41
0.84195842
  1
ＨＩ－ＬＡ（Ｐ－ＬＡ）　チ－ズ枝部ねじ付き　（Ｔ）
  0
TEXT
  8
0
  6
CONTINUOUS
 62
     7
 10
738.4727
 20
221.53569
 40
10
 41
0.84195842
  1
ＨＩ－ＬＡとＰ－ＬＡの寸法は同じになっております。
  0
LINE
  8
0
  6
CONTINUOUS
 62
     7
 10
-82.104751
 20
-790.60962
 11
-82.104751
 21
-788.55529
  0
LINE
  8
0
  6
CONTINUOUS
 62
     7
 10
-80.604751
 20
-790.60962
 11
-80.604751
 21
-788.55529
  0
LINE
  8
0
  6
CONTINUOUS
 62
     7
 10
-80.604752
 20
-777.66395
 11
-80.604752
 21
-775.60962
  0
LINE
  8
0
  6
CONTINUOUS
 62
     7
 10
-82.104752
 20
-777.66395
 11
-82.104752
 21
-775.60962
  0
LINE
  8
0
  6
CONTINUOUS
 62
     7
 10
-80.604751
 20
-787.04983
 11
-80.604752
 21
-783.10962
  0
LINE
  8
0
  6
CONTINUOUS
 62
     7
 10
-82.104751
 20
-787.04983
 11
-82.104752
 21
-783.10962
  0
ARC
  8
0
  6
CONTINUOUS
 62
     7
 10
-84.354752
 20
-783.10962
 40
3
 50
126.00833
 51
233.99168
  0
ARC
  8
0
  6
CONTINUOUS
 62
     7
 10
-84.354752
 20
-783.10962
 40
4.5
 50
126.00833
 51
233.99168
  0
ARC
  8
0
  6
CONTINUOUS
 62
     7
 10
-78.354752
 20
-783.10962
 40
3
 50
306.00833
 51
53.991686
  0
ARC
  8
0
  6
CONTINUOUS
 62
     7
 10
-78.354752
 20
-783.10962
 40
4.5
 50
306.00833
 51
53.991686
  0
ARC
  8
0
  6
CONTINUOUS
 62
     7
 10
-81.354752
 20
-778.98173
 40
9.6028843
 50
233.99168
 51
265.52056
  0
ARC
  8
0
  6
CONTINUOUS
 62
     7
 10
-81.354752
 20
-778.98173
 40
8.1028843
 50
233.99168
 51
264.68913
  0
ARC
  8
0
  6
CONTINUOUS
 62
     7
 10
-81.354751
 20
-787.2375
 40
8.1028843
 50
53.991676
 51
126.00833
  0
ARC
  8
0
  6
CONTINUOUS
 62
     7
 10
-81.354751
 20
-787.2375
 40
9.6028843
 50
53.991676
 51
85.520553
  0
ARC
  8
0
  6
CONTINUOUS
 62
     7
 10
-81.354751
 20
-790.04712
 40
0.9375
 50
216.8699
 51
323.1301
  0
ARC
  8
0
  6
CONTINUOUS
 62
     7
 10
-81.354752
 20
-783.67212
 40
0.9375
 50
36.869908
 51
143.13011
  0
ARC
  8
0
  6
CONTINUOUS
 62
     7
 10
-81.354752
 20
-776.17212
 40
0.9375
 50
36.869908
 51
143.13011
  0
ARC
  8
0
  6
CONTINUOUS
 62
     7
 10
-81.354752
 20
-778.98173
 40
9.6028843
 50
274.47946
 51
306.00833
  0
ARC
  8
0
  6
CONTINUOUS
 62
     7
 10
-81.354752
 20
-778.98173
 40
8.1028843
 50
275.31088
 51
306.00833
  0
ARC
  8
0
  6
CONTINUOUS
 62
     7
 10
-81.354751
 20
-787.2375
 40
9.6028843
 50
94.479452
 51
126.00833
  0
LINE
  8
0
  6
CONTINUOUS
 62
     7
 10
-77.711669
 20
-985.36963
 11
-77.711669
 21
-983.3153
  0
LINE
  8
0
  6
CONTINUOUS
 62
     7
 10
-76.211669
 20
-985.36963
 11
-76.211669
 21
-983.3153
  0
LINE
  8
0
  6
CONTINUOUS
 62
     7
 10
-76.21167
 20
-972.42396
 11
-76.211671
 21
-970.36963
  0
LINE
  8
0
  6
CONTINUOUS
 62
     7
 10
-77.71167
 20
-972.42396
 11
-77.711671
 21
-970.36963
  0
LINE
  8
0
  6
CONTINUOUS
 62
     7
 10
-76.21167
 20
-981.80984
 11
-76.21167
 21
-977.86963
  0
LINE
  8
0
  6
CONTINUOUS
 62
     7
 10
-77.71167
 20
-981.80984
 11
-77.71167
 21
-977.86963
  0
ARC
  8
0
  6
CONTINUOUS
 62
     7
 10
-79.96167
 20
-977.86963
 40
3
 50
126.00833
 51
233.99168
  0
ARC
  8
0
  6
CONTINUOUS
 62
     7
 10
-79.96167
 20
-977.86963
 40
4.5
 50
126.00833
 51
233.99168
  0
ARC
  8
0
  6
CONTINUOUS
 62
     7
 10
-73.96167
 20
-977.86963
 40
3
 50
306.00833
 51
53.991686
  0
ARC
  8
0
  6
CONTINUOUS
 62
     7
 10
-73.96167
 20
-977.86963
 40
4.5
 50
306.00833
 51
53.991686
  0
ARC
  8
0
  6
CONTINUOUS
 62
     7
 10
-76.96167
 20
-973.74174
 40
9.6028843
 50
233.99168
 51
265.52056
  0
ARC
  8
0
  6
CONTINUOUS
 62
     7
 10
-76.96167
 20
-973.74174
 40
8.1028843
 50
233.99168
 51
264.68913
  0
ARC
  8
0
  6
CONTINUOUS
 62
     7
 10
-76.96167
 20
-981.99751
 40
8.1028843
 50
53.991676
 51
126.00833
  0
ARC
  8
0
  6
CONTINUOUS
 62
     7
 10
-76.96167
 20
-981.99751
 40
9.6028843
 50
53.991676
 51
85.520553
  0
ARC
  8
0
  6
CONTINUOUS
 62
     7
 10
-76.961669
 20
-984.80713
 40
0.9375
 50
216.8699
 51
323.1301
  0
ARC
  8
0
  6
CONTINUOUS
 62
     7
 10
-76.96167
 20
-978.43213
 40
0.9375
 50
36.869908
 51
143.13011
  0
ARC
  8
0
  6
CONTINUOUS
 62
     7
 10
-76.961671
 20
-970.93213
 40
0.9375
 50
36.869908
 51
143.13011
  0
ARC
  8
0
  6
CONTINUOUS
 62
     7
 10
-76.96167
 20
-973.74174
 40
9.6028843
 50
274.47946
 51
306.00833
  0
ARC
  8
0
  6
CONTINUOUS
 62
     7
 10
-76.96167
 20
-973.74174
 40
8.1028843
 50
275.31088
 51
306.00833
  0
ARC
  8
0
  6
CONTINUOUS
 62
     7
 10
-76.96167
 20
-981.99751
 40
9.6028843
 50
94.479452
 51
126.00833
  0
LINE
  8
0
  6
CONTINUOUS
 62
     7
 10
-192.375
 20
87.149994
 11
-192.375
 21
87.971727
  0
LINE
  8
0
  6
CONTINUOUS
 62
     7
 10
-191.775
 20
87.149994
 11
-191.775
 21
87.971727
  0
LINE
  8
0
  6
CONTINUOUS
 62
     7
 10
-191.775
 20
92.328261
 11
-191.775
 21
93.149994
  0
LINE
  8
0
  6
CONTINUOUS
 62
     7
 10
-192.375
 20
92.328261
 11
-192.375
 21
93.149994
  0
LINE
  8
0
  6
CONTINUOUS
 62
     7
 10
-191.775
 20
88.573908
 11
-191.775
 21
90.149994
  0
LINE
  8
0
  6
CONTINUOUS
 62
     7
 10
-192.375
 20
88.573908
 11
-192.375
 21
90.149994
  0
ARC
  8
0
  6
CONTINUOUS
 62
     7
 10
-193.275
 20
90.149994
 40
1.2
 50
126.00833
 51
233.99168
  0
ARC
  8
0
  6
CONTINUOUS
 62
     7
 10
-193.275
 20
90.149994
 40
1.8
 50
126.00833
 51
233.99168
  0
ARC
  8
0
  6
CONTINUOUS
 62
     7
 10
-190.875
 20
90.149994
 40
1.2
 50
306.00833
 51
53.991686
  0
ARC
  8
0
  6
CONTINUOUS
 62
     7
 10
-190.875
 20
90.149994
 40
1.8
 50
306.00833
 51
53.991686
  0
ARC
  8
0
  6
CONTINUOUS
 62
     7
 10
-192.075
 20
91.801148
 40
3.8411539
 50
233.99168
 51
265.52056
  0
ARC
  8
0
  6
CONTINUOUS
 62
     7
 10
-192.075
 20
91.801148
 40
3.241154
 50
233.99168
 51
264.68913
  0
ARC
  8
0
  6
CONTINUOUS
 62
     7
 10
-192.075
 20
88.49884
 40
3.241154
 50
53.991676
 51
126.00833
  0
ARC
  8
0
  6
CONTINUOUS
 62
     7
 10
-192.075
 20
88.49884
 40
3.8411539
 50
53.991676
 51
85.520553
  0
ARC
  8
0
  6
CONTINUOUS
 62
     7
 10
-192.075
 20
87.374994
 40
0.375
 50
216.8699
 51
323.1301
  0
ARC
  8
0
  6
CONTINUOUS
 62
     7
 10
-192.075
 20
89.924994
 40
0.375
 50
36.869908
 51
143.13011
  0
ARC
  8
0
  6
CONTINUOUS
 62
     7
 10
-192.075
 20
92.924994
 40
0.375
 50
36.869908
 51
143.13011
  0
ARC
  8
0
  6
CONTINUOUS
 62
     7
 10
-192.075
 20
88.49884
 40
3.8411539
 50
94.479452
 51
126.00833
  0
ARC
  8
0
  6
CONTINUOUS
 62
     7
 10
-192.075
 20
91.801148
 40
3.241154
 50
275.31088
 51
306.00833
  0
ARC
  8
0
  6
CONTINUOUS
 62
     7
 10
-192.075
 20
91.801148
 40
3.8411539
 50
274.47946
 51
306.00833
  0
LINE
  8
0
  6
CONTINUOUS
 62
     7
 10
70.617459
 20
72.955841
 11
70.617459
 21
74.188441
  0
LINE
  8
0
  6
CONTINUOUS
 62
     7
 10
71.517459
 20
72.955841
 11
71.517459
 21
74.188441
  0
LINE
  8
0
  6
CONTINUOUS
 62
     7
 10
71.517459
 20
80.723241
 11
71.517459
 21
81.955841
  0
LINE
  8
0
  6
CONTINUOUS
 62
     7
 10
70.617459
 20
80.723241
 11
70.61746
 21
81.955841
  0
LINE
  8
0
  6
CONTINUOUS
 62
     7
 10
71.517459
 20
75.091712
 11
71.517459
 21
77.455841
  0
LINE
  8
0
  6
CONTINUOUS
 62
     7
 10
70.617459
 20
75.091712
 11
70.617459
 21
77.455841
  0
ARC
  8
0
  6
CONTINUOUS
 62
     7
 10
69.267459
 20
77.455841
 40
1.8
 50
126.00832
 51
233.99167
  0
ARC
  8
0
  6
CONTINUOUS
 62
     7
 10
69.267459
 20
77.455841
 40
2.7
 50
126.00832
 51
233.99167
  0
ARC
  8
0
  6
CONTINUOUS
 62
     7
 10
72.867459
 20
77.455841
 40
1.8
 50
306.00832
 51
53.991676
  0
ARC
  8
0
  6
CONTINUOUS
 62
     7
 10
72.867459
 20
77.455841
 40
2.7
 50
306.00832
 51
53.991676
  0
ARC
  8
0
  6
CONTINUOUS
 62
     7
 10
71.067459
 20
79.932572
 40
5.7617307
 50
233.99167
 51
265.52055
  0
ARC
  8
0
  6
CONTINUOUS
 62
     7
 10
71.067459
 20
79.932572
 40
4.8617306
 50
233.99167
 51
264.68912
  0
ARC
  8
0
  6
CONTINUOUS
 62
     7
 10
71.067459
 20
74.97911
 40
4.8617306
 50
53.991665
 51
126.00832
  0
ARC
  8
0
  6
CONTINUOUS
 62
     7
 10
71.067459
 20
74.97911
 40
5.7617307
 50
53.991665
 51
85.520543
  0
ARC
  8
0
  6
CONTINUOUS
 62
     7
 10
71.067459
 20
73.293341
 40
0.5625
 50
216.86989
 51
323.13009
  0
ARC
  8
0
  6
CONTINUOUS
 62
     7
 10
71.067459
 20
77.118341
 40
0.5625
 50
36.869898
 51
143.1301
  0
ARC
  8
0
  6
CONTINUOUS
 62
     7
 10
71.067459
 20
81.618341
 40
0.5625
 50
36.869898
 51
143.1301
  0
ARC
  8
0
  6
CONTINUOUS
 62
     7
 10
71.067459
 20
79.932572
 40
5.7617307
 50
274.47945
 51
306.00832
  0
ARC
  8
0
  6
CONTINUOUS
 62
     7
 10
71.067459
 20
79.932572
 40
4.8617306
 50
275.31087
 51
306.00832
  0
ARC
  8
0
  6
CONTINUOUS
 62
     7
 10
71.067459
 20
74.97911
 40
5.7617307
 50
94.479442
 51
126.00832
  0
LINE
  8
0
  6
CONTINUOUS
 62
     7
 10
-207.04984
 20
-127.31644
 11
-207.04984
 21
-126.08384
  0
LINE
  8
0
  6
CONTINUOUS
 62
     7
 10
-206.14984
 20
-127.31644
 11
-206.14984
 21
-126.08384
  0
LINE
  8
0
  6
CONTINUOUS
 62
     7
 10
-206.14984
 20
-119.54904
 11
-206.14984
 21
-118.31644
  0
LINE
  8
0
  6
CONTINUOUS
 62
     7
 10
-207.04984
 20
-119.54904
 11
-207.04984
 21
-118.31644
  0
LINE
  8
0
  6
CONTINUOUS
 62
     7
 10
-206.14984
 20
-125.18057
 11
-206.14984
 21
-122.81644
  0
LINE
  8
0
  6
CONTINUOUS
 62
     7
 10
-207.04984
 20
-125.18057
 11
-207.04984
 21
-122.81644
  0
ARC
  8
0
  6
CONTINUOUS
 62
     7
 10
-208.39984
 20
-122.81644
 40
1.8
 50
126.00833
 51
233.99168
  0
ARC
  8
0
  6
CONTINUOUS
 62
     7
 10
-208.39984
 20
-122.81644
 40
2.7
 50
126.00833
 51
233.99168
  0
ARC
  8
0
  6
CONTINUOUS
 62
     7
 10
-204.79984
 20
-122.81644
 40
1.8
 50
306.00833
 51
53.991686
  0
ARC
  8
0
  6
CONTINUOUS
 62
     7
 10
-204.79984
 20
-122.81644
 40
2.7
 50
306.00833
 51
53.991686
  0
ARC
  8
0
  6
CONTINUOUS
 62
     7
 10
-206.59984
 20
-120.33971
 40
5.7617307
 50
233.99168
 51
265.52056
  0
ARC
  8
0
  6
CONTINUOUS
 62
     7
 10
-206.59984
 20
-120.33971
 40
4.8617306
 50
233.99168
 51
264.68913
  0
ARC
  8
0
  6
CONTINUOUS
 62
     7
 10
-206.59984
 20
-125.29317
 40
4.8617306
 50
53.991676
 51
126.00833
  0
ARC
  8
0
  6
CONTINUOUS
 62
     7
 10
-206.59984
 20
-125.29317
 40
5.7617307
 50
53.991676
 51
85.520553
  0
ARC
  8
0
  6
CONTINUOUS
 62
     7
 10
-206.59984
 20
-126.97894
 40
0.5625
 50
216.8699
 51
323.1301
  0
ARC
  8
0
  6
CONTINUOUS
 62
     7
 10
-206.59984
 20
-123.15394
 40
0.5625
 50
36.869908
 51
143.13011
  0
ARC
  8
0
  6
CONTINUOUS
 62
     7
 10
-206.59984
 20
-118.65394
 40
0.5625
 50
36.869908
 51
143.13011
  0
ARC
  8
0
  6
CONTINUOUS
 62
     7
 10
-206.59984
 20
-120.33971
 40
5.7617307
 50
274.47946
 51
306.00833
  0
ARC
  8
0
  6
CONTINUOUS
 62
     7
 10
-206.59984
 20
-120.33971
 40
4.8617306
 50
275.31088
 51
306.00833
  0
ARC
  8
0
  6
CONTINUOUS
 62
     7
 10
-206.59984
 20
-125.29317
 40
5.7617307
 50
94.479452
 51
126.00833
  0
LINE
  8
0
  6
CONTINUOUS
 62
     7
 10
78.48268
 20
-137.65198
 11
78.48268
 21
-136.00851
  0
LINE
  8
0
  6
CONTINUOUS
 62
     7
 10
79.68268
 20
-137.65198
 11
79.68268
 21
-136.00851
  0
LINE
  8
0
  6
CONTINUOUS
 62
     7
 10
79.682679
 20
-127.29544
 11
79.682679
 21
-125.65198
  0
LINE
  8
0
  6
CONTINUOUS
 62
     7
 10
78.482679
 20
-127.29544
 11
78.482679
 21
-125.65198
  0
LINE
  8
0
  6
CONTINUOUS
 62
     7
 10
79.68268
 20
-134.80415
 11
79.68268
 21
-131.65198
  0
LINE
  8
0
  6
CONTINUOUS
 62
     7
 10
78.48268
 20
-134.80415
 11
78.48268
 21
-131.65198
  0
ARC
  8
0
  6
CONTINUOUS
 62
     7
 10
76.68268
 20
-131.65198
 40
2.4000001
 50
126.00833
 51
233.99168
  0
ARC
  8
0
  6
CONTINUOUS
 62
     7
 10
76.68268
 20
-131.65198
 40
3.5999999
 50
126.00833
 51
233.99168
  0
ARC
  8
0
  6
CONTINUOUS
 62
     7
 10
81.48268
 20
-131.65198
 40
2.4000001
 50
306.00833
 51
53.991686
  0
ARC
  8
0
  6
CONTINUOUS
 62
     7
 10
81.48268
 20
-131.65198
 40
3.5999999
 50
306.00833
 51
53.991686
  0
ARC
  8
0
  6
CONTINUOUS
 62
     7
 10
79.082679
 20
-128.34967
 40
7.6823077
 50
233.99168
 51
265.52056
  0
ARC
  8
0
  6
CONTINUOUS
 62
     7
 10
79.082679
 20
-128.34967
 40
6.4823079
 50
233.99168
 51
264.68913
  0
ARC
  8
0
  6
CONTINUOUS
 62
     7
 10
79.08268
 20
-134.95429
 40
6.4823079
 50
53.991676
 51
126.00833
  0
ARC
  8
0
  6
CONTINUOUS
 62
     7
 10
79.08268
 20
-134.95429
 40
7.6823077
 50
53.991676
 51
85.520553
  0
ARC
  8
0
  6
CONTINUOUS
 62
     7
 10
79.08268
 20
-137.20198
 40
0.75
 50
216.8699
 51
323.1301
  0
ARC
  8
0
  6
CONTINUOUS
 62
     7
 10
79.08268
 20
-132.10198
 40
0.75
 50
36.869908
 51
143.13011
  0
ARC
  8
0
  6
CONTINUOUS
 62
     7
 10
79.082679
 20
-126.10198
 40
0.75
 50
36.869908
 51
143.13011
  0
ARC
  8
0
  6
CONTINUOUS
 62
     7
 10
79.082679
 20
-128.34967
 40
6.4823079
 50
275.31088
 51
306.00833
  0
ARC
  8
0
  6
CONTINUOUS
 62
     7
 10
79.082679
 20
-128.34967
 40
7.6823077
 50
274.47946
 51
306.00833
  0
ARC
  8
0
  6
CONTINUOUS
 62
     7
 10
79.08268
 20
-134.95429
 40
7.6823077
 50
94.479452
 51
126.00833
  0
LINE
  8
0
  6
CONTINUOUS
 62
     7
 10
-46.618211
 20
-376.19641
 11
-46.618211
 21
-374.55294
  0
LINE
  8
0
  6
CONTINUOUS
 62
     7
 10
-45.418211
 20
-376.19641
 11
-45.418211
 21
-374.55294
  0
LINE
  8
0
  6
CONTINUOUS
 62
     7
 10
-45.418212
 20
-365.83988
 11
-45.418212
 21
-364.19641
  0
LINE
  8
0
  6
CONTINUOUS
 62
     7
 10
-46.618212
 20
-365.83988
 11
-46.618212
 21
-364.19641
  0
LINE
  8
0
  6
CONTINUOUS
 62
     7
 10
-45.418211
 20
-373.34858
 11
-45.418211
 21
-370.19641
  0
LINE
  8
0
  6
CONTINUOUS
 62
     7
 10
-46.618211
 20
-373.34858
 11
-46.618211
 21
-370.19641
  0
ARC
  8
0
  6
CONTINUOUS
 62
     7
 10
-48.418211
 20
-370.19641
 40
2.4000001
 50
126.00833
 51
233.99168
  0
ARC
  8
0
  6
CONTINUOUS
 62
     7
 10
-48.418211
 20
-370.19641
 40
3.5999999
 50
126.00833
 51
233.99168
  0
ARC
  8
0
  6
CONTINUOUS
 62
     7
 10
-43.618211
 20
-370.19641
 40
2.4000001
 50
306.00833
 51
53.991686
  0
ARC
  8
0
  6
CONTINUOUS
 62
     7
 10
-43.618211
 20
-370.19641
 40
3.5999999
 50
306.00833
 51
53.991686
  0
ARC
  8
0
  6
CONTINUOUS
 62
     7
 10
-46.018212
 20
-366.8941
 40
7.6823077
 50
233.99168
 51
265.52056
  0
ARC
  8
0
  6
CONTINUOUS
 62
     7
 10
-46.018212
 20
-366.8941
 40
6.4823079
 50
233.99168
 51
264.68913
  0
ARC
  8
0
  6
CONTINUOUS
 62
     7
 10
-46.018211
 20
-373.49872
 40
6.4823079
 50
53.991676
 51
126.00833
  0
ARC
  8
0
  6
CONTINUOUS
 62
     7
 10
-46.018211
 20
-373.49872
 40
7.6823077
 50
53.991676
 51
85.520553
  0
ARC
  8
0
  6
CONTINUOUS
 62
     7
 10
-46.018211
 20
-375.74641
 40
0.75
 50
216.8699
 51
323.1301
  0
ARC
  8
0
  6
CONTINUOUS
 62
     7
 10
-46.018211
 20
-370.64641
 40
0.75
 50
36.869908
 51
143.13011
  0
ARC
  8
0
  6
CONTINUOUS
 62
     7
 10
-46.018212
 20
-364.64641
 40
0.75
 50
36.869908
 51
143.13011
  0
ARC
  8
0
  6
CONTINUOUS
 62
     7
 10
-46.018212
 20
-366.8941
 40
6.4823079
 50
275.31088
 51
306.00833
  0
ARC
  8
0
  6
CONTINUOUS
 62
     7
 10
-46.018212
 20
-366.8941
 40
7.6823077
 50
274.47946
 51
306.00833
  0
ARC
  8
0
  6
CONTINUOUS
 62
     7
 10
-46.018211
 20
-373.49872
 40
7.6823077
 50
94.479452
 51
126.00833
  0
LINE
  8
0
  6
CONTINUOUS
 62
     7
 10
-66.692033
 20
-541.12653
 11
-66.692033
 21
-539.48306
  0
LINE
  8
0
  6
CONTINUOUS
 62
     7
 10
-65.492033
 20
-541.12653
 11
-65.492033
 21
-539.48306
  0
LINE
  8
0
  6
CONTINUOUS
 62
     7
 10
-65.492034
 20
-530.76999
 11
-65.492034
 21
-529.12653
  0
LINE
  8
0
  6
CONTINUOUS
 62
     7
 10
-66.692034
 20
-530.76999
 11
-66.692034
 21
-529.12653
  0
LINE
  8
0
  6
CONTINUOUS
 62
     7
 10
-65.492033
 20
-538.2787
 11
-65.492033
 21
-535.12653
  0
LINE
  8
0
  6
CONTINUOUS
 62
     7
 10
-66.692033
 20
-538.2787
 11
-66.692033
 21
-535.12653
  0
ARC
  8
0
  6
CONTINUOUS
 62
     7
 10
-68.492033
 20
-535.12653
 40
2.4000001
 50
126.00833
 51
233.99168
  0
ARC
  8
0
  6
CONTINUOUS
 62
     7
 10
-68.492033
 20
-535.12653
 40
3.5999999
 50
126.00833
 51
233.99168
  0
ARC
  8
0
  6
CONTINUOUS
 62
     7
 10
-63.692033
 20
-535.12653
 40
2.4000001
 50
306.00833
 51
53.991686
  0
ARC
  8
0
  6
CONTINUOUS
 62
     7
 10
-63.692033
 20
-535.12653
 40
3.5999999
 50
306.00833
 51
53.991686
  0
ARC
  8
0
  6
CONTINUOUS
 62
     7
 10
-66.092034
 20
-531.82422
 40
7.6823077
 50
233.99168
 51
265.52056
  0
ARC
  8
0
  6
CONTINUOUS
 62
     7
 10
-66.092034
 20
-531.82422
 40
6.4823079
 50
233.99168
 51
264.68913
  0
ARC
  8
0
  6
CONTINUOUS
 62
     7
 10
-66.092033
 20
-538.42883
 40
6.4823079
 50
53.991676
 51
126.00833
  0
ARC
  8
0
  6
CONTINUOUS
 62
     7
 10
-66.092033
 20
-538.42883
 40
7.6823077
 50
53.991676
 51
85.520553
  0
ARC
  8
0
  6
CONTINUOUS
 62
     7
 10
-66.092033
 20
-540.67653
 40
0.75
 50
216.8699
 51
323.1301
  0
ARC
  8
0
  6
CONTINUOUS
 62
     7
 10
-66.092033
 20
-535.57653
 40
0.75
 50
36.869908
 51
143.13011
  0
ARC
  8
0
  6
CONTINUOUS
 62
     7
 10
-66.092034
 20
-529.57653
 40
0.75
 50
36.869908
 51
143.13011
  0
ARC
  8
0
  6
CONTINUOUS
 62
     7
 10
-66.092034
 20
-531.82422
 40
6.4823079
 50
275.31088
 51
306.00833
  0
ARC
  8
0
  6
CONTINUOUS
 62
     7
 10
-66.092034
 20
-531.82422
 40
7.6823077
 50
274.47946
 51
306.00833
  0
ARC
  8
0
  6
CONTINUOUS
 62
     7
 10
-66.092033
 20
-538.42883
 40
7.6823077
 50
94.479452
 51
126.00833
  0
LINE
  8
0
  6
CONTINUOUS
 62
     7
 10
534.27258
 20
-783.96716
 11
534.27258
 21
-781.91283
  0
LINE
  8
0
  6
CONTINUOUS
 62
     7
 10
535.77258
 20
-783.96716
 11
535.77258
 21
-781.91283
  0
LINE
  8
0
  6
CONTINUOUS
 62
     7
 10
535.77258
 20
-771.0215
 11
535.77258
 21
-768.96716
  0
LINE
  8
0
  6
CONTINUOUS
 62
     7
 10
534.27258
 20
-771.0215
 11
534.27258
 21
-768.96716
  0
LINE
  8
0
  6
CONTINUOUS
 62
     7
 10
535.77258
 20
-780.40738
 11
535.77258
 21
-776.46716
  0
LINE
  8
0
  6
CONTINUOUS
 62
     7
 10
534.27258
 20
-780.40738
 11
534.27258
 21
-776.46716
  0
ARC
  8
0
  6
CONTINUOUS
 62
     7
 10
532.02258
 20
-776.46716
 40
3
 50
126.00833
 51
233.99168
  0
ARC
  8
0
  6
CONTINUOUS
 62
     7
 10
532.02258
 20
-776.46716
 40
4.5
 50
126.00833
 51
233.99168
  0
ARC
  8
0
  6
CONTINUOUS
 62
     7
 10
538.02258
 20
-776.46716
 40
3
 50
306.00833
 51
53.991686
  0
ARC
  8
0
  6
CONTINUOUS
 62
     7
 10
538.02258
 20
-776.46716
 40
4.5
 50
306.00833
 51
53.991686
  0
ARC
  8
0
  6
CONTINUOUS
 62
     7
 10
535.02258
 20
-772.33928
 40
9.6028843
 50
233.99168
 51
265.52056
  0
ARC
  8
0
  6
CONTINUOUS
 62
     7
 10
535.02258
 20
-772.33928
 40
8.1028843
 50
233.99168
 51
264.68913
  0
ARC
  8
0
  6
CONTINUOUS
 62
     7
 10
535.02258
 20
-780.59505
 40
8.1028843
 50
53.991676
 51
126.00833
  0
ARC
  8
0
  6
CONTINUOUS
 62
     7
 10
535.02258
 20
-780.59505
 40
9.6028843
 50
53.991676
 51
85.520553
  0
ARC
  8
0
  6
CONTINUOUS
 62
     7
 10
535.02258
 20
-783.40466
 40
0.9375
 50
216.8699
 51
323.1301
  0
ARC
  8
0
  6
CONTINUOUS
 62
     7
 10
535.02258
 20
-777.02966
 40
0.9375
 50
36.869908
 51
143.13011
  0
ARC
  8
0
  6
CONTINUOUS
 62
     7
 10
535.02258
 20
-769.52966
 40
0.9375
 50
36.869908
 51
143.13011
  0
ARC
  8
0
  6
CONTINUOUS
 62
     7
 10
535.02258
 20
-772.33928
 40
9.6028843
 50
274.47946
 51
306.00833
  0
ARC
  8
0
  6
CONTINUOUS
 62
     7
 10
535.02258
 20
-772.33928
 40
8.1028843
 50
275.31088
 51
306.00833
  0
ARC
  8
0
  6
CONTINUOUS
 62
     7
 10
535.02258
 20
-780.59505
 40
9.6028843
 50
94.479452
 51
126.00833
  0
LINE
  8
0
  6
CONTINUOUS
 62
     7
 10
534.27258
 20
-983.23926
 11
534.27258
 21
-981.18493
  0
LINE
  8
0
  6
CONTINUOUS
 62
     7
 10
535.77258
 20
-983.23926
 11
535.77258
 21
-981.18493
  0
LINE
  8
0
  6
CONTINUOUS
 62
     7
 10
535.77258
 20
-970.29359
 11
535.77258
 21
-968.23926
  0
LINE
  8
0
  6
CONTINUOUS
 62
     7
 10
534.27258
 20
-970.29359
 11
534.27258
 21
-968.23926
  0
LINE
  8
0
  6
CONTINUOUS
 62
     7
 10
535.77258
 20
-979.67947
 11
535.77258
 21
-975.73926
  0
LINE
  8
0
  6
CONTINUOUS
 62
     7
 10
534.27258
 20
-979.67947
 11
534.27258
 21
-975.73926
  0
ARC
  8
0
  6
CONTINUOUS
 62
     7
 10
532.02258
 20
-975.73926
 40
3
 50
126.00833
 51
233.99168
  0
ARC
  8
0
  6
CONTINUOUS
 62
     7
 10
532.02258
 20
-975.73926
 40
4.5
 50
126.00833
 51
233.99168
  0
ARC
  8
0
  6
CONTINUOUS
 62
     7
 10
538.02258
 20
-975.73926
 40
3
 50
306.00833
 51
53.991686
  0
ARC
  8
0
  6
CONTINUOUS
 62
     7
 10
538.02258
 20
-975.73926
 40
4.5
 50
306.00833
 51
53.991686
  0
ARC
  8
0
  6
CONTINUOUS
 62
     7
 10
535.02258
 20
-971.61137
 40
9.6028843
 50
233.99168
 51
265.52056
  0
ARC
  8
0
  6
CONTINUOUS
 62
     7
 10
535.02258
 20
-971.61137
 40
8.1028843
 50
233.99168
 51
264.68913
  0
ARC
  8
0
  6
CONTINUOUS
 62
     7
 10
535.02258
 20
-979.86714
 40
8.1028843
 50
53.991676
 51
126.00833
  0
ARC
  8
0
  6
CONTINUOUS
 62
     7
 10
535.02258
 20
-979.86714
 40
9.6028843
 50
53.991676
 51
85.520553
  0
ARC
  8
0
  6
CONTINUOUS
 62
     7
 10
535.02258
 20
-982.67676
 40
0.9375
 50
216.8699
 51
323.1301
  0
ARC
  8
0
  6
CONTINUOUS
 62
     7
 10
535.02258
 20
-976.30176
 40
0.9375
 50
36.869908
 51
143.13011
  0
ARC
  8
0
  6
CONTINUOUS
 62
     7
 10
535.02258
 20
-968.80176
 40
0.9375
 50
36.869908
 51
143.13011
  0
ARC
  8
0
  6
CONTINUOUS
 62
     7
 10
535.02258
 20
-971.61137
 40
9.6028843
 50
274.47946
 51
306.00833
  0
ARC
  8
0
  6
CONTINUOUS
 62
     7
 10
535.02258
 20
-971.61137
 40
8.1028843
 50
275.31088
 51
306.00833
  0
ARC
  8
0
  6
CONTINUOUS
 62
     7
 10
535.02258
 20
-979.86714
 40
9.6028843
 50
94.479452
 51
126.00833
  0
LINE
  8
0
  6
CONTINUOUS
 62
     7
 10
448.74184
 20
81.831093
 11
448.74184
 21
82.652826
  0
LINE
  8
0
  6
CONTINUOUS
 62
     7
 10
449.34184
 20
81.831093
 11
449.34184
 21
82.652826
  0
LINE
  8
0
  6
CONTINUOUS
 62
     7
 10
449.34184
 20
87.00936
 11
449.34184
 21
87.831093
  0
LINE
  8
0
  6
CONTINUOUS
 62
     7
 10
448.74184
 20
87.00936
 11
448.74184
 21
87.831093
  0
LINE
  8
0
  6
CONTINUOUS
 62
     7
 10
449.34184
 20
83.255007
 11
449.34184
 21
84.831093
  0
LINE
  8
0
  6
CONTINUOUS
 62
     7
 10
448.74184
 20
83.255007
 11
448.74184
 21
84.831093
  0
ARC
  8
0
  6
CONTINUOUS
 62
     7
 10
447.84184
 20
84.831093
 40
1.2
 50
126.00833
 51
233.99168
  0
ARC
  8
0
  6
CONTINUOUS
 62
     7
 10
447.84184
 20
84.831093
 40
1.8
 50
126.00833
 51
233.99168
  0
ARC
  8
0
  6
CONTINUOUS
 62
     7
 10
450.24184
 20
84.831093
 40
1.2
 50
306.00833
 51
53.991686
  0
ARC
  8
0
  6
CONTINUOUS
 62
     7
 10
450.24184
 20
84.831093
 40
1.8
 50
306.00833
 51
53.991686
  0
ARC
  8
0
  6
CONTINUOUS
 62
     7
 10
449.04184
 20
86.482247
 40
3.8411539
 50
233.99168
 51
265.52056
  0
ARC
  8
0
  6
CONTINUOUS
 62
     7
 10
449.04184
 20
86.482247
 40
3.241154
 50
233.99168
 51
264.68913
  0
ARC
  8
0
  6
CONTINUOUS
 62
     7
 10
449.04184
 20
83.179939
 40
3.241154
 50
53.991676
 51
126.00833
  0
ARC
  8
0
  6
CONTINUOUS
 62
     7
 10
449.04184
 20
83.179939
 40
3.8411539
 50
53.991676
 51
85.520553
  0
ARC
  8
0
  6
CONTINUOUS
 62
     7
 10
449.04184
 20
82.056093
 40
0.375
 50
216.8699
 51
323.1301
  0
ARC
  8
0
  6
CONTINUOUS
 62
     7
 10
449.04184
 20
84.606093
 40
0.375
 50
36.869908
 51
143.13011
  0
ARC
  8
0
  6
CONTINUOUS
 62
     7
 10
449.04184
 20
87.606093
 40
0.375
 50
36.869908
 51
143.13011
  0
ARC
  8
0
  6
CONTINUOUS
 62
     7
 10
449.04184
 20
83.179939
 40
3.8411539
 50
94.479452
 51
126.00833
  0
ARC
  8
0
  6
CONTINUOUS
 62
     7
 10
449.04184
 20
86.482247
 40
3.241154
 50
275.31088
 51
306.00833
  0
ARC
  8
0
  6
CONTINUOUS
 62
     7
 10
449.04184
 20
86.482247
 40
3.8411539
 50
274.47946
 51
306.00833
  0
LINE
  8
0
  6
CONTINUOUS
 62
     7
 10
670.74183
 20
80.331093
 11
670.74183
 21
81.563693
  0
LINE
  8
0
  6
CONTINUOUS
 62
     7
 10
671.64183
 20
80.331093
 11
671.64183
 21
81.563693
  0
LINE
  8
0
  6
CONTINUOUS
 62
     7
 10
671.64183
 20
88.098493
 11
671.64183
 21
89.331093
  0
LINE
  8
0
  6
CONTINUOUS
 62
     7
 10
670.74183
 20
88.098493
 11
670.74183
 21
89.331093
  0
LINE
  8
0
  6
CONTINUOUS
 62
     7
 10
671.64183
 20
82.466963
 11
671.64183
 21
84.831093
  0
LINE
  8
0
  6
CONTINUOUS
 62
     7
 10
670.74183
 20
82.466964
 11
670.74183
 21
84.831093
  0
ARC
  8
0
  6
CONTINUOUS
 62
     7
 10
669.39183
 20
84.831093
 40
1.8
 50
126.00832
 51
233.99167
  0
ARC
  8
0
  6
CONTINUOUS
 62
     7
 10
669.39183
 20
84.831093
 40
2.7
 50
126.00832
 51
233.99167
  0
ARC
  8
0
  6
CONTINUOUS
 62
     7
 10
672.99183
 20
84.831093
 40
1.8
 50
306.00832
 51
53.991676
  0
ARC
  8
0
  6
CONTINUOUS
 62
     7
 10
672.99183
 20
84.831093
 40
2.7
 50
306.00832
 51
53.991676
  0
ARC
  8
0
  6
CONTINUOUS
 62
     7
 10
671.19183
 20
87.307824
 40
5.7617307
 50
233.99167
 51
265.52055
  0
ARC
  8
0
  6
CONTINUOUS
 62
     7
 10
671.19183
 20
87.307824
 40
4.8617306
 50
233.99167
 51
264.68912
  0
ARC
  8
0
  6
CONTINUOUS
 62
     7
 10
671.19183
 20
82.354362
 40
4.8617306
 50
53.991665
 51
126.00832
  0
ARC
  8
0
  6
CONTINUOUS
 62
     7
 10
671.19183
 20
82.354362
 40
5.7617307
 50
53.991665
 51
85.520543
  0
ARC
  8
0
  6
CONTINUOUS
 62
     7
 10
671.19183
 20
80.668593
 40
0.5625
 50
216.86989
 51
323.13009
  0
ARC
  8
0
  6
CONTINUOUS
 62
     7
 10
671.19183
 20
84.493593
 40
0.5625
 50
36.869898
 51
143.1301
  0
ARC
  8
0
  6
CONTINUOUS
 62
     7
 10
671.19183
 20
88.993593
 40
0.5625
 50
36.869898
 51
143.1301
  0
ARC
  8
0
  6
CONTINUOUS
 62
     7
 10
671.19183
 20
87.307824
 40
5.7617307
 50
274.47945
 51
306.00832
  0
ARC
  8
0
  6
CONTINUOUS
 62
     7
 10
671.19183
 20
87.307824
 40
4.8617306
 50
275.31087
 51
306.00832
  0
ARC
  8
0
  6
CONTINUOUS
 62
     7
 10
671.19183
 20
82.354362
 40
5.7617307
 50
94.479442
 51
126.00832
  0
LINE
  8
0
  6
CONTINUOUS
 62
     7
 10
434.91807
 20
-117.01589
 11
434.91807
 21
-115.78329
  0
LINE
  8
0
  6
CONTINUOUS
 62
     7
 10
435.81807
 20
-117.01589
 11
435.81807
 21
-115.78329
  0
LINE
  8
0
  6
CONTINUOUS
 62
     7
 10
435.81807
 20
-109.24849
 11
435.81807
 21
-108.01589
  0
LINE
  8
0
  6
CONTINUOUS
 62
     7
 10
434.91807
 20
-109.24849
 11
434.91807
 21
-108.01589
  0
LINE
  8
0
  6
CONTINUOUS
 62
     7
 10
435.81807
 20
-114.88002
 11
435.81807
 21
-112.51589
  0
LINE
  8
0
  6
CONTINUOUS
 62
     7
 10
434.91807
 20
-114.88002
 11
434.91807
 21
-112.51589
  0
ARC
  8
0
  6
CONTINUOUS
 62
     7
 10
433.56807
 20
-112.51589
 40
1.8
 50
126.00833
 51
233.99168
  0
ARC
  8
0
  6
CONTINUOUS
 62
     7
 10
433.56807
 20
-112.51589
 40
2.7
 50
126.00833
 51
233.99168
  0
ARC
  8
0
  6
CONTINUOUS
 62
     7
 10
437.16807
 20
-112.51589
 40
1.8
 50
306.00833
 51
53.991686
  0
ARC
  8
0
  6
CONTINUOUS
 62
     7
 10
437.16807
 20
-112.51589
 40
2.7
 50
306.00833
 51
53.991686
  0
ARC
  8
0
  6
CONTINUOUS
 62
     7
 10
435.36807
 20
-110.03916
 40
5.7617307
 50
233.99168
 51
265.52056
  0
ARC
  8
0
  6
CONTINUOUS
 62
     7
 10
435.36807
 20
-110.03916
 40
4.8617306
 50
233.99168
 51
264.68913
  0
ARC
  8
0
  6
CONTINUOUS
 62
     7
 10
435.36807
 20
-114.99262
 40
4.8617306
 50
53.991676
 51
126.00833
  0
ARC
  8
0
  6
CONTINUOUS
 62
     7
 10
435.36807
 20
-114.99262
 40
5.7617307
 50
53.991676
 51
85.520553
  0
ARC
  8
0
  6
CONTINUOUS
 62
     7
 10
435.36807
 20
-116.67839
 40
0.5625
 50
216.8699
 51
323.1301
  0
ARC
  8
0
  6
CONTINUOUS
 62
     7
 10
435.36807
 20
-112.85339
 40
0.5625
 50
36.869908
 51
143.13011
  0
ARC
  8
0
  6
CONTINUOUS
 62
     7
 10
435.36807
 20
-108.35339
 40
0.5625
 50
36.869908
 51
143.13011
  0
ARC
  8
0
  6
CONTINUOUS
 62
     7
 10
435.36807
 20
-110.03916
 40
5.7617307
 50
274.47946
 51
306.00833
  0
ARC
  8
0
  6
CONTINUOUS
 62
     7
 10
435.36807
 20
-110.03916
 40
4.8617306
 50
275.31088
 51
306.00833
  0
ARC
  8
0
  6
CONTINUOUS
 62
     7
 10
435.36807
 20
-114.99262
 40
5.7617307
 50
94.479452
 51
126.00833
  0
LINE
  8
0
  6
CONTINUOUS
 62
     7
 10
692.73319
 20
-120.441
 11
692.73319
 21
-118.79754
  0
LINE
  8
0
  6
CONTINUOUS
 62
     7
 10
693.93319
 20
-120.441
 11
693.93319
 21
-118.79754
  0
LINE
  8
0
  6
CONTINUOUS
 62
     7
 10
693.93319
 20
-110.08447
 11
693.93319
 21
-108.441
  0
LINE
  8
0
  6
CONTINUOUS
 62
     7
 10
692.73319
 20
-110.08447
 11
692.73319
 21
-108.441
  0
LINE
  8
0
  6
CONTINUOUS
 62
     7
 10
693.93319
 20
-117.59317
 11
693.93319
 21
-114.441
  0
LINE
  8
0
  6
CONTINUOUS
 62
     7
 10
692.73319
 20
-117.59317
 11
692.73319
 21
-114.441
  0
ARC
  8
0
  6
CONTINUOUS
 62
     7
 10
690.93319
 20
-114.441
 40
2.4000001
 50
126.00833
 51
233.99168
  0
ARC
  8
0
  6
CONTINUOUS
 62
     7
 10
690.93319
 20
-114.441
 40
3.5999999
 50
126.00833
 51
233.99168
  0
ARC
  8
0
  6
CONTINUOUS
 62
     7
 10
695.73319
 20
-114.441
 40
2.4000001
 50
306.00833
 51
53.991686
  0
ARC
  8
0
  6
CONTINUOUS
 62
     7
 10
695.73319
 20
-114.441
 40
3.5999999
 50
306.00833
 51
53.991686
  0
ARC
  8
0
  6
CONTINUOUS
 62
     7
 10
693.33319
 20
-111.13869
 40
7.6823077
 50
233.99168
 51
265.52056
  0
ARC
  8
0
  6
CONTINUOUS
 62
     7
 10
693.33319
 20
-111.13869
 40
6.4823079
 50
233.99168
 51
264.68913
  0
ARC
  8
0
  6
CONTINUOUS
 62
     7
 10
693.33319
 20
-117.74331
 40
6.4823079
 50
53.991676
 51
126.00833
  0
ARC
  8
0
  6
CONTINUOUS
 62
     7
 10
693.33319
 20
-117.74331
 40
7.6823077
 50
53.991676
 51
85.520553
  0
ARC
  8
0
  6
CONTINUOUS
 62
     7
 10
693.33319
 20
-119.991
 40
0.75
 50
216.8699
 51
323.1301
  0
ARC
  8
0
  6
CONTINUOUS
 62
     7
 10
693.33319
 20
-114.891
 40
0.75
 50
36.869908
 51
143.13011
  0
ARC
  8
0
  6
CONTINUOUS
 62
     7
 10
693.33319
 20
-108.891
 40
0.75
 50
36.869908
 51
143.13011
  0
ARC
  8
0
  6
CONTINUOUS
 62
     7
 10
693.33319
 20
-111.13869
 40
6.4823079
 50
275.31088
 51
306.00833
  0
ARC
  8
0
  6
CONTINUOUS
 62
     7
 10
693.33319
 20
-111.13869
 40
7.6823077
 50
274.47946
 51
306.00833
  0
ARC
  8
0
  6
CONTINUOUS
 62
     7
 10
693.33319
 20
-117.74331
 40
7.6823077
 50
94.479452
 51
126.00833
  0
LINE
  8
0
  6
CONTINUOUS
 62
     7
 10
556.56388
 20
-350.71097
 11
556.56388
 21
-349.0675
  0
LINE
  8
0
  6
CONTINUOUS
 62
     7
 10
557.76388
 20
-350.71097
 11
557.76388
 21
-349.0675
  0
LINE
  8
0
  6
CONTINUOUS
 62
     7
 10
557.76388
 20
-340.35443
 11
557.76388
 21
-338.71097
  0
LINE
  8
0
  6
CONTINUOUS
 62
     7
 10
556.56388
 20
-340.35443
 11
556.56388
 21
-338.71097
  0
LINE
  8
0
  6
CONTINUOUS
 62
     7
 10
557.76388
 20
-347.86314
 11
557.76388
 21
-344.71097
  0
LINE
  8
0
  6
CONTINUOUS
 62
     7
 10
556.56388
 20
-347.86314
 11
556.56388
 21
-344.71097
  0
ARC
  8
0
  6
CONTINUOUS
 62
     7
 10
554.76388
 20
-344.71097
 40
2.4000001
 50
126.00833
 51
233.99168
  0
ARC
  8
0
  6
CONTINUOUS
 62
     7
 10
554.76388
 20
-344.71097
 40
3.5999999
 50
126.00833
 51
233.99168
  0
ARC
  8
0
  6
CONTINUOUS
 62
     7
 10
559.56388
 20
-344.71097
 40
2.4000001
 50
306.00833
 51
53.991686
  0
ARC
  8
0
  6
CONTINUOUS
 62
     7
 10
559.56388
 20
-344.71097
 40
3.5999999
 50
306.00833
 51
53.991686
  0
ARC
  8
0
  6
CONTINUOUS
 62
     7
 10
557.16388
 20
-341.40866
 40
7.6823077
 50
233.99168
 51
265.52056
  0
ARC
  8
0
  6
CONTINUOUS
 62
     7
 10
557.16388
 20
-341.40866
 40
6.4823079
 50
233.99168
 51
264.68913
  0
ARC
  8
0
  6
CONTINUOUS
 62
     7
 10
557.16388
 20
-348.01328
 40
6.4823079
 50
53.991676
 51
126.00833
  0
ARC
  8
0
  6
CONTINUOUS
 62
     7
 10
557.16388
 20
-348.01328
 40
7.6823077
 50
53.991676
 51
85.520553
  0
ARC
  8
0
  6
CONTINUOUS
 62
     7
 10
557.16388
 20
-350.26097
 40
0.75
 50
216.8699
 51
323.1301
  0
ARC
  8
0
  6
CONTINUOUS
 62
     7
 10
557.16388
 20
-345.16097
 40
0.75
 50
36.869908
 51
143.13011
  0
ARC
  8
0
  6
CONTINUOUS
 62
     7
 10
557.16388
 20
-339.16097
 40
0.75
 50
36.869908
 51
143.13011
  0
ARC
  8
0
  6
CONTINUOUS
 62
     7
 10
557.16388
 20
-341.40866
 40
6.4823079
 50
275.31088
 51
306.00833
  0
ARC
  8
0
  6
CONTINUOUS
 62
     7
 10
557.16388
 20
-341.40866
 40
7.6823077
 50
274.47946
 51
306.00833
  0
ARC
  8
0
  6
CONTINUOUS
 62
     7
 10
557.16388
 20
-348.01328
 40
7.6823077
 50
94.479452
 51
126.00833
  0
LINE
  8
0
  6
CONTINUOUS
 62
     7
 10
565.42045
 20
-541.12653
 11
565.42045
 21
-539.48306
  0
LINE
  8
0
  6
CONTINUOUS
 62
     7
 10
566.62045
 20
-541.12653
 11
566.62045
 21
-539.48306
  0
LINE
  8
0
  6
CONTINUOUS
 62
     7
 10
566.62045
 20
-530.76999
 11
566.62045
 21
-529.12653
  0
LINE
  8
0
  6
CONTINUOUS
 62
     7
 10
565.42045
 20
-530.76999
 11
565.42045
 21
-529.12653
  0
LINE
  8
0
  6
CONTINUOUS
 62
     7
 10
566.62045
 20
-538.2787
 11
566.62045
 21
-535.12653
  0
LINE
  8
0
  6
CONTINUOUS
 62
     7
 10
565.42045
 20
-538.2787
 11
565.42045
 21
-535.12653
  0
ARC
  8
0
  6
CONTINUOUS
 62
     7
 10
563.62045
 20
-535.12653
 40
2.4000001
 50
126.00833
 51
233.99168
  0
ARC
  8
0
  6
CONTINUOUS
 62
     7
 10
563.62045
 20
-535.12653
 40
3.5999999
 50
126.00833
 51
233.99168
  0
ARC
  8
0
  6
CONTINUOUS
 62
     7
 10
568.42045
 20
-535.12653
 40
2.4000001
 50
306.00833
 51
53.991686
  0
ARC
  8
0
  6
CONTINUOUS
 62
     7
 10
568.42045
 20
-535.12653
 40
3.5999999
 50
306.00833
 51
53.991686
  0
ARC
  8
0
  6
CONTINUOUS
 62
     7
 10
566.02045
 20
-531.82422
 40
7.6823077
 50
233.99168
 51
265.52056
  0
ARC
  8
0
  6
CONTINUOUS
 62
     7
 10
566.02045
 20
-531.82422
 40
6.4823079
 50
233.99168
 51
264.68913
  0
ARC
  8
0
  6
CONTINUOUS
 62
     7
 10
566.02045
 20
-538.42883
 40
6.4823079
 50
53.991676
 51
126.00833
  0
ARC
  8
0
  6
CONTINUOUS
 62
     7
 10
566.02045
 20
-538.42883
 40
7.6823077
 50
53.991676
 51
85.520553
  0
ARC
  8
0
  6
CONTINUOUS
 62
     7
 10
566.02045
 20
-540.67653
 40
0.75
 50
216.8699
 51
323.1301
  0
ARC
  8
0
  6
CONTINUOUS
 62
     7
 10
566.02045
 20
-535.57653
 40
0.75
 50
36.869908
 51
143.13011
  0
ARC
  8
0
  6
CONTINUOUS
 62
     7
 10
566.02045
 20
-529.57653
 40
0.75
 50
36.869908
 51
143.13011
  0
ARC
  8
0
  6
CONTINUOUS
 62
     7
 10
566.02045
 20
-531.82422
 40
6.4823079
 50
275.31088
 51
306.00833
  0
ARC
  8
0
  6
CONTINUOUS
 62
     7
 10
566.02045
 20
-531.82422
 40
7.6823077
 50
274.47946
 51
306.00833
  0
ARC
  8
0
  6
CONTINUOUS
 62
     7
 10
566.02045
 20
-538.42883
 40
7.6823077
 50
94.479452
 51
126.00833
  0
ENDSEC
  0
EOF
