  0
SECTION
  2
HEADER
  9
$EXTMAX
 10
297
 20
210
  9
$EXTMIN
 10
-297
 20
-210
  0
ENDSEC
  0
SECTION
  2
TABLES
  0
TABLE
  2
LTYPE
 70
    22
  0
LTYPE
  2
CONTINUOUS
 70
    64
  3
Solid line
 72
    65
 73
     0
 40
0.000000
  0
LTYPE
  2
DASHED
 70
    64
  3
__ __ __ __ __ __ __ __ __ __ __ __ __ __ __
 72
    65
 73
     2
 40
3.500000
 49
2.000000
 49
-1.500000
  0
LTYPE
  2
CENTER
 70
    64
  3
____ _ ____ _ ____ _ ____ _ ____ _ ____ _ ____
 72
    65
 73
     4
 40
17.500000
 49
13.000000
 49
-1.500000
 49
1.500000
 49
-1.500000
  0
LTYPE
  2
PHANTOM
 70
    64
  3
_____ _ _ _____ _ _ _____ _ _ _____ _ _ ____  
 72
    65
 73
     6
 40
15.500000
 49
8.000000
 49
-1.500000
 49
1.500000
 49
-1.500000
 49
1.500000
 49
-1.500000
  0
LTYPE
  2
DOT
 70
    64
  3
. . . . . . . . . . . . . . . . . . . . . . . .
 72
    65
 73
     2
 40
0.25
 49
0.0
 49
-0.25
  0
ENDTAB
  0
TABLE
  2
LAYER
 70
     1
  0
LAYER
  2
0
 70
     0
 62
     7
  6
CONTINUOUS
  0
ENDTAB
  0
TABLE
  2
STYLE
 70
     1
  0
STYLE
  2
STANDARD
 70
     0
 40
0.000000
 41
1.000000
 50
0.000000
 71
     0
 42
0.200000
  3
txt
  4
BIGFONT
  0
ENDTAB
  0
TABLE
  2
VIEW
 70
     0
  0
ENDTAB
  0
ENDSEC
  0
SECTION
  2
BLOCKS
  0
ENDSEC
  0
SECTION
  2
ENTITIES
  0
POINT
  8
0
  6
CONTINUOUS
 62
     7
 10
-192.15289
 20
89.671349
  0
POINT
  8
0
  6
CONTINUOUS
 62
     7
 10
79.92527
 20
91.052452
  0
POINT
  8
0
  6
CONTINUOUS
 62
     7
 10
-190.32288
 20
-96.991463
  0
POINT
  8
0
  6
CONTINUOUS
 62
     7
 10
-166.53252
 20
-536.19806
  0
POINT
  8
0
  6
CONTINUOUS
 62
     7
 10
-164.70248
 20
-358.68539
  0
POINT
  8
0
  6
CONTINUOUS
 62
     7
 10
93.011292
 20
-101.32149
  0
POINT
  8
0
  6
CONTINUOUS
 62
     7
 10
-82.312752
 20
89.671349
  0
POINT
  8
0
  6
CONTINUOUS
 62
     7
 10
197.3194
 20
91.052452
  0
POINT
  8
0
  6
CONTINUOUS
 62
     7
 10
238.7547
 20
-101.32149
  0
POINT
  8
0
  6
CONTINUOUS
 62
     7
 10
-66.37484
 20
-96.991463
  0
POINT
  8
0
  6
CONTINUOUS
 62
     7
 10
-34.961708
 20
-358.68539
  0
POINT
  8
0
  6
CONTINUOUS
 62
     7
 10
-17.705149
 20
-536.19806
  0
POINT
  8
0
  6
CONTINUOUS
 62
     7
 10
-82.312752
 20
89.671349
  0
POINT
  8
0
  6
CONTINUOUS
 62
     7
 10
238.7547
 20
-101.32149
  0
POINT
  8
0
  6
CONTINUOUS
 62
     7
 10
197.3194
 20
91.052452
  0
POINT
  8
0
  6
CONTINUOUS
 62
     7
 10
-34.961708
 20
-358.68539
  0
POINT
  8
0
  6
CONTINUOUS
 62
     7
 10
694.49255
 20
-86.011299
  0
POINT
  8
0
  6
CONTINUOUS
 62
     7
 10
409.10178
 20
88.313805
  0
POINT
  8
0
  6
CONTINUOUS
 62
     7
 10
699.56061
 20
84.011299
  0
POINT
  8
0
  6
CONTINUOUS
 62
     7
 10
453.09726
 20
-324.92767
  0
POINT
  8
0
  6
CONTINUOUS
 62
     7
 10
461.88751
 20
-516.7149
  0
POINT
  8
0
  6
CONTINUOUS
 62
     7
 10
412.24847
 20
-90.647316
  0
POINT
  8
0
  6
CONTINUOUS
 62
     7
 10
529.10181
 20
88.313805
  0
POINT
  8
0
  6
CONTINUOUS
 62
     7
 10
819.56061
 20
84.011299
  0
POINT
  8
0
  6
CONTINUOUS
 62
     7
 10
552.24847
 20
-90.647316
  0
POINT
  8
0
  6
CONTINUOUS
 62
     7
 10
834.49255
 20
-86.011299
  0
POINT
  8
0
  6
CONTINUOUS
 62
     7
 10
593.09729
 20
-324.92767
  0
POINT
  8
0
  6
CONTINUOUS
 62
     7
 10
621.88751
 20
-516.7149
  0
POINT
  8
0
  6
CONTINUOUS
 62
     7
 10
353.60178
 20
88.313805
  0
POINT
  8
0
  6
CONTINUOUS
 62
     7
 10
464.60178
 20
88.313805
  0
POINT
  8
0
  6
CONTINUOUS
 62
     7
 10
464.60178
 20
88.313805
  0
POINT
  8
0
  6
CONTINUOUS
 62
     7
 10
353.60178
 20
88.313805
  0
POINT
  8
0
  6
CONTINUOUS
 62
     7
 10
640.56061
 20
84.011299
  0
POINT
  8
0
  6
CONTINUOUS
 62
     7
 10
758.56061
 20
84.011299
  0
POINT
  8
0
  6
CONTINUOUS
 62
     7
 10
350.24847
 20
-90.647316
  0
POINT
  8
0
  6
CONTINUOUS
 62
     7
 10
474.24847
 20
-90.647316
  0
POINT
  8
0
  6
CONTINUOUS
 62
     7
 10
628.99261
 20
-86.011299
  0
POINT
  8
0
  6
CONTINUOUS
 62
     7
 10
759.99255
 20
-86.011299
  0
POINT
  8
0
  6
CONTINUOUS
 62
     7
 10
388.38751
 20
-516.7149
  0
POINT
  8
0
  6
CONTINUOUS
 62
     7
 10
535.38751
 20
-516.7149
  0
POINT
  8
0
  6
CONTINUOUS
 62
     7
 10
388.38751
 20
-516.7149
  0
POINT
  8
0
  6
CONTINUOUS
 62
     7
 10
535.38751
 20
-516.7149
  0
LINE
  8
0
  6
CENTER
 62
     7
 10
-255.48415
 20
89.671349
 11
-128.43416
 21
89.671349
  0
LINE
  8
0
  6
CENTER
 62
     7
 10
-192.15289
 20
108.85912
 11
-192.15289
 21
70.849129
  0
LINE
  8
0
  6
CONTINUOUS
 62
     7
 10
-188.1049
 20
106.17096
 11
-162.78151
 21
105.22578
  0
LINE
  8
0
  6
CONTINUOUS
 62
     7
 10
-196.1769
 20
106.17134
 11
-188.12891
 21
106.17134
  0
LINE
  8
0
  6
CONTINUOUS
 62
     7
 10
-196.20091
 20
106.17097
 11
-221.52431
 21
105.2258
  0
LINE
  8
0
  6
CONTINUOUS
 62
     7
 10
-196.2009
 20
73.17173
 11
-221.52429
 21
74.116905
  0
LINE
  8
0
  6
CONTINUOUS
 62
     7
 10
-196.1769
 20
73.171349
 11
-188.12891
 21
73.171349
  0
LINE
  8
0
  6
CONTINUOUS
 62
     7
 10
-188.10492
 20
73.17173
 11
-162.78151
 21
74.116905
  0
LINE
  8
0
  6
CONTINUOUS
 62
     7
 10
-188.15289
 20
90.671349
 11
-188.15289
 21
88.671349
  0
LINE
  8
0
  6
CONTINUOUS
 62
     7
 10
-196.15289
 20
90.671349
 11
-196.15289
 21
88.671349
  0
LINE
  8
0
  6
CONTINUOUS
 62
     7
 10
-182.15289
 20
90.671349
 11
-182.15289
 21
88.671349
  0
LINE
  8
0
  6
CONTINUOUS
 62
     7
 10
-202.15289
 20
90.671349
 11
-202.15289
 21
88.671349
  0
LINE
  8
0
  6
CONTINUOUS
 62
     7
 10
-202.15289
 20
90.671349
 11
-196.15289
 21
90.671349
  0
LINE
  8
0
  6
CONTINUOUS
 62
     7
 10
-202.15289
 20
88.671349
 11
-196.15289
 21
88.671349
  0
LINE
  8
0
  6
CONTINUOUS
 62
     7
 10
-188.15289
 20
90.671349
 11
-182.15289
 21
90.671349
  0
LINE
  8
0
  6
CONTINUOUS
 62
     7
 10
-188.15289
 20
88.671349
 11
-182.15289
 21
88.671349
  0
LINE
  8
0
  6
CONTINUOUS
 62
     7
 10
-141.40291
 20
108.67134
 11
-141.40291
 21
70.671349
  0
LINE
  8
0
  6
CONTINUOUS
 62
     7
 10
-156.90289
 20
110.67134
 11
-143.40291
 21
110.67134
  0
LINE
  8
0
  6
CONTINUOUS
 62
     7
 10
-156.90289
 20
68.671349
 11
-143.40291
 21
68.671349
  0
LINE
  8
0
  6
CONTINUOUS
 62
     7
 10
-158.90289
 20
108.67134
 11
-158.90289
 21
70.671349
  0
LINE
  8
0
  6
CONTINUOUS
 62
     7
 10
-157.90289
 20
98.369827
 11
-142.40291
 21
98.369827
  0
LINE
  8
0
  6
CONTINUOUS
 62
     7
 10
-157.90289
 20
80.972862
 11
-142.40291
 21
80.972862
  0
LINE
  8
0
  6
CONTINUOUS
 62
     7
 10
-156.90291
 20
110.67134
 11
-158.90291
 21
108.67134
  0
LINE
  8
0
  6
CONTINUOUS
 62
     7
 10
-143.40291
 20
110.67136
 11
-141.40291
 21
108.67136
  0
LINE
  8
0
  6
CONTINUOUS
 62
     7
 10
-141.40291
 20
70.671356
 11
-143.40292
 21
68.671356
  0
LINE
  8
0
  6
CONTINUOUS
 62
     7
 10
-158.90291
 20
70.671349
 11
-156.90291
 21
68.671341
  0
LINE
  8
0
  6
CONTINUOUS
 62
     7
 10
-242.90291
 20
108.67134
 11
-242.90291
 21
70.671349
  0
LINE
  8
0
  6
CONTINUOUS
 62
     7
 10
-227.40289
 20
110.67134
 11
-240.90291
 21
110.67134
  0
LINE
  8
0
  6
CONTINUOUS
 62
     7
 10
-227.40289
 20
68.671349
 11
-240.90291
 21
68.671349
  0
LINE
  8
0
  6
CONTINUOUS
 62
     7
 10
-225.40289
 20
108.67134
 11
-225.40289
 21
70.671349
  0
LINE
  8
0
  6
CONTINUOUS
 62
     7
 10
-226.40289
 20
98.369827
 11
-241.90291
 21
98.369827
  0
LINE
  8
0
  6
CONTINUOUS
 62
     7
 10
-226.40289
 20
80.972862
 11
-241.90291
 21
80.972862
  0
LINE
  8
0
  6
CONTINUOUS
 62
     7
 10
-227.40291
 20
110.67136
 11
-225.40289
 21
108.67135
  0
LINE
  8
0
  6
CONTINUOUS
 62
     7
 10
-240.90289
 20
110.67133
 11
-242.90289
 21
108.67133
  0
LINE
  8
0
  6
CONTINUOUS
 62
     7
 10
-242.90292
 20
70.671356
 11
-240.90291
 21
68.671356
  0
LINE
  8
0
  6
CONTINUOUS
 62
     7
 10
-225.40291
 20
70.671364
 11
-227.40291
 21
68.671371
  0
LINE
  8
0
  6
CENTER
 62
     7
 10
79.92527
 20
114.81746
 11
79.92527
 21
68.617455
  0
LINE
  8
0
  6
CENTER
 62
     7
 10
11.675267
 20
91.052452
 11
145.55026
 21
91.052452
  0
LINE
  8
0
  6
CONTINUOUS
 62
     7
 10
75.866699
 20
110.55246
 11
83.983841
 21
110.55246
  0
LINE
  8
0
  6
CONTINUOUS
 62
     7
 10
83.925262
 20
110.55473
 11
112.33755
 21
109.44488
  0
LINE
  8
0
  6
CONTINUOUS
 62
     7
 10
75.92527
 20
110.55474
 11
47.512981
 21
109.44489
  0
LINE
  8
0
  6
CONTINUOUS
 62
     7
 10
75.92527
 20
71.550171
 11
47.512978
 21
72.660027
  0
LINE
  8
0
  6
CONTINUOUS
 62
     7
 10
75.866699
 20
71.552452
 11
83.983841
 21
71.552452
  0
LINE
  8
0
  6
CONTINUOUS
 62
     7
 10
83.925262
 20
71.550163
 11
112.33755
 21
72.660019
  0
LINE
  8
0
  6
CONTINUOUS
 62
     7
 10
84.92527
 20
93.05246
 11
84.92527
 21
89.052452
  0
LINE
  8
0
  6
CONTINUOUS
 62
     7
 10
74.92527
 20
93.05246
 11
74.92527
 21
89.052452
  0
LINE
  8
0
  6
CONTINUOUS
 62
     7
 10
68.92527
 20
89.052452
 11
74.92527
 21
89.052452
  0
LINE
  8
0
  6
CONTINUOUS
 62
     7
 10
68.92527
 20
93.05246
 11
74.92527
 21
93.05246
  0
LINE
  8
0
  6
CONTINUOUS
 62
     7
 10
68.92527
 20
93.05246
 11
68.92527
 21
89.052452
  0
LINE
  8
0
  6
CONTINUOUS
 62
     7
 10
90.92527
 20
93.05246
 11
90.92527
 21
89.052452
  0
LINE
  8
0
  6
CONTINUOUS
 62
     7
 10
84.92527
 20
93.05246
 11
90.92527
 21
93.05246
  0
LINE
  8
0
  6
CONTINUOUS
 62
     7
 10
84.92527
 20
89.052452
 11
90.92527
 21
89.052452
  0
LINE
  8
0
  6
CONTINUOUS
 62
     7
 10
134.42526
 20
113.55246
 11
134.42526
 21
68.552452
  0
LINE
  8
0
  6
CONTINUOUS
 62
     7
 10
115.92527
 20
113.55246
 11
115.92527
 21
68.552452
  0
LINE
  8
0
  6
CONTINUOUS
 62
     7
 10
117.92527
 20
115.55246
 11
132.42526
 21
115.55246
  0
LINE
  8
0
  6
CONTINUOUS
 62
     7
 10
117.92527
 20
66.552452
 11
132.42526
 21
66.552452
  0
LINE
  8
0
  6
CONTINUOUS
 62
     7
 10
115.92526
 20
113.55244
 11
117.92526
 21
115.55244
  0
LINE
  8
0
  6
CONTINUOUS
 62
     7
 10
117.92525
 20
66.552444
 11
115.92525
 21
68.552444
  0
LINE
  8
0
  6
CONTINUOUS
 62
     7
 10
132.42526
 20
115.55245
 11
134.42526
 21
113.55245
  0
LINE
  8
0
  6
CONTINUOUS
 62
     7
 10
134.42526
 20
68.552452
 11
132.42526
 21
66.552452
  0
LINE
  8
0
  6
CONTINUOUS
 62
     7
 10
116.92527
 20
101.19357
 11
133.42526
 21
101.19357
  0
LINE
  8
0
  6
CONTINUOUS
 62
     7
 10
116.92527
 20
80.911339
 11
133.42526
 21
80.911339
  0
LINE
  8
0
  6
CONTINUOUS
 62
     7
 10
25.425268
 20
113.55246
 11
25.425268
 21
68.552452
  0
LINE
  8
0
  6
CONTINUOUS
 62
     7
 10
43.925266
 20
113.55246
 11
43.925266
 21
68.552452
  0
LINE
  8
0
  6
CONTINUOUS
 62
     7
 10
41.925266
 20
115.55246
 11
27.425268
 21
115.55246
  0
LINE
  8
0
  6
CONTINUOUS
 62
     7
 10
41.925266
 20
66.552452
 11
27.425268
 21
66.552452
  0
LINE
  8
0
  6
CONTINUOUS
 62
     7
 10
43.925274
 20
113.55245
 11
41.92527
 21
115.55245
  0
LINE
  8
0
  6
CONTINUOUS
 62
     7
 10
41.925262
 20
66.552452
 11
43.925266
 21
68.55246
  0
LINE
  8
0
  6
CONTINUOUS
 62
     7
 10
27.425266
 20
115.55245
 11
25.42527
 21
113.55245
  0
LINE
  8
0
  6
CONTINUOUS
 62
     7
 10
25.425272
 20
68.552452
 11
27.425262
 21
66.55246
  0
LINE
  8
0
  6
CONTINUOUS
 62
     7
 10
42.925266
 20
101.19357
 11
26.425268
 21
101.19357
  0
LINE
  8
0
  6
CONTINUOUS
 62
     7
 10
42.925266
 20
80.911339
 11
26.425268
 21
80.911339
  0
LINE
  8
0
  6
CENTER
 62
     7
 10
-259.15689
 20
-96.991463
 11
-121.91857
 21
-96.991463
  0
LINE
  8
0
  6
CENTER
 62
     7
 10
-190.32288
 20
-70.391457
 11
-190.32288
 21
-123.94146
  0
LINE
  8
0
  6
CONTINUOUS
 62
     7
 10
-186.26039
 20
-73.491455
 11
-154.90028
 21
-74.611465
  0
LINE
  8
0
  6
CONTINUOUS
 62
     7
 10
-194.38536
 20
-73.491463
 11
-186.26039
 21
-73.491463
  0
LINE
  8
0
  6
CONTINUOUS
 62
     7
 10
-194.38536
 20
-73.49147
 11
-225.74547
 21
-74.611473
  0
LINE
  8
0
  6
CONTINUOUS
 62
     7
 10
-194.38536
 20
-120.49146
 11
-225.74547
 21
-119.37145
  0
LINE
  8
0
  6
CONTINUOUS
 62
     7
 10
-194.38536
 20
-120.49146
 11
-186.26039
 21
-120.49146
  0
LINE
  8
0
  6
CONTINUOUS
 62
     7
 10
-186.26039
 20
-120.49146
 11
-154.9003
 21
-119.37146
  0
LINE
  8
0
  6
CONTINUOUS
 62
     7
 10
-184.82288
 20
-94.491463
 11
-184.82288
 21
-99.491463
  0
LINE
  8
0
  6
CONTINUOUS
 62
     7
 10
-195.82288
 20
-94.491463
 11
-195.82288
 21
-99.491463
  0
LINE
  8
0
  6
CONTINUOUS
 62
     7
 10
-177.82288
 20
-94.491463
 11
-177.82288
 21
-99.491463
  0
LINE
  8
0
  6
CONTINUOUS
 62
     7
 10
-202.82288
 20
-94.491463
 11
-202.82288
 21
-99.491463
  0
LINE
  8
0
  6
CONTINUOUS
 62
     7
 10
-202.82288
 20
-94.491463
 11
-195.82288
 21
-94.491463
  0
LINE
  8
0
  6
CONTINUOUS
 62
     7
 10
-202.82288
 20
-99.491463
 11
-195.82288
 21
-99.491463
  0
LINE
  8
0
  6
CONTINUOUS
 62
     7
 10
-184.82288
 20
-94.491463
 11
-177.82288
 21
-94.491463
  0
LINE
  8
0
  6
CONTINUOUS
 62
     7
 10
-184.82288
 20
-99.491463
 11
-177.82288
 21
-99.491463
  0
LINE
  8
0
  6
CONTINUOUS
 62
     7
 10
-132.82288
 20
-70.391457
 11
-132.82288
 21
-123.94146
  0
LINE
  8
0
  6
CONTINUOUS
 62
     7
 10
-132.82288
 20
-69.991463
 11
-132.82288
 21
-123.99146
  0
LINE
  8
0
  6
CONTINUOUS
 62
     7
 10
-151.32288
 20
-69.991463
 11
-151.32288
 21
-123.99146
  0
LINE
  8
0
  6
CONTINUOUS
 62
     7
 10
-149.32288
 20
-125.99146
 11
-134.82288
 21
-125.99146
  0
LINE
  8
0
  6
CONTINUOUS
 62
     7
 10
-149.32288
 20
-67.991463
 11
-134.82288
 21
-67.991463
  0
LINE
  8
0
  6
CONTINUOUS
 62
     7
 10
-151.32288
 20
-69.991463
 11
-149.32289
 21
-67.99147
  0
LINE
  8
0
  6
CONTINUOUS
 62
     7
 10
-134.82288
 20
-67.991463
 11
-132.82286
 21
-69.991463
  0
LINE
  8
0
  6
CONTINUOUS
 62
     7
 10
-151.32288
 20
-123.99146
 11
-149.32288
 21
-125.99146
  0
LINE
  8
0
  6
CONTINUOUS
 62
     7
 10
-134.82288
 20
-125.99146
 11
-132.82288
 21
-123.99146
  0
LINE
  8
0
  6
CONTINUOUS
 62
     7
 10
-150.32288
 20
-84.979271
 11
-133.82288
 21
-84.979271
  0
LINE
  8
0
  6
CONTINUOUS
 62
     7
 10
-150.32288
 20
-109.00365
 11
-133.82288
 21
-109.00365
  0
LINE
  8
0
  6
CONTINUOUS
 62
     7
 10
-247.82288
 20
-70.391457
 11
-247.82288
 21
-123.94146
  0
LINE
  8
0
  6
CONTINUOUS
 62
     7
 10
-247.82288
 20
-69.991463
 11
-247.82288
 21
-123.99146
  0
LINE
  8
0
  6
CONTINUOUS
 62
     7
 10
-229.32288
 20
-69.991463
 11
-229.32288
 21
-123.99146
  0
LINE
  8
0
  6
CONTINUOUS
 62
     7
 10
-231.32288
 20
-125.99146
 11
-245.82288
 21
-125.99146
  0
LINE
  8
0
  6
CONTINUOUS
 62
     7
 10
-231.32288
 20
-67.991463
 11
-245.82288
 21
-67.991463
  0
LINE
  8
0
  6
CONTINUOUS
 62
     7
 10
-229.32288
 20
-69.991455
 11
-231.32288
 21
-67.991455
  0
LINE
  8
0
  6
CONTINUOUS
 62
     7
 10
-245.82288
 20
-67.991463
 11
-247.82286
 21
-69.991455
  0
LINE
  8
0
  6
CONTINUOUS
 62
     7
 10
-229.32286
 20
-123.99146
 11
-231.32286
 21
-125.99146
  0
LINE
  8
0
  6
CONTINUOUS
 62
     7
 10
-245.82288
 20
-125.99147
 11
-247.82288
 21
-123.99146
  0
LINE
  8
0
  6
CONTINUOUS
 62
     7
 10
-230.32288
 20
-84.979271
 11
-246.82288
 21
-84.979271
  0
LINE
  8
0
  6
CONTINUOUS
 62
     7
 10
-230.32288
 20
-109.00365
 11
-246.82288
 21
-109.00365
  0
LINE
  8
0
  6
CENTER
 62
     7
 10
93.011292
 20
-68.44706
 11
93.011292
 21
-137.39706
  0
LINE
  8
0
  6
CENTER
 62
     7
 10
19.51897
 20
-101.32149
 11
165.35477
 21
-101.32149
  0
LINE
  8
0
  6
CONTINUOUS
 62
     7
 10
88.953758
 20
-73.571487
 11
97.068848
 21
-73.571487
  0
LINE
  8
0
  6
CONTINUOUS
 62
     7
 10
97.068855
 20
-73.571487
 11
131.5834
 21
-74.706833
  0
LINE
  8
0
  6
CONTINUOUS
 62
     7
 10
88.953743
 20
-73.571495
 11
54.439209
 21
-74.706841
  0
LINE
  8
0
  6
CONTINUOUS
 62
     7
 10
88.953758
 20
-129.0715
 11
54.439224
 21
-127.93615
  0
LINE
  8
0
  6
CONTINUOUS
 62
     7
 10
88.953758
 20
-129.07149
 11
97.068848
 21
-129.07149
  0
LINE
  8
0
  6
CONTINUOUS
 62
     7
 10
97.068848
 20
-129.07149
 11
131.58339
 21
-127.93614
  0
LINE
  8
0
  6
CONTINUOUS
 62
     7
 10
100.01129
 20
-98.821487
 11
100.01129
 21
-103.82149
  0
LINE
  8
0
  6
CONTINUOUS
 62
     7
 10
86.011299
 20
-98.821487
 11
86.011299
 21
-103.82149
  0
LINE
  8
0
  6
CONTINUOUS
 62
     7
 10
79.011299
 20
-98.821487
 11
79.011299
 21
-103.82149
  0
LINE
  8
0
  6
CONTINUOUS
 62
     7
 10
107.01129
 20
-98.821487
 11
107.01129
 21
-103.82149
  0
LINE
  8
0
  6
CONTINUOUS
 62
     7
 10
79.011299
 20
-98.821487
 11
86.011299
 21
-98.821487
  0
LINE
  8
0
  6
CONTINUOUS
 62
     7
 10
79.011299
 20
-103.82149
 11
86.011299
 21
-103.82149
  0
LINE
  8
0
  6
CONTINUOUS
 62
     7
 10
100.01129
 20
-98.821487
 11
107.01129
 21
-98.821487
  0
LINE
  8
0
  6
CONTINUOUS
 62
     7
 10
100.01129
 20
-103.82149
 11
107.01129
 21
-103.82149
  0
LINE
  8
0
  6
CONTINUOUS
 62
     7
 10
154.01129
 20
-70.321487
 11
154.01129
 21
-132.32149
  0
LINE
  8
0
  6
CONTINUOUS
 62
     7
 10
135.01129
 20
-70.321487
 11
135.01129
 21
-132.32149
  0
LINE
  8
0
  6
CONTINUOUS
 62
     7
 10
137.01129
 20
-68.321487
 11
152.01129
 21
-68.321487
  0
LINE
  8
0
  6
CONTINUOUS
 62
     7
 10
137.01129
 20
-134.32149
 11
152.01129
 21
-134.32149
  0
LINE
  8
0
  6
CONTINUOUS
 62
     7
 10
135.01129
 20
-70.321503
 11
137.01129
 21
-68.321503
  0
LINE
  8
0
  6
CONTINUOUS
 62
     7
 10
152.01129
 20
-68.321503
 11
154.01131
 21
-70.321503
  0
LINE
  8
0
  6
CONTINUOUS
 62
     7
 10
154.01131
 20
-132.3215
 11
152.01131
 21
-134.3215
  0
LINE
  8
0
  6
CONTINUOUS
 62
     7
 10
135.01129
 20
-132.32149
 11
137.01129
 21
-134.32149
  0
LINE
  8
0
  6
CONTINUOUS
 62
     7
 10
136.01129
 20
-87.652443
 11
153.01129
 21
-87.652443
  0
LINE
  8
0
  6
CONTINUOUS
 62
     7
 10
136.01129
 20
-114.99054
 11
153.01129
 21
-114.99054
  0
LINE
  8
0
  6
CONTINUOUS
 62
     7
 10
32.011311
 20
-70.321487
 11
32.011311
 21
-132.32149
  0
LINE
  8
0
  6
CONTINUOUS
 62
     7
 10
51.011295
 20
-70.321487
 11
51.011295
 21
-132.32149
  0
LINE
  8
0
  6
CONTINUOUS
 62
     7
 10
49.011295
 20
-68.321487
 11
34.011311
 21
-68.321487
  0
LINE
  8
0
  6
CONTINUOUS
 62
     7
 10
49.011295
 20
-134.32149
 11
34.011311
 21
-134.32149
  0
LINE
  8
0
  6
CONTINUOUS
 62
     7
 10
51.011303
 20
-70.321503
 11
49.011303
 21
-68.321503
  0
LINE
  8
0
  6
CONTINUOUS
 62
     7
 10
34.011307
 20
-68.321503
 11
32.011307
 21
-70.321503
  0
LINE
  8
0
  6
CONTINUOUS
 62
     7
 10
32.011299
 20
-132.32149
 11
34.011303
 21
-134.32149
  0
LINE
  8
0
  6
CONTINUOUS
 62
     7
 10
51.011303
 20
-132.32149
 11
49.011299
 21
-134.32149
  0
LINE
  8
0
  6
CONTINUOUS
 62
     7
 10
50.011295
 20
-87.652443
 11
33.011311
 21
-87.652443
  0
LINE
  8
0
  6
CONTINUOUS
 62
     7
 10
50.011295
 20
-114.99054
 11
33.011311
 21
-114.99054
  0
LINE
  8
0
  6
CENTER
 62
     7
 10
-242.6701
 20
-358.68539
 11
-91.178635
 21
-358.68539
  0
LINE
  8
0
  6
CENTER
 62
     7
 10
-164.70248
 20
-320.88541
 11
-164.70248
 21
-393.68539
  0
LINE
  8
0
  6
CONTINUOUS
 62
     7
 10
-168.7789
 20
-327.18542
 11
-160.62608
 21
-327.18542
  0
LINE
  8
0
  6
CONTINUOUS
 62
     7
 10
-160.54973
 20
-327.18832
 11
-124.89532
 21
-328.5509
  0
LINE
  8
0
  6
CONTINUOUS
 62
     7
 10
-168.85524
 20
-327.18835
 11
-204.50964
 21
-328.55093
  0
LINE
  8
0
  6
CONTINUOUS
 62
     7
 10
-168.85524
 20
-390.1825
 11
-204.50964
 21
-388.81989
  0
LINE
  8
0
  6
CONTINUOUS
 62
     7
 10
-168.7789
 20
-390.18539
 11
-160.62608
 21
-390.18539
  0
LINE
  8
0
  6
CONTINUOUS
 62
     7
 10
-160.54973
 20
-390.1825
 11
-124.89532
 21
-388.81992
  0
LINE
  8
0
  6
CONTINUOUS
 62
     7
 10
-171.70248
 20
-356.18539
 11
-171.70248
 21
-361.18539
  0
LINE
  8
0
  6
CONTINUOUS
 62
     7
 10
-157.70248
 20
-356.18539
 11
-157.70248
 21
-361.18539
  0
LINE
  8
0
  6
CONTINUOUS
 62
     7
 10
-149.70248
 20
-356.18539
 11
-149.70248
 21
-361.18539
  0
LINE
  8
0
  6
CONTINUOUS
 62
     7
 10
-179.70248
 20
-356.18539
 11
-179.70248
 21
-361.18539
  0
LINE
  8
0
  6
CONTINUOUS
 62
     7
 10
-179.70248
 20
-361.18539
 11
-171.70248
 21
-361.18539
  0
LINE
  8
0
  6
CONTINUOUS
 62
     7
 10
-179.70248
 20
-356.18539
 11
-171.70248
 21
-356.18539
  0
LINE
  8
0
  6
CONTINUOUS
 62
     7
 10
-157.70248
 20
-356.18539
 11
-149.70248
 21
-356.18539
  0
LINE
  8
0
  6
CONTINUOUS
 62
     7
 10
-157.70248
 20
-361.18539
 11
-149.70248
 21
-361.18539
  0
LINE
  8
0
  6
CONTINUOUS
 62
     7
 10
-100.45248
 20
-324.18542
 11
-100.45248
 21
-393.18539
  0
LINE
  8
0
  6
CONTINUOUS
 62
     7
 10
-121.45248
 20
-358.68539
 11
-101.45248
 21
-358.68539
  0
LINE
  8
0
  6
CONTINUOUS
 62
     7
 10
-122.45248
 20
-324.18542
 11
-122.45248
 21
-393.18539
  0
LINE
  8
0
  6
CONTINUOUS
 62
     7
 10
-120.45248
 20
-322.18542
 11
-102.45248
 21
-322.18542
  0
LINE
  8
0
  6
CONTINUOUS
 62
     7
 10
-120.45248
 20
-395.18539
 11
-102.45248
 21
-395.18539
  0
LINE
  8
0
  6
CONTINUOUS
 62
     7
 10
-121.45248
 20
-336.12717
 11
-101.45248
 21
-336.12717
  0
LINE
  8
0
  6
CONTINUOUS
 62
     7
 10
-121.45248
 20
-381.24365
 11
-101.45248
 21
-381.24365
  0
LINE
  8
0
  6
CONTINUOUS
 62
     7
 10
-122.45249
 20
-324.18539
 11
-120.45248
 21
-322.18539
  0
LINE
  8
0
  6
CONTINUOUS
 62
     7
 10
-102.45249
 20
-322.18542
 11
-100.4525
 21
-324.18542
  0
LINE
  8
0
  6
CONTINUOUS
 62
     7
 10
-122.45248
 20
-393.18539
 11
-120.45248
 21
-395.18539
  0
LINE
  8
0
  6
CONTINUOUS
 62
     7
 10
-100.45248
 20
-393.18539
 11
-102.45248
 21
-395.18539
  0
LINE
  8
0
  6
CONTINUOUS
 62
     7
 10
-228.95248
 20
-324.18542
 11
-228.95248
 21
-393.18539
  0
LINE
  8
0
  6
CONTINUOUS
 62
     7
 10
-207.95248
 20
-358.68539
 11
-227.95248
 21
-358.68539
  0
LINE
  8
0
  6
CONTINUOUS
 62
     7
 10
-206.95248
 20
-324.18542
 11
-206.95248
 21
-393.18539
  0
LINE
  8
0
  6
CONTINUOUS
 62
     7
 10
-208.95248
 20
-322.18542
 11
-226.95248
 21
-322.18542
  0
LINE
  8
0
  6
CONTINUOUS
 62
     7
 10
-208.95248
 20
-395.18539
 11
-226.95248
 21
-395.18539
  0
LINE
  8
0
  6
CONTINUOUS
 62
     7
 10
-207.95248
 20
-336.12717
 11
-227.95248
 21
-336.12717
  0
LINE
  8
0
  6
CONTINUOUS
 62
     7
 10
-207.95248
 20
-381.24365
 11
-227.95248
 21
-381.24365
  0
LINE
  8
0
  6
CONTINUOUS
 62
     7
 10
-206.95247
 20
-324.18539
 11
-208.95247
 21
-322.18539
  0
LINE
  8
0
  6
CONTINUOUS
 62
     7
 10
-226.95248
 20
-322.18539
 11
-228.95248
 21
-324.18542
  0
LINE
  8
0
  6
CONTINUOUS
 62
     7
 10
-206.95248
 20
-393.18542
 11
-208.95248
 21
-395.18542
  0
LINE
  8
0
  6
CONTINUOUS
 62
     7
 10
-228.95248
 20
-393.18542
 11
-226.95248
 21
-395.18542
  0
LINE
  8
0
  6
CENTER
 62
     7
 10
-250.60538
 20
-536.19806
 11
-84.083382
 21
-536.19806
  0
LINE
  8
0
  6
CENTER
 62
     7
 10
-166.53252
 20
-494.8631
 11
-166.53252
 21
-576.41309
  0
LINE
  8
0
  6
CONTINUOUS
 62
     7
 10
-162.45314
 20
-498.19806
 11
-123.46691
 21
-499.57407
  0
LINE
  8
0
  6
CONTINUOUS
 62
     7
 10
-162.45314
 20
-498.19809
 11
-170.61191
 21
-498.19809
  0
LINE
  8
0
  6
CONTINUOUS
 62
     7
 10
-170.61191
 20
-498.19809
 11
-209.59811
 21
-499.57407
  0
LINE
  8
0
  6
CONTINUOUS
 62
     7
 10
-170.61191
 20
-574.19812
 11
-209.59811
 21
-572.82208
  0
LINE
  8
0
  6
CONTINUOUS
 62
     7
 10
-162.45314
 20
-574.19806
 11
-170.61191
 21
-574.19806
  0
LINE
  8
0
  6
CONTINUOUS
 62
     7
 10
-162.45313
 20
-574.19806
 11
-123.46691
 21
-572.82208
  0
LINE
  8
0
  6
CONTINUOUS
 62
     7
 10
-159.53252
 20
-533.69806
 11
-159.53252
 21
-538.69806
  0
LINE
  8
0
  6
CONTINUOUS
 62
     7
 10
-173.53252
 20
-533.69806
 11
-173.53252
 21
-538.69806
  0
LINE
  8
0
  6
CONTINUOUS
 62
     7
 10
-181.5325
 20
-538.69806
 11
-173.53252
 21
-538.69806
  0
LINE
  8
0
  6
CONTINUOUS
 62
     7
 10
-181.5325
 20
-533.69806
 11
-173.53252
 21
-533.69806
  0
LINE
  8
0
  6
CONTINUOUS
 62
     7
 10
-151.53252
 20
-533.69806
 11
-151.53252
 21
-538.69806
  0
LINE
  8
0
  6
CONTINUOUS
 62
     7
 10
-181.5325
 20
-533.69806
 11
-181.5325
 21
-538.69806
  0
LINE
  8
0
  6
CONTINUOUS
 62
     7
 10
-159.53252
 20
-533.69806
 11
-151.53252
 21
-533.69806
  0
LINE
  8
0
  6
CONTINUOUS
 62
     7
 10
-159.53252
 20
-538.69806
 11
-151.53252
 21
-538.69806
  0
LINE
  8
0
  6
CONTINUOUS
 62
     7
 10
-98.532509
 20
-494.69809
 11
-98.532509
 21
-577.69806
  0
LINE
  8
0
  6
CONTINUOUS
 62
     7
 10
-121.03251
 20
-536.19806
 11
-99.532509
 21
-536.19806
  0
LINE
  8
0
  6
CONTINUOUS
 62
     7
 10
-122.03251
 20
-494.69809
 11
-122.03251
 21
-577.69806
  0
LINE
  8
0
  6
CONTINUOUS
 62
     7
 10
-120.03251
 20
-492.69809
 11
-100.53251
 21
-492.69809
  0
LINE
  8
0
  6
CONTINUOUS
 62
     7
 10
-120.03251
 20
-579.69806
 11
-100.53251
 21
-579.69806
  0
LINE
  8
0
  6
CONTINUOUS
 62
     7
 10
-122.0325
 20
-494.69809
 11
-120.0325
 21
-492.69806
  0
LINE
  8
0
  6
CONTINUOUS
 62
     7
 10
-100.53251
 20
-492.69806
 11
-98.532509
 21
-494.69809
  0
LINE
  8
0
  6
CONTINUOUS
 62
     7
 10
-122.03252
 20
-577.69806
 11
-120.03252
 21
-579.69812
  0
LINE
  8
0
  6
CONTINUOUS
 62
     7
 10
-100.53249
 20
-579.69812
 11
-98.532501
 21
-577.69812
  0
LINE
  8
0
  6
CONTINUOUS
 62
     7
 10
-99.532509
 20
-509.3136
 11
-121.03251
 21
-509.3136
  0
LINE
  8
0
  6
CONTINUOUS
 62
     7
 10
-99.532509
 20
-563.08258
 11
-121.03251
 21
-563.08258
  0
LINE
  8
0
  6
CONTINUOUS
 62
     7
 10
-234.53252
 20
-494.69809
 11
-234.53252
 21
-577.69806
  0
LINE
  8
0
  6
CONTINUOUS
 62
     7
 10
-212.0325
 20
-536.19806
 11
-233.53252
 21
-536.19806
  0
LINE
  8
0
  6
CONTINUOUS
 62
     7
 10
-211.0325
 20
-494.69809
 11
-211.0325
 21
-577.69806
  0
LINE
  8
0
  6
CONTINUOUS
 62
     7
 10
-213.0325
 20
-492.69809
 11
-232.53252
 21
-492.69809
  0
LINE
  8
0
  6
CONTINUOUS
 62
     7
 10
-213.0325
 20
-579.69806
 11
-232.53252
 21
-579.69806
  0
LINE
  8
0
  6
CONTINUOUS
 62
     7
 10
-211.0325
 20
-494.69809
 11
-213.0325
 21
-492.69809
  0
LINE
  8
0
  6
CONTINUOUS
 62
     7
 10
-232.53252
 20
-492.69809
 11
-234.53253
 21
-494.69809
  0
LINE
  8
0
  6
CONTINUOUS
 62
     7
 10
-211.03252
 20
-577.69806
 11
-213.03252
 21
-579.69806
  0
LINE
  8
0
  6
CONTINUOUS
 62
     7
 10
-232.5325
 20
-579.69806
 11
-234.5325
 21
-577.69806
  0
LINE
  8
0
  6
CONTINUOUS
 62
     7
 10
-233.53252
 20
-509.3136
 11
-212.0325
 21
-509.3136
  0
LINE
  8
0
  6
CONTINUOUS
 62
     7
 10
-233.53252
 20
-563.08258
 11
-212.0325
 21
-563.08258
  0
LINE
  8
0
  6
CONTINUOUS
 62
     7
 10
297
 20
-210
 11
-297
 21
-210
  0
LINE
  8
0
  6
CONTINUOUS
 62
     7
 10
-297
 20
-210
 11
-297
 21
210
  0
LINE
  8
0
  6
CONTINUOUS
 62
     7
 10
-297
 20
210
 11
297
 21
210
  0
LINE
  8
0
  6
CONTINUOUS
 62
     7
 10
297
 20
210
 11
297
 21
-210
  0
LINE
  8
0
  6
CONTINUOUS
 62
     7
 10
-61.312763
 20
98.36982
 11
-73.614281
 21
110.67134
  0
LINE
  8
0
  6
CONTINUOUS
 62
     7
 10
-73.614281
 20
110.67134
 11
-91.011238
 21
110.67134
  0
LINE
  8
0
  6
CONTINUOUS
 62
     7
 10
-103.31277
 20
98.369827
 11
-91.011253
 21
110.67134
  0
LINE
  8
0
  6
CONTINUOUS
 62
     7
 10
-103.31275
 20
80.972862
 11
-103.31275
 21
98.369812
  0
LINE
  8
0
  6
CONTINUOUS
 62
     7
 10
-91.011246
 20
68.671333
 11
-103.31277
 21
80.972855
  0
LINE
  8
0
  6
CONTINUOUS
 62
     7
 10
-73.614281
 20
68.671349
 11
-91.011238
 21
68.671349
  0
LINE
  8
0
  6
CONTINUOUS
 62
     7
 10
-61.312763
 20
80.972847
 11
-73.614281
 21
68.671333
  0
LINE
  8
0
  6
CONTINUOUS
 62
     7
 10
-61.312756
 20
98.369812
 11
-61.312756
 21
80.972862
  0
LINE
  8
0
  6
CENTER
 62
     7
 10
-82.312752
 20
112.95723
 11
-82.312752
 21
66.385445
  0
LINE
  8
0
  6
CONTINUOUS
 62
     7
 10
221.8022
 20
101.19357
 11
207.46051
 21
115.53526
  0
LINE
  8
0
  6
CONTINUOUS
 62
     7
 10
207.46051
 20
115.53526
 11
187.17828
 21
115.53526
  0
LINE
  8
0
  6
CONTINUOUS
 62
     7
 10
172.83659
 20
101.19355
 11
187.17828
 21
115.53526
  0
LINE
  8
0
  6
CONTINUOUS
 62
     7
 10
172.83659
 20
80.911339
 11
172.83659
 21
101.19356
  0
LINE
  8
0
  6
CONTINUOUS
 62
     7
 10
187.17827
 20
66.569633
 11
172.83658
 21
80.911324
  0
LINE
  8
0
  6
CONTINUOUS
 62
     7
 10
207.46051
 20
66.569633
 11
187.17828
 21
66.569633
  0
LINE
  8
0
  6
CONTINUOUS
 62
     7
 10
221.8022
 20
80.911339
 11
207.46049
 21
66.569641
  0
LINE
  8
0
  6
CONTINUOUS
 62
     7
 10
221.80222
 20
101.19356
 11
221.80222
 21
80.911339
  0
LINE
  8
0
  6
CENTER
 62
     7
 10
197.3194
 20
117.08835
 11
197.3194
 21
65.016548
  0
LINE
  8
0
  6
CONTINUOUS
 62
     7
 10
-37.37484
 20
-84.979263
 11
-54.362652
 21
-67.991455
  0
LINE
  8
0
  6
CONTINUOUS
 62
     7
 10
-54.362648
 20
-67.991463
 11
-78.387032
 21
-67.991463
  0
LINE
  8
0
  6
CONTINUOUS
 62
     7
 10
-95.374847
 20
-84.979263
 11
-78.387039
 21
-67.991455
  0
LINE
  8
0
  6
CONTINUOUS
 62
     7
 10
-95.37484
 20
-109.00366
 11
-95.37484
 21
-84.979271
  0
LINE
  8
0
  6
CONTINUOUS
 62
     7
 10
-78.387039
 20
-125.99146
 11
-95.374847
 21
-109.00365
  0
LINE
  8
0
  6
CONTINUOUS
 62
     7
 10
-54.362648
 20
-125.99146
 11
-78.387032
 21
-125.99146
  0
LINE
  8
0
  6
CONTINUOUS
 62
     7
 10
-37.37484
 20
-109.00365
 11
-54.362652
 21
-125.99146
  0
LINE
  8
0
  6
CONTINUOUS
 62
     7
 10
-37.374844
 20
-84.979271
 11
-37.374844
 21
-109.00366
  0
LINE
  8
0
  6
CENTER
 62
     7
 10
-66.37484
 20
-61.88258
 11
-66.37484
 21
-131.11977
  0
LINE
  8
0
  6
CONTINUOUS
 62
     7
 10
271.75473
 20
-87.652435
 11
252.42377
 21
-68.321472
  0
LINE
  8
0
  6
CONTINUOUS
 62
     7
 10
252.42375
 20
-68.321487
 11
225.08565
 21
-68.321487
  0
LINE
  8
0
  6
CONTINUOUS
 62
     7
 10
205.75471
 20
-87.652435
 11
225.08566
 21
-68.32148
  0
LINE
  8
0
  6
CONTINUOUS
 62
     7
 10
205.7547
 20
-114.99054
 11
205.7547
 21
-87.652443
  0
LINE
  8
0
  6
CONTINUOUS
 62
     7
 10
225.08566
 20
-134.32149
 11
205.7547
 21
-114.99053
  0
LINE
  8
0
  6
CONTINUOUS
 62
     7
 10
252.42375
 20
-134.3215
 11
225.08565
 21
-134.3215
  0
LINE
  8
0
  6
CONTINUOUS
 62
     7
 10
271.75473
 20
-114.99052
 11
252.42375
 21
-134.32149
  0
LINE
  8
0
  6
CONTINUOUS
 62
     7
 10
271.7547
 20
-87.652443
 11
271.7547
 21
-114.99054
  0
LINE
  8
0
  6
CENTER
 62
     7
 10
238.7547
 20
-67.435593
 11
238.7547
 21
-135.2074
  0
LINE
  8
0
  6
CENTER
 62
     7
 10
-34.961708
 20
-316.86041
 11
-34.961708
 21
-401.21039
  0
LINE
  8
0
  6
CONTINUOUS
 62
     7
 10
3.4166579
 20
-358.68539
 11
-3.9129522
 21
-336.12717
  0
LINE
  8
0
  6
CONTINUOUS
 62
     7
 10
-3.9129484
 20
-336.12717
 11
-23.10214
 21
-322.18542
  0
LINE
  8
0
  6
CONTINUOUS
 62
     7
 10
-46.821281
 20
-322.18542
 11
-23.10214
 21
-322.18542
  0
LINE
  8
0
  6
CONTINUOUS
 62
     7
 10
-66.010452
 20
-336.12717
 11
-46.821266
 21
-322.18542
  0
LINE
  8
0
  6
CONTINUOUS
 62
     7
 10
-73.340088
 20
-358.68539
 11
-66.010468
 21
-336.12717
  0
LINE
  8
0
  6
CONTINUOUS
 62
     7
 10
-66.01046
 20
-381.24362
 11
-73.340073
 21
-358.68539
  0
LINE
  8
0
  6
CONTINUOUS
 62
     7
 10
-46.821255
 20
-395.18539
 11
-66.010445
 21
-381.24362
  0
LINE
  8
0
  6
CONTINUOUS
 62
     7
 10
-23.10214
 20
-395.18539
 11
-46.821274
 21
-395.18539
  0
LINE
  8
0
  6
CONTINUOUS
 62
     7
 10
-3.9129453
 20
-381.24365
 11
-23.102125
 21
-395.18542
  0
LINE
  8
0
  6
CONTINUOUS
 62
     7
 10
3.4166713
 20
-358.68539
 11
-3.9129481
 21
-381.24365
  0
LINE
  8
0
  6
CONTINUOUS
 62
     7
 10
28.033461
 20
-536.19806
 11
19.298157
 21
-509.31357
  0
LINE
  8
0
  6
CONTINUOUS
 62
     7
 10
19.29817
 20
-509.31357
 11
-3.5711272
 21
-492.69806
  0
LINE
  8
0
  6
CONTINUOUS
 62
     7
 10
-31.839151
 20
-492.69809
 11
-3.5711458
 21
-492.69809
  0
LINE
  8
0
  6
CONTINUOUS
 62
     7
 10
-54.708447
 20
-509.3136
 11
-31.839149
 21
-492.69806
  0
LINE
  8
0
  6
CONTINUOUS
 62
     7
 10
-63.443756
 20
-536.19806
 11
-54.708454
 21
-509.31357
  0
LINE
  8
0
  6
CONTINUOUS
 62
     7
 10
-54.708469
 20
-563.08258
 11
-63.443775
 21
-536.19806
  0
LINE
  8
0
  6
CONTINUOUS
 62
     7
 10
-31.839146
 20
-579.69806
 11
-54.708443
 21
-563.08252
  0
LINE
  8
0
  6
CONTINUOUS
 62
     7
 10
-3.5711305
 20
-579.69806
 11
-31.839151
 21
-579.69806
  0
LINE
  8
0
  6
CONTINUOUS
 62
     7
 10
19.298149
 20
-563.08252
 11
-3.5711482
 21
-579.69806
  0
LINE
  8
0
  6
CONTINUOUS
 62
     7
 10
28.033485
 20
-536.19806
 11
19.298182
 21
-563.08258
  0
LINE
  8
0
  6
CENTER
 62
     7
 10
-17.705149
 20
-482.99808
 11
-17.705149
 21
-587.29803
  0
LINE
  8
0
  6
CENTER
 62
     7
 10
-67.998161
 20
-536.19806
 11
33.924538
 21
-536.19806
  0
LINE
  8
0
  6
CENTER
 62
     7
 10
-77.795601
 20
-358.68539
 11
7.8936858
 21
-358.68539
  0
LINE
  8
0
  6
CENTER
 62
     7
 10
196.75052
 20
-101.32149
 11
280.26715
 21
-101.32149
  0
LINE
  8
0
  6
CENTER
 62
     7
 10
-101.91684
 20
-96.991463
 11
-29.755806
 21
-96.991463
  0
LINE
  8
0
  6
CENTER
 62
     7
 10
-109.77998
 20
89.671349
 11
-56.282803
 21
89.671349
  0
LINE
  8
0
  6
CENTER
 62
     7
 10
164.29723
 20
91.052452
 11
227.47919
 21
91.052452
  0
LINE
  8
0
  6
CONTINUOUS
 62
     7
 10
-297
 20
-650
 11
-297
 21
-230
  0
LINE
  8
0
  6
CONTINUOUS
 62
     7
 10
-297
 20
-230
 11
297
 21
-230
  0
LINE
  8
0
  6
CONTINUOUS
 62
     7
 10
297
 20
-230
 11
297
 21
-650
  0
LINE
  8
0
  6
CONTINUOUS
 62
     7
 10
297
 20
-650
 11
-297
 21
-650
  0
LINE
  8
0
  6
CENTER
 62
     7
 10
345.77054
 20
88.313805
 11
472.82053
 21
88.313805
  0
LINE
  8
0
  6
CENTER
 62
     7
 10
409.10178
 20
107.50158
 11
409.10178
 21
69.491585
  0
LINE
  8
0
  6
CONTINUOUS
 62
     7
 10
442.85178
 20
106.3138
 11
447.10178
 21
106.3138
  0
LINE
  8
0
  6
CONTINUOUS
 62
     7
 10
442.85178
 20
106.10812
 11
442.85178
 21
70.313805
  0
LINE
  8
0
  6
CONTINUOUS
 62
     7
 10
413.14978
 20
104.81342
 11
438.47318
 21
103.86825
  0
LINE
  8
0
  6
CONTINUOUS
 62
     7
 10
405.07779
 20
104.8138
 11
413.12576
 21
104.8138
  0
LINE
  8
0
  6
CONTINUOUS
 62
     7
 10
405.0538
 20
104.81342
 11
379.73041
 21
103.86825
  0
LINE
  8
0
  6
CONTINUOUS
 62
     7
 10
375.35178
 20
106.10812
 11
375.35178
 21
70.313805
  0
LINE
  8
0
  6
CONTINUOUS
 62
     7
 10
405.0538
 20
71.814186
 11
379.73041
 21
72.759361
  0
LINE
  8
0
  6
CONTINUOUS
 62
     7
 10
405.07779
 20
71.813805
 11
413.12576
 21
71.813805
  0
LINE
  8
0
  6
CONTINUOUS
 62
     7
 10
413.14978
 20
71.814178
 11
438.47318
 21
72.759354
  0
LINE
  8
0
  6
CONTINUOUS
 62
     7
 10
442.85178
 20
70.313805
 11
447.10178
 21
70.313805
  0
LINE
  8
0
  6
CONTINUOUS
 62
     7
 10
413.10178
 20
89.313805
 11
413.10178
 21
87.313805
  0
LINE
  8
0
  6
CONTINUOUS
 62
     7
 10
405.10178
 20
89.313805
 11
405.10178
 21
87.313805
  0
LINE
  8
0
  6
CONTINUOUS
 62
     7
 10
419.10178
 20
89.313805
 11
419.10178
 21
87.313805
  0
LINE
  8
0
  6
CONTINUOUS
 62
     7
 10
399.10178
 20
89.313805
 11
399.10178
 21
87.313805
  0
LINE
  8
0
  6
CONTINUOUS
 62
     7
 10
399.10178
 20
89.313805
 11
405.10178
 21
89.313805
  0
LINE
  8
0
  6
CONTINUOUS
 62
     7
 10
399.10178
 20
87.313805
 11
405.10178
 21
87.313805
  0
LINE
  8
0
  6
CONTINUOUS
 62
     7
 10
413.10178
 20
89.313805
 11
419.10178
 21
89.313805
  0
LINE
  8
0
  6
CONTINUOUS
 62
     7
 10
413.10178
 20
87.313805
 11
419.10178
 21
87.313805
  0
LINE
  8
0
  6
CONTINUOUS
 62
     7
 10
464.60178
 20
107.3138
 11
464.60178
 21
69.313805
  0
LINE
  8
0
  6
CONTINUOUS
 62
     7
 10
449.10178
 20
109.3138
 11
462.60178
 21
109.3138
  0
LINE
  8
0
  6
CONTINUOUS
 62
     7
 10
449.10178
 20
67.313805
 11
462.60178
 21
67.313805
  0
LINE
  8
0
  6
CONTINUOUS
 62
     7
 10
447.10178
 20
107.3138
 11
447.10178
 21
69.313805
  0
LINE
  8
0
  6
CONTINUOUS
 62
     7
 10
448.10178
 20
97.012291
 11
463.60178
 21
97.012291
  0
LINE
  8
0
  6
CONTINUOUS
 62
     7
 10
448.10178
 20
79.615318
 11
463.60178
 21
79.615318
  0
LINE
  8
0
  6
CONTINUOUS
 62
     7
 10
449.10178
 20
109.31381
 11
447.10178
 21
107.31381
  0
LINE
  8
0
  6
CONTINUOUS
 62
     7
 10
462.60178
 20
109.3138
 11
464.60178
 21
107.3138
  0
LINE
  8
0
  6
CONTINUOUS
 62
     7
 10
464.60178
 20
69.313797
 11
462.60178
 21
67.313789
  0
LINE
  8
0
  6
CONTINUOUS
 62
     7
 10
447.10178
 20
69.313812
 11
449.10178
 21
67.313812
  0
LINE
  8
0
  6
CONTINUOUS
 62
     7
 10
466.60178
 20
101.0638
 11
466.60178
 21
75.563805
  0
LINE
  8
0
  6
CONTINUOUS
 62
     7
 10
464.60178
 20
101.59971
 11
466.60178
 21
101.06381
  0
LINE
  8
0
  6
CONTINUOUS
 62
     7
 10
464.60175
 20
75.027901
 11
466.60175
 21
75.563805
  0
LINE
  8
0
  6
CONTINUOUS
 62
     7
 10
353.60178
 20
75.027908
 11
351.60178
 21
75.563805
  0
LINE
  8
0
  6
CONTINUOUS
 62
     7
 10
375.35178
 20
106.3138
 11
371.10178
 21
106.3138
  0
LINE
  8
0
  6
CONTINUOUS
 62
     7
 10
375.35178
 20
70.313805
 11
371.10178
 21
70.313805
  0
LINE
  8
0
  6
CONTINUOUS
 62
     7
 10
353.60178
 20
107.3138
 11
353.60178
 21
69.313805
  0
LINE
  8
0
  6
CONTINUOUS
 62
     7
 10
369.10178
 20
109.3138
 11
355.60178
 21
109.3138
  0
LINE
  8
0
  6
CONTINUOUS
 62
     7
 10
369.10178
 20
67.313805
 11
355.60178
 21
67.313805
  0
LINE
  8
0
  6
CONTINUOUS
 62
     7
 10
371.10178
 20
107.3138
 11
371.10178
 21
69.313805
  0
LINE
  8
0
  6
CONTINUOUS
 62
     7
 10
370.10178
 20
97.012291
 11
354.60178
 21
97.012291
  0
LINE
  8
0
  6
CONTINUOUS
 62
     7
 10
370.10178
 20
79.615318
 11
354.60178
 21
79.615318
  0
LINE
  8
0
  6
CONTINUOUS
 62
     7
 10
369.10178
 20
109.31382
 11
371.10178
 21
107.31382
  0
LINE
  8
0
  6
CONTINUOUS
 62
     7
 10
355.60178
 20
109.3138
 11
353.60178
 21
107.3138
  0
LINE
  8
0
  6
CONTINUOUS
 62
     7
 10
353.60178
 20
69.313805
 11
355.60178
 21
67.31382
  0
LINE
  8
0
  6
CONTINUOUS
 62
     7
 10
371.10181
 20
69.313812
 11
369.10178
 21
67.313805
  0
LINE
  8
0
  6
CONTINUOUS
 62
     7
 10
351.60178
 20
101.0638
 11
351.60178
 21
75.563805
  0
LINE
  8
0
  6
CONTINUOUS
 62
     7
 10
353.60178
 20
101.5997
 11
351.60178
 21
101.0638
  0
LINE
  8
0
  6
CENTER
 62
     7
 10
699.56061
 20
107.7763
 11
699.56061
 21
61.576298
  0
LINE
  8
0
  6
CENTER
 62
     7
 10
631.31061
 20
84.011299
 11
765.18561
 21
84.011299
  0
LINE
  8
0
  6
CONTINUOUS
 62
     7
 10
736.56061
 20
105.0113
 11
740.06061
 21
105.0113
  0
LINE
  8
0
  6
CONTINUOUS
 62
     7
 10
736.56061
 20
105.0113
 11
736.56061
 21
63.011295
  0
LINE
  8
0
  6
CONTINUOUS
 62
     7
 10
695.50208
 20
103.5113
 11
703.6192
 21
103.5113
  0
LINE
  8
0
  6
CONTINUOUS
 62
     7
 10
703.56067
 20
103.51358
 11
731.9729
 21
102.40373
  0
LINE
  8
0
  6
CONTINUOUS
 62
     7
 10
695.56061
 20
103.51358
 11
667.14832
 21
102.40372
  0
LINE
  8
0
  6
CONTINUOUS
 62
     7
 10
662.56061
 20
105.0113
 11
662.56061
 21
63.011295
  0
LINE
  8
0
  6
CONTINUOUS
 62
     7
 10
695.56061
 20
64.50901
 11
667.14832
 21
65.618866
  0
LINE
  8
0
  6
CONTINUOUS
 62
     7
 10
695.50208
 20
64.511299
 11
703.6192
 21
64.511299
  0
LINE
  8
0
  6
CONTINUOUS
 62
     7
 10
703.56061
 20
64.50901
 11
731.9729
 21
65.618866
  0
LINE
  8
0
  6
CONTINUOUS
 62
     7
 10
736.56061
 20
63.011295
 11
740.06061
 21
63.011295
  0
LINE
  8
0
  6
CONTINUOUS
 62
     7
 10
704.56061
 20
86.011299
 11
704.56061
 21
82.011299
  0
LINE
  8
0
  6
CONTINUOUS
 62
     7
 10
694.56061
 20
86.011299
 11
694.56061
 21
82.011299
  0
LINE
  8
0
  6
CONTINUOUS
 62
     7
 10
688.56061
 20
82.011299
 11
694.56061
 21
82.011299
  0
LINE
  8
0
  6
CONTINUOUS
 62
     7
 10
688.56061
 20
86.011299
 11
694.56061
 21
86.011299
  0
LINE
  8
0
  6
CONTINUOUS
 62
     7
 10
688.56061
 20
86.011299
 11
688.56061
 21
82.011299
  0
LINE
  8
0
  6
CONTINUOUS
 62
     7
 10
710.56061
 20
86.011299
 11
710.56061
 21
82.011299
  0
LINE
  8
0
  6
CONTINUOUS
 62
     7
 10
704.56061
 20
86.011299
 11
710.56061
 21
86.011299
  0
LINE
  8
0
  6
CONTINUOUS
 62
     7
 10
704.56061
 20
82.011299
 11
710.56061
 21
82.011299
  0
LINE
  8
0
  6
CONTINUOUS
 62
     7
 10
758.56061
 20
106.5113
 11
758.56061
 21
61.511295
  0
LINE
  8
0
  6
CONTINUOUS
 62
     7
 10
740.06061
 20
106.5113
 11
740.06061
 21
61.511295
  0
LINE
  8
0
  6
CONTINUOUS
 62
     7
 10
742.06061
 20
108.5113
 11
756.56061
 21
108.5113
  0
LINE
  8
0
  6
CONTINUOUS
 62
     7
 10
742.06061
 20
59.511295
 11
756.56061
 21
59.511295
  0
LINE
  8
0
  6
CONTINUOUS
 62
     7
 10
740.06061
 20
106.51129
 11
742.06061
 21
108.5113
  0
LINE
  8
0
  6
CONTINUOUS
 62
     7
 10
742.06061
 20
59.511265
 11
740.06061
 21
61.511269
  0
LINE
  8
0
  6
CONTINUOUS
 62
     7
 10
756.56061
 20
108.5113
 11
758.56061
 21
106.51129
  0
LINE
  8
0
  6
CONTINUOUS
 62
     7
 10
758.56061
 20
61.511288
 11
756.56061
 21
59.511288
  0
LINE
  8
0
  6
CONTINUOUS
 62
     7
 10
741.06061
 20
94.152412
 11
757.56061
 21
94.152412
  0
LINE
  8
0
  6
CONTINUOUS
 62
     7
 10
741.06061
 20
73.870186
 11
757.56061
 21
73.870186
  0
LINE
  8
0
  6
CONTINUOUS
 62
     7
 10
760.56061
 20
99.511299
 11
760.56061
 21
68.511299
  0
LINE
  8
0
  6
CONTINUOUS
 62
     7
 10
758.56061
 20
100.04723
 11
760.56061
 21
99.51133
  0
LINE
  8
0
  6
CONTINUOUS
 62
     7
 10
758.56067
 20
67.975403
 11
760.56061
 21
68.511284
  0
LINE
  8
0
  6
CONTINUOUS
 62
     7
 10
640.56067
 20
67.975395
 11
638.56067
 21
68.511292
  0
LINE
  8
0
  6
CONTINUOUS
 62
     7
 10
662.56061
 20
105.0113
 11
659.06061
 21
105.0113
  0
LINE
  8
0
  6
CONTINUOUS
 62
     7
 10
662.56061
 20
63.011295
 11
659.06061
 21
63.011295
  0
LINE
  8
0
  6
CONTINUOUS
 62
     7
 10
640.56061
 20
106.5113
 11
640.56061
 21
61.511295
  0
LINE
  8
0
  6
CONTINUOUS
 62
     7
 10
659.06061
 20
106.5113
 11
659.06061
 21
61.511295
  0
LINE
  8
0
  6
CONTINUOUS
 62
     7
 10
657.06061
 20
108.5113
 11
642.56061
 21
108.5113
  0
LINE
  8
0
  6
CONTINUOUS
 62
     7
 10
657.06061
 20
59.511295
 11
642.56061
 21
59.511295
  0
LINE
  8
0
  6
CONTINUOUS
 62
     7
 10
659.06067
 20
106.51133
 11
657.06067
 21
108.51134
  0
LINE
  8
0
  6
CONTINUOUS
 62
     7
 10
657.06061
 20
59.511303
 11
659.06061
 21
61.511303
  0
LINE
  8
0
  6
CONTINUOUS
 62
     7
 10
642.56067
 20
108.51133
 11
640.56067
 21
106.51133
  0
LINE
  8
0
  6
CONTINUOUS
 62
     7
 10
640.56061
 20
61.511284
 11
642.56061
 21
59.511303
  0
LINE
  8
0
  6
CONTINUOUS
 62
     7
 10
658.06061
 20
94.152412
 11
641.56061
 21
94.152412
  0
LINE
  8
0
  6
CONTINUOUS
 62
     7
 10
658.06061
 20
73.870186
 11
641.56061
 21
73.870186
  0
LINE
  8
0
  6
CONTINUOUS
 62
     7
 10
638.56061
 20
99.511299
 11
638.56061
 21
68.511299
  0
LINE
  8
0
  6
CONTINUOUS
 62
     7
 10
640.56061
 20
100.0472
 11
638.56061
 21
99.511292
  0
LINE
  8
0
  6
CENTER
 62
     7
 10
343.41446
 20
-90.647316
 11
480.65277
 21
-90.647316
  0
LINE
  8
0
  6
CENTER
 62
     7
 10
412.24847
 20
-64.04731
 11
412.24847
 21
-117.59731
  0
LINE
  8
0
  6
CONTINUOUS
 62
     7
 10
452.24847
 20
-65.647316
 11
452.24847
 21
-115.64732
  0
LINE
  8
0
  6
CONTINUOUS
 62
     7
 10
452.24847
 20
-65.647316
 11
455.74847
 21
-65.647316
  0
LINE
  8
0
  6
CONTINUOUS
 62
     7
 10
416.31094
 20
-67.147308
 11
447.67105
 21
-68.267311
  0
LINE
  8
0
  6
CONTINUOUS
 62
     7
 10
408.18597
 20
-67.147316
 11
416.31094
 21
-67.147316
  0
LINE
  8
0
  6
CONTINUOUS
 62
     7
 10
408.186
 20
-67.147324
 11
376.8259
 21
-68.267326
  0
LINE
  8
0
  6
CONTINUOUS
 62
     7
 10
372.24847
 20
-65.647316
 11
372.24847
 21
-115.64732
  0
LINE
  8
0
  6
CONTINUOUS
 62
     7
 10
408.18597
 20
-114.14732
 11
376.82587
 21
-113.02731
  0
LINE
  8
0
  6
CONTINUOUS
 62
     7
 10
408.18597
 20
-114.14732
 11
416.31094
 21
-114.14732
  0
LINE
  8
0
  6
CONTINUOUS
 62
     7
 10
416.31097
 20
-114.14732
 11
447.67105
 21
-113.02731
  0
LINE
  8
0
  6
CONTINUOUS
 62
     7
 10
452.24847
 20
-115.64732
 11
455.74847
 21
-115.64732
  0
LINE
  8
0
  6
CONTINUOUS
 62
     7
 10
417.74847
 20
-88.147316
 11
417.74847
 21
-93.147316
  0
LINE
  8
0
  6
CONTINUOUS
 62
     7
 10
406.74847
 20
-88.147316
 11
406.74847
 21
-93.147316
  0
LINE
  8
0
  6
CONTINUOUS
 62
     7
 10
424.74847
 20
-88.147316
 11
424.74847
 21
-93.147316
  0
LINE
  8
0
  6
CONTINUOUS
 62
     7
 10
399.74847
 20
-88.147316
 11
399.74847
 21
-93.147316
  0
LINE
  8
0
  6
CONTINUOUS
 62
     7
 10
399.74847
 20
-88.147316
 11
406.74847
 21
-88.147316
  0
LINE
  8
0
  6
CONTINUOUS
 62
     7
 10
399.74847
 20
-93.147316
 11
406.74847
 21
-93.147316
  0
LINE
  8
0
  6
CONTINUOUS
 62
     7
 10
417.74847
 20
-88.147316
 11
424.74847
 21
-88.147316
  0
LINE
  8
0
  6
CONTINUOUS
 62
     7
 10
417.74847
 20
-93.147316
 11
424.74847
 21
-93.147316
  0
LINE
  8
0
  6
CONTINUOUS
 62
     7
 10
474.24847
 20
-64.04731
 11
474.24847
 21
-117.59731
  0
LINE
  8
0
  6
CONTINUOUS
 62
     7
 10
474.24847
 20
-63.647312
 11
474.24847
 21
-117.64732
  0
LINE
  8
0
  6
CONTINUOUS
 62
     7
 10
455.74847
 20
-63.647312
 11
455.74847
 21
-117.64732
  0
LINE
  8
0
  6
CONTINUOUS
 62
     7
 10
457.74847
 20
-119.64732
 11
472.24847
 21
-119.64732
  0
LINE
  8
0
  6
CONTINUOUS
 62
     7
 10
457.74847
 20
-61.647312
 11
472.24847
 21
-61.647312
  0
LINE
  8
0
  6
CONTINUOUS
 62
     7
 10
455.74847
 20
-63.647312
 11
457.7485
 21
-61.647308
  0
LINE
  8
0
  6
CONTINUOUS
 62
     7
 10
472.2485
 20
-61.647308
 11
474.24847
 21
-63.647289
  0
LINE
  8
0
  6
CONTINUOUS
 62
     7
 10
455.74847
 20
-117.64731
 11
457.74847
 21
-119.64731
  0
LINE
  8
0
  6
CONTINUOUS
 62
     7
 10
472.24847
 20
-119.64731
 11
474.24847
 21
-117.64731
  0
LINE
  8
0
  6
CONTINUOUS
 62
     7
 10
456.74847
 20
-78.635124
 11
473.24847
 21
-78.635124
  0
LINE
  8
0
  6
CONTINUOUS
 62
     7
 10
456.74847
 20
-102.65951
 11
473.24847
 21
-102.65951
  0
LINE
  8
0
  6
CONTINUOUS
 62
     7
 10
476.24847
 20
-71.747322
 11
476.24847
 21
-109.54732
  0
LINE
  8
0
  6
CONTINUOUS
 62
     7
 10
476.24847
 20
-71.747314
 11
474.24847
 21
-71.211418
  0
LINE
  8
0
  6
CONTINUOUS
 62
     7
 10
476.24847
 20
-109.54731
 11
474.24844
 21
-110.08321
  0
LINE
  8
0
  6
CONTINUOUS
 62
     7
 10
348.24847
 20
-109.54733
 11
350.24847
 21
-110.08322
  0
LINE
  8
0
  6
CONTINUOUS
 62
     7
 10
372.24847
 20
-65.647316
 11
368.74847
 21
-65.647316
  0
LINE
  8
0
  6
CONTINUOUS
 62
     7
 10
372.24847
 20
-115.64732
 11
368.74847
 21
-115.64732
  0
LINE
  8
0
  6
CONTINUOUS
 62
     7
 10
350.24847
 20
-64.04731
 11
350.24847
 21
-117.59731
  0
LINE
  8
0
  6
CONTINUOUS
 62
     7
 10
350.24847
 20
-63.647312
 11
350.24847
 21
-117.64732
  0
LINE
  8
0
  6
CONTINUOUS
 62
     7
 10
368.74847
 20
-63.647312
 11
368.74847
 21
-117.64732
  0
LINE
  8
0
  6
CONTINUOUS
 62
     7
 10
366.74847
 20
-119.64732
 11
352.24847
 21
-119.64732
  0
LINE
  8
0
  6
CONTINUOUS
 62
     7
 10
366.74847
 20
-61.647312
 11
352.24847
 21
-61.647312
  0
LINE
  8
0
  6
CONTINUOUS
 62
     7
 10
368.74847
 20
-63.64732
 11
366.74847
 21
-61.64732
  0
LINE
  8
0
  6
CONTINUOUS
 62
     7
 10
352.24844
 20
-61.64732
 11
350.24847
 21
-63.647308
  0
LINE
  8
0
  6
CONTINUOUS
 62
     7
 10
368.74847
 20
-117.64732
 11
366.74847
 21
-119.64732
  0
LINE
  8
0
  6
CONTINUOUS
 62
     7
 10
352.24847
 20
-119.64732
 11
350.24844
 21
-117.64731
  0
LINE
  8
0
  6
CONTINUOUS
 62
     7
 10
367.74847
 20
-78.635124
 11
351.24847
 21
-78.635124
  0
LINE
  8
0
  6
CONTINUOUS
 62
     7
 10
367.74847
 20
-102.65951
 11
351.24847
 21
-102.65951
  0
LINE
  8
0
  6
CONTINUOUS
 62
     7
 10
348.24847
 20
-71.747322
 11
348.24847
 21
-109.54732
  0
LINE
  8
0
  6
CONTINUOUS
 62
     7
 10
348.24847
 20
-71.747322
 11
350.24847
 21
-71.211418
  0
LINE
  8
0
  6
CENTER
 62
     7
 10
694.49255
 20
-53.13686
 11
694.49255
 21
-122.08687
  0
LINE
  8
0
  6
CENTER
 62
     7
 10
621.00024
 20
-86.011299
 11
766.83606
 21
-86.011299
  0
LINE
  8
0
  6
CONTINUOUS
 62
     7
 10
737.49255
 20
-57.011295
 11
740.99255
 21
-57.011295
  0
LINE
  8
0
  6
CONTINUOUS
 62
     7
 10
737.49255
 20
-57.011295
 11
737.49255
 21
-115.01131
  0
LINE
  8
0
  6
CONTINUOUS
 62
     7
 10
690.43506
 20
-58.261295
 11
698.55011
 21
-58.261295
  0
LINE
  8
0
  6
CONTINUOUS
 62
     7
 10
698.55011
 20
-58.261295
 11
733.06464
 21
-59.396641
  0
LINE
  8
0
  6
CONTINUOUS
 62
     7
 10
690.435
 20
-58.261303
 11
655.92053
 21
-59.396648
  0
LINE
  8
0
  6
CONTINUOUS
 62
     7
 10
651.49255
 20
-57.011295
 11
651.49255
 21
-115.01131
  0
LINE
  8
0
  6
CONTINUOUS
 62
     7
 10
690.43506
 20
-113.7613
 11
655.92053
 21
-112.62595
  0
LINE
  8
0
  6
CONTINUOUS
 62
     7
 10
690.43506
 20
-113.76131
 11
698.55011
 21
-113.76131
  0
LINE
  8
0
  6
CONTINUOUS
 62
     7
 10
698.55011
 20
-113.7613
 11
733.06464
 21
-112.62595
  0
LINE
  8
0
  6
CONTINUOUS
 62
     7
 10
737.49255
 20
-115.01131
 11
740.99255
 21
-115.01131
  0
LINE
  8
0
  6
CONTINUOUS
 62
     7
 10
701.49255
 20
-83.511299
 11
701.49255
 21
-88.511299
  0
LINE
  8
0
  6
CONTINUOUS
 62
     7
 10
687.49255
 20
-83.511299
 11
687.49255
 21
-88.511299
  0
LINE
  8
0
  6
CONTINUOUS
 62
     7
 10
680.49255
 20
-83.511299
 11
680.49255
 21
-88.511299
  0
LINE
  8
0
  6
CONTINUOUS
 62
     7
 10
708.49255
 20
-83.511299
 11
708.49255
 21
-88.511299
  0
LINE
  8
0
  6
CONTINUOUS
 62
     7
 10
680.49255
 20
-83.511299
 11
687.49255
 21
-83.511299
  0
LINE
  8
0
  6
CONTINUOUS
 62
     7
 10
680.49255
 20
-88.511299
 11
687.49255
 21
-88.511299
  0
LINE
  8
0
  6
CONTINUOUS
 62
     7
 10
701.49255
 20
-83.511299
 11
708.49255
 21
-83.511299
  0
LINE
  8
0
  6
CONTINUOUS
 62
     7
 10
701.49255
 20
-88.511299
 11
708.49255
 21
-88.511299
  0
LINE
  8
0
  6
CONTINUOUS
 62
     7
 10
759.99255
 20
-55.011295
 11
759.99255
 21
-117.01131
  0
LINE
  8
0
  6
CONTINUOUS
 62
     7
 10
740.99255
 20
-55.011295
 11
740.99255
 21
-117.01128
  0
LINE
  8
0
  6
CONTINUOUS
 62
     7
 10
761.99255
 20
-62.661297
 11
761.99255
 21
-109.3613
  0
LINE
  8
0
  6
CONTINUOUS
 62
     7
 10
742.99255
 20
-53.011295
 11
757.99255
 21
-53.011295
  0
LINE
  8
0
  6
CONTINUOUS
 62
     7
 10
742.99255
 20
-119.01131
 11
757.99255
 21
-119.01131
  0
LINE
  8
0
  6
CONTINUOUS
 62
     7
 10
740.99255
 20
-55.011269
 11
742.99255
 21
-53.011265
  0
LINE
  8
0
  6
CONTINUOUS
 62
     7
 10
757.99255
 20
-53.011288
 11
759.99255
 21
-55.011292
  0
LINE
  8
0
  6
CONTINUOUS
 62
     7
 10
759.99261
 20
-117.01129
 11
757.99261
 21
-119.01129
  0
LINE
  8
0
  6
CONTINUOUS
 62
     7
 10
740.99255
 20
-117.01129
 11
742.99261
 21
-119.0113
  0
LINE
  8
0
  6
CONTINUOUS
 62
     7
 10
741.99255
 20
-72.342255
 11
758.99255
 21
-72.342255
  0
LINE
  8
0
  6
CONTINUOUS
 62
     7
 10
741.99255
 20
-99.680351
 11
758.99255
 21
-99.680351
  0
LINE
  8
0
  6
CONTINUOUS
 62
     7
 10
761.99255
 20
-62.661285
 11
759.99255
 21
-62.125385
  0
LINE
  8
0
  6
CONTINUOUS
 62
     7
 10
761.99255
 20
-109.36132
 11
759.99255
 21
-109.89722
  0
LINE
  8
0
  6
CONTINUOUS
 62
     7
 10
626.99255
 20
-109.36129
 11
628.99255
 21
-109.89719
  0
LINE
  8
0
  6
CONTINUOUS
 62
     7
 10
651.49255
 20
-57.011295
 11
647.99255
 21
-57.011295
  0
LINE
  8
0
  6
CONTINUOUS
 62
     7
 10
651.49255
 20
-115.01131
 11
647.99255
 21
-115.01131
  0
LINE
  8
0
  6
CONTINUOUS
 62
     7
 10
628.99261
 20
-55.011295
 11
628.99261
 21
-117.01131
  0
LINE
  8
0
  6
CONTINUOUS
 62
     7
 10
647.99255
 20
-55.011295
 11
647.99255
 21
-117.01131
  0
LINE
  8
0
  6
CONTINUOUS
 62
     7
 10
626.99261
 20
-62.661297
 11
626.99261
 21
-109.3613
  0
LINE
  8
0
  6
CONTINUOUS
 62
     7
 10
645.99255
 20
-53.011295
 11
630.99261
 21
-53.011295
  0
LINE
  8
0
  6
CONTINUOUS
 62
     7
 10
645.99255
 20
-119.01131
 11
630.99261
 21
-119.01131
  0
LINE
  8
0
  6
CONTINUOUS
 62
     7
 10
647.99255
 20
-55.011295
 11
645.99255
 21
-53.011295
  0
LINE
  8
0
  6
CONTINUOUS
 62
     7
 10
630.99255
 20
-53.011295
 11
628.99255
 21
-55.011295
  0
LINE
  8
0
  6
CONTINUOUS
 62
     7
 10
628.99261
 20
-117.01132
 11
630.99261
 21
-119.01132
  0
LINE
  8
0
  6
CONTINUOUS
 62
     7
 10
647.99261
 20
-117.01133
 11
645.99261
 21
-119.01134
  0
LINE
  8
0
  6
CONTINUOUS
 62
     7
 10
646.99255
 20
-72.342255
 11
629.99261
 21
-72.342255
  0
LINE
  8
0
  6
CONTINUOUS
 62
     7
 10
646.99255
 20
-99.680351
 11
629.99261
 21
-99.680351
  0
LINE
  8
0
  6
CONTINUOUS
 62
     7
 10
626.99261
 20
-62.661293
 11
628.99261
 21
-62.125393
  0
LINE
  8
0
  6
CENTER
 62
     7
 10
375.12964
 20
-324.92767
 11
526.62109
 21
-324.92767
  0
LINE
  8
0
  6
CENTER
 62
     7
 10
453.09726
 20
-287.12769
 11
453.09726
 21
-359.92767
  0
LINE
  8
0
  6
CONTINUOUS
 62
     7
 10
497.34726
 20
-292.42767
 11
500.84726
 21
-292.42767
  0
LINE
  8
0
  6
CONTINUOUS
 62
     7
 10
497.34726
 20
-292.42767
 11
497.34726
 21
-357.42767
  0
LINE
  8
0
  6
CONTINUOUS
 62
     7
 10
449.02084
 20
-293.42767
 11
457.17368
 21
-293.42767
  0
LINE
  8
0
  6
CONTINUOUS
 62
     7
 10
457.25
 20
-293.43057
 11
492.90439
 21
-294.79318
  0
LINE
  8
0
  6
CONTINUOUS
 62
     7
 10
448.94452
 20
-293.4306
 11
413.2901
 21
-294.79318
  0
LINE
  8
0
  6
CONTINUOUS
 62
     7
 10
408.84726
 20
-292.42767
 11
408.84726
 21
-357.42767
  0
LINE
  8
0
  6
CONTINUOUS
 62
     7
 10
448.94449
 20
-356.42477
 11
413.2901
 21
-355.06216
  0
LINE
  8
0
  6
CONTINUOUS
 62
     7
 10
449.02084
 20
-356.42767
 11
457.17368
 21
-356.42767
  0
LINE
  8
0
  6
CONTINUOUS
 62
     7
 10
457.25003
 20
-356.42477
 11
492.90442
 21
-355.06219
  0
LINE
  8
0
  6
CONTINUOUS
 62
     7
 10
497.34726
 20
-357.42767
 11
500.84726
 21
-357.42767
  0
LINE
  8
0
  6
CONTINUOUS
 62
     7
 10
446.09726
 20
-322.42767
 11
446.09726
 21
-327.42767
  0
LINE
  8
0
  6
CONTINUOUS
 62
     7
 10
460.09726
 20
-322.42767
 11
460.09726
 21
-327.42767
  0
LINE
  8
0
  6
CONTINUOUS
 62
     7
 10
468.09726
 20
-322.42767
 11
468.09726
 21
-327.42767
  0
LINE
  8
0
  6
CONTINUOUS
 62
     7
 10
438.09726
 20
-322.42767
 11
438.09726
 21
-327.42767
  0
LINE
  8
0
  6
CONTINUOUS
 62
     7
 10
438.09726
 20
-327.42767
 11
446.09726
 21
-327.42767
  0
LINE
  8
0
  6
CONTINUOUS
 62
     7
 10
438.09726
 20
-322.42767
 11
446.09726
 21
-322.42767
  0
LINE
  8
0
  6
CONTINUOUS
 62
     7
 10
460.09726
 20
-322.42767
 11
468.09726
 21
-322.42767
  0
LINE
  8
0
  6
CONTINUOUS
 62
     7
 10
460.09726
 20
-327.42767
 11
468.09726
 21
-327.42767
  0
LINE
  8
0
  6
CONTINUOUS
 62
     7
 10
522.84723
 20
-290.42767
 11
522.84723
 21
-359.42767
  0
LINE
  8
0
  6
CONTINUOUS
 62
     7
 10
501.84726
 20
-324.92767
 11
521.84723
 21
-324.92767
  0
LINE
  8
0
  6
CONTINUOUS
 62
     7
 10
500.84726
 20
-290.42767
 11
500.84726
 21
-359.42767
  0
LINE
  8
0
  6
CONTINUOUS
 62
     7
 10
502.84726
 20
-288.42767
 11
520.84723
 21
-288.42767
  0
LINE
  8
0
  6
CONTINUOUS
 62
     7
 10
502.84726
 20
-361.42767
 11
520.84723
 21
-361.42767
  0
LINE
  8
0
  6
CONTINUOUS
 62
     7
 10
524.84723
 20
-298.47766
 11
524.84723
 21
-351.37769
  0
LINE
  8
0
  6
CONTINUOUS
 62
     7
 10
501.84726
 20
-302.36945
 11
521.84723
 21
-302.36945
  0
LINE
  8
0
  6
CONTINUOUS
 62
     7
 10
501.84726
 20
-347.4859
 11
521.84723
 21
-347.4859
  0
LINE
  8
0
  6
CONTINUOUS
 62
     7
 10
500.84726
 20
-290.42767
 11
502.84726
 21
-288.42767
  0
LINE
  8
0
  6
CONTINUOUS
 62
     7
 10
520.84729
 20
-288.42764
 11
522.84729
 21
-290.42764
  0
LINE
  8
0
  6
CONTINUOUS
 62
     7
 10
500.84726
 20
-359.4277
 11
502.84726
 21
-361.4277
  0
LINE
  8
0
  6
CONTINUOUS
 62
     7
 10
522.84729
 20
-359.42767
 11
520.84729
 21
-361.4277
  0
LINE
  8
0
  6
CONTINUOUS
 62
     7
 10
524.84723
 20
-298.47769
 11
522.84723
 21
-297.94177
  0
LINE
  8
0
  6
CONTINUOUS
 62
     7
 10
524.84729
 20
-351.37766
 11
522.84729
 21
-351.91357
  0
LINE
  8
0
  6
CONTINUOUS
 62
     7
 10
381.34723
 20
-351.37769
 11
383.34726
 21
-351.91357
  0
LINE
  8
0
  6
CONTINUOUS
 62
     7
 10
408.84726
 20
-292.42767
 11
405.34726
 21
-292.42767
  0
LINE
  8
0
  6
CONTINUOUS
 62
     7
 10
408.84726
 20
-357.42767
 11
405.34726
 21
-357.42767
  0
LINE
  8
0
  6
CONTINUOUS
 62
     7
 10
383.34726
 20
-290.42767
 11
383.34726
 21
-359.42767
  0
LINE
  8
0
  6
CONTINUOUS
 62
     7
 10
404.34726
 20
-324.92767
 11
384.34726
 21
-324.92767
  0
LINE
  8
0
  6
CONTINUOUS
 62
     7
 10
405.34726
 20
-290.42767
 11
405.34726
 21
-359.42767
  0
LINE
  8
0
  6
CONTINUOUS
 62
     7
 10
403.34726
 20
-288.42767
 11
385.34726
 21
-288.42767
  0
LINE
  8
0
  6
CONTINUOUS
 62
     7
 10
403.34726
 20
-361.42767
 11
385.34726
 21
-361.42767
  0
LINE
  8
0
  6
CONTINUOUS
 62
     7
 10
381.34726
 20
-298.47766
 11
381.34726
 21
-351.37769
  0
LINE
  8
0
  6
CONTINUOUS
 62
     7
 10
404.34726
 20
-302.36945
 11
384.34726
 21
-302.36945
  0
LINE
  8
0
  6
CONTINUOUS
 62
     7
 10
404.34726
 20
-347.4859
 11
384.34726
 21
-347.4859
  0
LINE
  8
0
  6
CONTINUOUS
 62
     7
 10
405.34726
 20
-290.42767
 11
403.34726
 21
-288.42767
  0
LINE
  8
0
  6
CONTINUOUS
 62
     7
 10
385.34726
 20
-288.4277
 11
383.34729
 21
-290.42767
  0
LINE
  8
0
  6
CONTINUOUS
 62
     7
 10
405.34726
 20
-359.42767
 11
403.34726
 21
-361.42767
  0
LINE
  8
0
  6
CONTINUOUS
 62
     7
 10
383.34726
 20
-359.42767
 11
385.34726
 21
-361.42767
  0
LINE
  8
0
  6
CONTINUOUS
 62
     7
 10
381.34726
 20
-298.47766
 11
383.34729
 21
-297.94177
  0
LINE
  8
0
  6
CENTER
 62
     7
 10
377.81464
 20
-516.7149
 11
544.33661
 21
-516.7149
  0
LINE
  8
0
  6
CENTER
 62
     7
 10
461.88751
 20
-475.37988
 11
461.88751
 21
-556.92987
  0
LINE
  8
0
  6
CONTINUOUS
 62
     7
 10
509.38751
 20
-477.71487
 11
511.88751
 21
-477.71487
  0
LINE
  8
0
  6
CONTINUOUS
 62
     7
 10
509.38751
 20
-477.71487
 11
509.38751
 21
-555.7149
  0
LINE
  8
0
  6
CONTINUOUS
 62
     7
 10
465.96689
 20
-478.71487
 11
504.95313
 21
-480.09085
  0
LINE
  8
0
  6
CONTINUOUS
 62
     7
 10
465.96689
 20
-478.71487
 11
457.80814
 21
-478.71487
  0
LINE
  8
0
  6
CONTINUOUS
 62
     7
 10
457.80811
 20
-478.71487
 11
418.82193
 21
-480.09088
  0
LINE
  8
0
  6
CONTINUOUS
 62
     7
 10
414.38751
 20
-477.71487
 11
414.38751
 21
-555.7149
  0
LINE
  8
0
  6
CONTINUOUS
 62
     7
 10
457.80811
 20
-554.71484
 11
418.8219
 21
-553.33887
  0
LINE
  8
0
  6
CONTINUOUS
 62
     7
 10
465.96689
 20
-554.7149
 11
457.80814
 21
-554.7149
  0
LINE
  8
0
  6
CONTINUOUS
 62
     7
 10
465.96689
 20
-554.7149
 11
504.95313
 21
-553.33887
  0
LINE
  8
0
  6
CONTINUOUS
 62
     7
 10
509.38751
 20
-555.7149
 11
511.88751
 21
-555.7149
  0
LINE
  8
0
  6
CONTINUOUS
 62
     7
 10
468.88751
 20
-514.2149
 11
468.88751
 21
-519.2149
  0
LINE
  8
0
  6
CONTINUOUS
 62
     7
 10
454.88751
 20
-514.2149
 11
454.88751
 21
-519.2149
  0
LINE
  8
0
  6
CONTINUOUS
 62
     7
 10
446.88751
 20
-519.2149
 11
454.88751
 21
-519.2149
  0
LINE
  8
0
  6
CONTINUOUS
 62
     7
 10
446.88751
 20
-514.2149
 11
454.88751
 21
-514.2149
  0
LINE
  8
0
  6
CONTINUOUS
 62
     7
 10
476.88751
 20
-514.2149
 11
476.88751
 21
-519.2149
  0
LINE
  8
0
  6
CONTINUOUS
 62
     7
 10
446.88751
 20
-514.2149
 11
446.88751
 21
-519.2149
  0
LINE
  8
0
  6
CONTINUOUS
 62
     7
 10
468.88751
 20
-514.2149
 11
476.88751
 21
-514.2149
  0
LINE
  8
0
  6
CONTINUOUS
 62
     7
 10
468.88751
 20
-519.2149
 11
476.88751
 21
-519.2149
  0
LINE
  8
0
  6
CONTINUOUS
 62
     7
 10
535.38751
 20
-475.21487
 11
535.38751
 21
-558.2149
  0
LINE
  8
0
  6
CONTINUOUS
 62
     7
 10
512.88751
 20
-516.7149
 11
534.38751
 21
-516.7149
  0
LINE
  8
0
  6
CONTINUOUS
 62
     7
 10
513.88751
 20
-473.21487
 11
533.38751
 21
-473.21487
  0
LINE
  8
0
  6
CONTINUOUS
 62
     7
 10
513.88751
 20
-560.2149
 11
533.38751
 21
-560.2149
  0
LINE
  8
0
  6
CONTINUOUS
 62
     7
 10
511.88754
 20
-475.2149
 11
513.88751
 21
-473.21487
  0
LINE
  8
0
  6
CONTINUOUS
 62
     7
 10
533.38751
 20
-473.2149
 11
535.38751
 21
-475.2149
  0
LINE
  8
0
  6
CONTINUOUS
 62
     7
 10
511.88754
 20
-558.2149
 11
513.88751
 21
-560.2149
  0
LINE
  8
0
  6
CONTINUOUS
 62
     7
 10
533.38757
 20
-560.2149
 11
535.38751
 21
-558.2149
  0
LINE
  8
0
  6
CONTINUOUS
 62
     7
 10
537.38751
 20
-484.26486
 11
537.38751
 21
-549.16486
  0
LINE
  8
0
  6
CONTINUOUS
 62
     7
 10
534.38751
 20
-489.83038
 11
512.88751
 21
-489.83038
  0
LINE
  8
0
  6
CONTINUOUS
 62
     7
 10
534.38751
 20
-543.59937
 11
512.88751
 21
-543.59937
  0
LINE
  8
0
  6
CONTINUOUS
 62
     7
 10
537.38751
 20
-484.26486
 11
535.38751
 21
-483.72897
  0
LINE
  8
0
  6
CONTINUOUS
 62
     7
 10
537.38751
 20
-549.16486
 11
535.38751
 21
-549.70074
  0
LINE
  8
0
  6
CONTINUOUS
 62
     7
 10
386.38745
 20
-549.16486
 11
388.38748
 21
-549.70074
  0
LINE
  8
0
  6
CONTINUOUS
 62
     7
 10
414.38751
 20
-477.71487
 11
411.88751
 21
-477.71487
  0
LINE
  8
0
  6
CONTINUOUS
 62
     7
 10
414.38751
 20
-555.7149
 11
411.88751
 21
-555.7149
  0
LINE
  8
0
  6
CONTINUOUS
 62
     7
 10
388.38751
 20
-475.21487
 11
388.38751
 21
-558.2149
  0
LINE
  8
0
  6
CONTINUOUS
 62
     7
 10
410.88751
 20
-516.7149
 11
389.38751
 21
-516.7149
  0
LINE
  8
0
  6
CONTINUOUS
 62
     7
 10
411.88751
 20
-475.21487
 11
411.88751
 21
-558.2149
  0
LINE
  8
0
  6
CONTINUOUS
 62
     7
 10
409.88751
 20
-473.21487
 11
390.38751
 21
-473.21487
  0
LINE
  8
0
  6
CONTINUOUS
 62
     7
 10
409.88751
 20
-560.2149
 11
390.38751
 21
-560.2149
  0
LINE
  8
0
  6
CONTINUOUS
 62
     7
 10
411.88748
 20
-475.21484
 11
409.88745
 21
-473.21484
  0
LINE
  8
0
  6
CONTINUOUS
 62
     7
 10
390.38748
 20
-473.21484
 11
388.38748
 21
-475.21484
  0
LINE
  8
0
  6
CONTINUOUS
 62
     7
 10
411.88748
 20
-558.21484
 11
409.88748
 21
-560.21484
  0
LINE
  8
0
  6
CONTINUOUS
 62
     7
 10
390.38748
 20
-560.21484
 11
388.38748
 21
-558.21484
  0
LINE
  8
0
  6
CONTINUOUS
 62
     7
 10
386.38751
 20
-484.26486
 11
386.38751
 21
-549.16486
  0
LINE
  8
0
  6
CONTINUOUS
 62
     7
 10
389.38751
 20
-489.83038
 11
410.88751
 21
-489.83038
  0
LINE
  8
0
  6
CONTINUOUS
 62
     7
 10
389.38751
 20
-543.59937
 11
410.88751
 21
-543.59937
  0
LINE
  8
0
  6
CONTINUOUS
 62
     7
 10
386.38748
 20
-484.26486
 11
388.38748
 21
-483.72894
  0
LINE
  8
0
  6
CONTINUOUS
 62
     7
 10
317
 20
-210
 11
317
 21
210
  0
LINE
  8
0
  6
CONTINUOUS
 62
     7
 10
911
 20
-210
 11
317
 21
-210
  0
LINE
  8
0
  6
CONTINUOUS
 62
     7
 10
317
 20
210
 11
911
 21
210
  0
LINE
  8
0
  6
CONTINUOUS
 62
     7
 10
911
 20
210
 11
911
 21
-210
  0
LINE
  8
0
  6
CONTINUOUS
 62
     7
 10
550.10181
 20
97.012276
 11
537.80023
 21
109.31379
  0
LINE
  8
0
  6
CONTINUOUS
 62
     7
 10
537.80029
 20
109.3138
 11
520.40332
 21
109.3138
  0
LINE
  8
0
  6
CONTINUOUS
 62
     7
 10
508.10178
 20
97.012276
 11
520.40332
 21
109.31379
  0
LINE
  8
0
  6
CONTINUOUS
 62
     7
 10
508.10178
 20
79.615318
 11
508.10178
 21
97.012276
  0
LINE
  8
0
  6
CONTINUOUS
 62
     7
 10
520.40332
 20
67.313789
 11
508.10178
 21
79.615311
  0
LINE
  8
0
  6
CONTINUOUS
 62
     7
 10
537.80029
 20
67.313805
 11
520.40332
 21
67.313805
  0
LINE
  8
0
  6
CONTINUOUS
 62
     7
 10
550.10181
 20
79.615311
 11
537.80023
 21
67.313789
  0
LINE
  8
0
  6
CONTINUOUS
 62
     7
 10
550.10181
 20
97.012276
 11
550.10181
 21
79.615318
  0
LINE
  8
0
  6
CONTINUOUS
 62
     7
 10
844.04346
 20
94.152405
 11
829.70178
 21
108.49411
  0
LINE
  8
0
  6
CONTINUOUS
 62
     7
 10
829.70172
 20
108.4941
 11
809.41949
 21
108.4941
  0
LINE
  8
0
  6
CONTINUOUS
 62
     7
 10
795.07782
 20
94.15239
 11
809.41949
 21
108.49409
  0
LINE
  8
0
  6
CONTINUOUS
 62
     7
 10
795.07782
 20
73.870186
 11
795.07782
 21
94.152397
  0
LINE
  8
0
  6
CONTINUOUS
 62
     7
 10
809.41956
 20
59.528473
 11
795.07782
 21
73.870171
  0
LINE
  8
0
  6
CONTINUOUS
 62
     7
 10
829.70172
 20
59.528477
 11
809.41949
 21
59.528477
  0
LINE
  8
0
  6
CONTINUOUS
 62
     7
 10
844.0434
 20
73.870171
 11
829.70172
 21
59.528473
  0
LINE
  8
0
  6
CONTINUOUS
 62
     7
 10
844.04346
 20
94.152397
 11
844.04346
 21
73.870186
  0
LINE
  8
0
  6
CONTINUOUS
 62
     7
 10
581.24847
 20
-78.635117
 11
564.26068
 21
-61.647312
  0
LINE
  8
0
  6
CONTINUOUS
 62
     7
 10
564.26068
 20
-61.647316
 11
540.23627
 21
-61.647316
  0
LINE
  8
0
  6
CONTINUOUS
 62
     7
 10
523.24847
 20
-78.635139
 11
540.23627
 21
-61.647335
  0
LINE
  8
0
  6
CONTINUOUS
 62
     7
 10
523.24847
 20
-102.65952
 11
523.24847
 21
-78.635124
  0
LINE
  8
0
  6
CONTINUOUS
 62
     7
 10
540.23627
 20
-119.64731
 11
523.24847
 21
-102.65951
  0
LINE
  8
0
  6
CONTINUOUS
 62
     7
 10
564.26068
 20
-119.64732
 11
540.23627
 21
-119.64732
  0
LINE
  8
0
  6
CONTINUOUS
 62
     7
 10
581.24847
 20
-102.65952
 11
564.26068
 21
-119.64733
  0
LINE
  8
0
  6
CONTINUOUS
 62
     7
 10
581.24847
 20
-78.635124
 11
581.24847
 21
-102.65952
  0
LINE
  8
0
  6
CONTINUOUS
 62
     7
 10
867.49255
 20
-72.342278
 11
848.16162
 21
-53.011299
  0
LINE
  8
0
  6
CONTINUOUS
 62
     7
 10
848.16162
 20
-53.011295
 11
820.82355
 21
-53.011295
  0
LINE
  8
0
  6
CONTINUOUS
 62
     7
 10
801.49261
 20
-72.342239
 11
820.82355
 21
-53.011299
  0
LINE
  8
0
  6
CONTINUOUS
 62
     7
 10
801.49255
 20
-99.680344
 11
801.49255
 21
-72.342255
  0
LINE
  8
0
  6
CONTINUOUS
 62
     7
 10
820.82355
 20
-119.01131
 11
801.49255
 21
-99.680328
  0
LINE
  8
0
  6
CONTINUOUS
 62
     7
 10
848.16162
 20
-119.01131
 11
820.82355
 21
-119.01131
  0
LINE
  8
0
  6
CONTINUOUS
 62
     7
 10
867.49255
 20
-99.680351
 11
848.16162
 21
-119.01128
  0
LINE
  8
0
  6
CONTINUOUS
 62
     7
 10
867.49255
 20
-72.342255
 11
867.49255
 21
-99.680344
  0
LINE
  8
0
  6
CONTINUOUS
 62
     7
 10
631.47565
 20
-324.92767
 11
624.146
 21
-302.36945
  0
LINE
  8
0
  6
CONTINUOUS
 62
     7
 10
624.146
 20
-302.36945
 11
604.95679
 21
-288.42767
  0
LINE
  8
0
  6
CONTINUOUS
 62
     7
 10
581.23767
 20
-288.42767
 11
604.95685
 21
-288.42767
  0
LINE
  8
0
  6
CONTINUOUS
 62
     7
 10
562.04852
 20
-302.36945
 11
581.23773
 21
-288.42767
  0
LINE
  8
0
  6
CONTINUOUS
 62
     7
 10
554.71887
 20
-324.92767
 11
562.04852
 21
-302.36942
  0
LINE
  8
0
  6
CONTINUOUS
 62
     7
 10
562.04852
 20
-347.48593
 11
554.71887
 21
-324.92767
  0
LINE
  8
0
  6
CONTINUOUS
 62
     7
 10
581.23767
 20
-361.42767
 11
562.04846
 21
-347.4859
  0
LINE
  8
0
  6
CONTINUOUS
 62
     7
 10
604.95685
 20
-361.42767
 11
581.23767
 21
-361.42767
  0
LINE
  8
0
  6
CONTINUOUS
 62
     7
 10
624.14606
 20
-347.4859
 11
604.95685
 21
-361.4277
  0
LINE
  8
0
  6
CONTINUOUS
 62
     7
 10
631.47565
 20
-324.92767
 11
624.146
 21
-347.48593
  0
LINE
  8
0
  6
CONTINUOUS
 62
     7
 10
667.6261
 20
-516.71484
 11
658.89081
 21
-489.83038
  0
LINE
  8
0
  6
CONTINUOUS
 62
     7
 10
658.89081
 20
-489.83038
 11
636.02148
 21
-473.21487
  0
LINE
  8
0
  6
CONTINUOUS
 62
     7
 10
607.75354
 20
-473.21487
 11
636.02148
 21
-473.21487
  0
LINE
  8
0
  6
CONTINUOUS
 62
     7
 10
584.88422
 20
-489.83041
 11
607.75354
 21
-473.2149
  0
LINE
  8
0
  6
CONTINUOUS
 62
     7
 10
576.14886
 20
-516.7149
 11
584.88422
 21
-489.83041
  0
LINE
  8
0
  6
CONTINUOUS
 62
     7
 10
584.88422
 20
-543.59937
 11
576.14893
 21
-516.71484
  0
LINE
  8
0
  6
CONTINUOUS
 62
     7
 10
607.75348
 20
-560.21484
 11
584.88416
 21
-543.59937
  0
LINE
  8
0
  6
CONTINUOUS
 62
     7
 10
636.02155
 20
-560.21484
 11
607.75354
 21
-560.21484
  0
LINE
  8
0
  6
CONTINUOUS
 62
     7
 10
658.89081
 20
-543.59937
 11
636.02155
 21
-560.2149
  0
LINE
  8
0
  6
CONTINUOUS
 62
     7
 10
667.6261
 20
-516.7149
 11
658.89081
 21
-543.59937
  0
LINE
  8
0
  6
CENTER
 62
     7
 10
529.10181
 20
114.5138
 11
529.10181
 21
62.113804
  0
LINE
  8
0
  6
CENTER
 62
     7
 10
502.90179
 20
88.313805
 11
555.30176
 21
88.313805
  0
LINE
  8
0
  6
CENTER
 62
     7
 10
819.56061
 20
114.5113
 11
819.56061
 21
53.511295
  0
LINE
  8
0
  6
CENTER
 62
     7
 10
789.06061
 20
84.011299
 11
850.06061
 21
84.011299
  0
LINE
  8
0
  6
CENTER
 62
     7
 10
834.49255
 20
-47.125393
 11
834.49255
 21
-124.8972
  0
LINE
  8
0
  6
CENTER
 62
     7
 10
795.60669
 20
-86.011299
 11
873.37848
 21
-86.011299
  0
LINE
  8
0
  6
CENTER
 62
     7
 10
552.24847
 20
-58.297318
 11
552.24847
 21
-122.99731
  0
LINE
  8
0
  6
CENTER
 62
     7
 10
519.8985
 20
-90.647316
 11
584.59845
 21
-90.647316
  0
LINE
  8
0
  6
CENTER
 62
     7
 10
593.09729
 20
-285.22766
 11
593.09729
 21
-364.62769
  0
LINE
  8
0
  6
CENTER
 62
     7
 10
553.39728
 20
-324.92767
 11
632.79724
 21
-324.92767
  0
LINE
  8
0
  6
CENTER
 62
     7
 10
621.88751
 20
-468.72897
 11
621.88751
 21
-564.70081
  0
LINE
  8
0
  6
CENTER
 62
     7
 10
573.90161
 20
-516.7149
 11
669.87341
 21
-516.7149
  0
LINE
  8
0
  6
CONTINUOUS
 62
     7
 10
317
 20
-650
 11
317
 21
-230
  0
LINE
  8
0
  6
CONTINUOUS
 62
     7
 10
317
 20
-230
 11
911
 21
-230
  0
LINE
  8
0
  6
CONTINUOUS
 62
     7
 10
911
 20
-230
 11
911
 21
-650
  0
LINE
  8
0
  6
CONTINUOUS
 62
     7
 10
911
 20
-650
 11
317
 21
-650
  0
LINE
  8
0
  6
CONTINUOUS
 62
     7
 10
511.88751
 20
-475.21487
 11
511.88751
 21
-558.2149
  0
ARC
  8
0
  6
CONTINUOUS
 62
     7
 10
-162.70151
 20
110.22514
 40
5
 50
269.08335
 51
319.43978
  0
ARC
  8
0
  6
CONTINUOUS
 62
     7
 10
-221.60428
 20
110.22514
 40
5
 50
220.56023
 51
270.91666
  0
ARC
  8
0
  6
CONTINUOUS
 62
     7
 10
-221.60428
 20
69.117546
 40
5
 50
89.083343
 51
139.43977
  0
ARC
  8
0
  6
CONTINUOUS
 62
     7
 10
-162.70151
 20
69.117546
 40
5
 50
40.560225
 51
90.916655
  0
ARC
  8
0
  6
CONTINUOUS
 62
     7
 10
112.53272
 20
114.44109
 40
5
 50
267.76302
 51
312.72728
  0
ARC
  8
0
  6
CONTINUOUS
 62
     7
 10
47.317814
 20
114.44109
 40
5
 50
227.27272
 51
272.23698
  0
ARC
  8
0
  6
CONTINUOUS
 62
     7
 10
47.317814
 20
67.663826
 40
5
 50
87.76302
 51
132.72728
  0
ARC
  8
0
  6
CONTINUOUS
 62
     7
 10
112.53272
 20
67.663826
 40
5
 50
47.272719
 51
92.236978
  0
ARC
  8
0
  6
CONTINUOUS
 62
     7
 10
-154.72183
 20
-69.614647
 40
5
 50
267.95459
 51
312.82733
  0
ARC
  8
0
  6
CONTINUOUS
 62
     7
 10
-225.92392
 20
-69.614647
 40
5
 50
227.17279
 51
272.04541
  0
ARC
  8
0
  6
CONTINUOUS
 62
     7
 10
-225.92392
 20
-124.36827
 40
5
 50
87.954593
 51
132.82721
  0
ARC
  8
0
  6
CONTINUOUS
 62
     7
 10
-154.72183
 20
-124.36827
 40
5
 50
47.172667
 51
92.045405
  0
ARC
  8
0
  6
CONTINUOUS
 62
     7
 10
131.74776
 20
-69.709541
 40
5
 50
268.11595
 51
310.746
  0
ARC
  8
0
  6
CONTINUOUS
 62
     7
 10
54.27483
 20
-69.709541
 40
5
 50
229.25399
 51
271.88405
  0
ARC
  8
0
  6
CONTINUOUS
 62
     7
 10
54.27483
 20
-132.93344
 40
5
 50
88.115949
 51
130.74601
  0
ARC
  8
0
  6
CONTINUOUS
 62
     7
 10
131.74776
 20
-132.93344
 40
5
 50
49.253997
 51
91.884049
  0
ARC
  8
0
  6
CONTINUOUS
 62
     7
 10
-124.70439
 20
-323.55457
 40
5
 50
267.81142
 51
296.76805
  0
ARC
  8
0
  6
CONTINUOUS
 62
     7
 10
-204.70059
 20
-323.55457
 40
5
 50
243.23193
 51
272.18858
  0
ARC
  8
0
  6
CONTINUOUS
 62
     7
 10
-204.70059
 20
-393.81625
 40
5
 50
87.811419
 51
116.76807
  0
ARC
  8
0
  6
CONTINUOUS
 62
     7
 10
-124.70439
 20
-393.81625
 40
5
 50
63.231952
 51
92.18858
  0
ARC
  8
0
  6
CONTINUOUS
 62
     7
 10
-123.29055
 20
-494.57718
 40
5
 50
267.97864
 51
284.5727
  0
ARC
  8
0
  6
CONTINUOUS
 62
     7
 10
-209.77448
 20
-494.57718
 40
5
 50
255.4273
 51
272.02136
  0
ARC
  8
0
  6
CONTINUOUS
 62
     7
 10
-209.77448
 20
-577.81897
 40
5
 50
87.978635
 51
104.5727
  0
ARC
  8
0
  6
CONTINUOUS
 62
     7
 10
-123.29055
 20
-577.81897
 40
5
 50
75.427295
 51
92.021363
  0
CIRCLE
  8
0
  6
CONTINUOUS
 62
     7
 10
-82.312752
 20
89.671349
 40
11.5
  0
CIRCLE
  8
0
  6
CONTINUOUS
 62
     7
 10
197.3194
 20
91.052452
 40
14.25
  0
CIRCLE
  8
0
  6
CONTINUOUS
 62
     7
 10
-66.37484
 20
-96.991463
 40
17.75
  0
CIRCLE
  8
0
  6
CONTINUOUS
 62
     7
 10
238.7547
 20
-101.32149
 40
22
  0
CIRCLE
  8
0
  6
CONTINUOUS
 62
     7
 10
-34.961708
 20
-358.68539
 40
25
  0
CIRCLE
  8
0
  6
CONTINUOUS
 62
     7
 10
-17.705149
 20
-536.19806
 40
31
  0
ARC
  8
0
  6
CONTINUOUS
 62
     7
 10
438.55316
 20
108.86761
 40
5
 50
269.08335
 51
329.28551
  0
ARC
  8
0
  6
CONTINUOUS
 62
     7
 10
379.65039
 20
108.86761
 40
5
 50
210.7145
 51
270.91666
  0
ARC
  8
0
  6
CONTINUOUS
 62
     7
 10
379.65039
 20
67.760002
 40
5
 50
89.083343
 51
149.2855
  0
ARC
  8
0
  6
CONTINUOUS
 62
     7
 10
438.55316
 20
67.760002
 40
5
 50
30.71449
 51
90.916655
  0
ARC
  8
0
  6
CONTINUOUS
 62
     7
 10
732.16809
 20
107.39993
 40
5
 50
267.76302
 51
331.46311
  0
ARC
  8
0
  6
CONTINUOUS
 62
     7
 10
666.95319
 20
107.39993
 40
5
 50
208.53689
 51
272.23698
  0
ARC
  8
0
  6
CONTINUOUS
 62
     7
 10
666.95319
 20
60.622669
 40
5
 50
87.76302
 51
151.46311
  0
ARC
  8
0
  6
CONTINUOUS
 62
     7
 10
732.16809
 20
60.622669
 40
5
 50
28.536892
 51
92.236978
  0
ARC
  8
0
  6
CONTINUOUS
 62
     7
 10
447.84952
 20
-63.270496
 40
5
 50
267.95459
 51
331.61707
  0
ARC
  8
0
  6
CONTINUOUS
 62
     7
 10
376.64743
 20
-63.270496
 40
5
 50
208.38293
 51
272.04541
  0
ARC
  8
0
  6
CONTINUOUS
 62
     7
 10
376.64743
 20
-118.02412
 40
5
 50
87.954593
 51
151.61707
  0
ARC
  8
0
  6
CONTINUOUS
 62
     7
 10
447.84952
 20
-118.02412
 40
5
 50
28.382926
 51
92.045405
  0
ARC
  8
0
  6
CONTINUOUS
 62
     7
 10
733.22906
 20
-54.399342
 40
5
 50
268.11595
 51
328.50729
  0
ARC
  8
0
  6
CONTINUOUS
 62
     7
 10
655.7561
 20
-54.399342
 40
5
 50
211.49271
 51
271.88405
  0
ARC
  8
0
  6
CONTINUOUS
 62
     7
 10
655.7561
 20
-117.62325
 40
5
 50
88.115949
 51
148.50729
  0
ARC
  8
0
  6
CONTINUOUS
 62
     7
 10
733.22906
 20
-117.62325
 40
5
 50
31.492711
 51
91.884049
  0
ARC
  8
0
  6
CONTINUOUS
 62
     7
 10
493.09537
 20
-289.79681
 40
5
 50
267.81142
 51
328.25301
  0
ARC
  8
0
  6
CONTINUOUS
 62
     7
 10
413.09915
 20
-289.79681
 40
5
 50
211.74699
 51
272.18858
  0
ARC
  8
0
  6
CONTINUOUS
 62
     7
 10
413.09915
 20
-360.05853
 40
5
 50
87.811419
 51
148.25301
  0
ARC
  8
0
  6
CONTINUOUS
 62
     7
 10
493.09537
 20
-360.05853
 40
5
 50
31.746989
 51
92.18858
  0
ARC
  8
0
  6
CONTINUOUS
 62
     7
 10
505.12949
 20
-475.09396
 40
5
 50
267.97864
 51
328.38688
  0
ARC
  8
0
  6
CONTINUOUS
 62
     7
 10
418.64554
 20
-475.09396
 40
5
 50
211.61312
 51
272.02136
  0
ARC
  8
0
  6
CONTINUOUS
 62
     7
 10
418.64554
 20
-558.33575
 40
5
 50
87.978635
 51
148.38688
  0
ARC
  8
0
  6
CONTINUOUS
 62
     7
 10
505.12949
 20
-558.33575
 40
5
 50
31.613121
 51
92.021363
  0
CIRCLE
  8
0
  6
CONTINUOUS
 62
     7
 10
529.10181
 20
88.313805
 40
11.2
  0
CIRCLE
  8
0
  6
CONTINUOUS
 62
     7
 10
529.10181
 20
88.313805
 40
12.75
  0
CIRCLE
  8
0
  6
CONTINUOUS
 62
     7
 10
529.10181
 20
88.313805
 40
13.285898
  0
CIRCLE
  8
0
  6
CONTINUOUS
 62
     7
 10
819.56061
 20
84.011299
 40
16.035898
  0
CIRCLE
  8
0
  6
CONTINUOUS
 62
     7
 10
819.56061
 20
84.011299
 40
13.95
  0
CIRCLE
  8
0
  6
CONTINUOUS
 62
     7
 10
819.56061
 20
84.011299
 40
15.5
  0
CIRCLE
  8
0
  6
CONTINUOUS
 62
     7
 10
552.24847
 20
-90.647316
 40
18.9
  0
CIRCLE
  8
0
  6
CONTINUOUS
 62
     7
 10
552.24847
 20
-90.647316
 40
19.435898
  0
CIRCLE
  8
0
  6
CONTINUOUS
 62
     7
 10
552.24847
 20
-90.647316
 40
17.35
  0
CIRCLE
  8
0
  6
CONTINUOUS
 62
     7
 10
834.49255
 20
-86.011299
 40
23.35
  0
CIRCLE
  8
0
  6
CONTINUOUS
 62
     7
 10
834.49255
 20
-86.011299
 40
23.885899
  0
CIRCLE
  8
0
  6
CONTINUOUS
 62
     7
 10
834.49255
 20
-86.011299
 40
21.700001
  0
CIRCLE
  8
0
  6
CONTINUOUS
 62
     7
 10
593.09729
 20
-324.92767
 40
26.450001
  0
CIRCLE
  8
0
  6
CONTINUOUS
 62
     7
 10
593.09729
 20
-324.92767
 40
26.985899
  0
CIRCLE
  8
0
  6
CONTINUOUS
 62
     7
 10
593.09729
 20
-324.92767
 40
24.700001
  0
CIRCLE
  8
0
  6
CONTINUOUS
 62
     7
 10
621.88751
 20
-516.7149
 40
32.450001
  0
CIRCLE
  8
0
  6
CONTINUOUS
 62
     7
 10
621.88751
 20
-516.7149
 40
32.985897
  0
CIRCLE
  8
0
  6
CONTINUOUS
 62
     7
 10
621.88751
 20
-516.7149
 40
30.700001
  0
TEXT
  8
0
  6
CONTINUOUS
 62
     7
 10
-206.56092
 20
128.01299
 40
10
 41
1.0178573
  1
1/2
  0
TEXT
  8
0
  6
CONTINUOUS
 62
     7
 10
62.67815
 20
131.21916
 40
10
 41
1.0178573
  1
3/4
  0
TEXT
  8
0
  6
CONTINUOUS
 62
     7
 10
-196.5271
 20
-55.912239
 40
10
 41
1.0714291
  1
1
  0
TEXT
  8
0
  6
CONTINUOUS
 62
     7
 10
73.678242
 20
-52.997379
 40
10
 41
1.0129871
  1
11/4
  0
TEXT
  8
0
  6
CONTINUOUS
 62
     7
 10
-186.14646
 20
-309.44876
 40
10
 41
1.0129871
  1
11/2
  0
TEXT
  8
0
  6
CONTINUOUS
 62
     7
 10
-171.64814
 20
-474.1861
 40
10
 41
1.0714291
  1
2
  0
TEXT
  8
0
  6
CONTINUOUS
 62
     7
 10
-290.84146
 20
221.25345
 40
15
 41
0.84306452
  1
ＬＡ　特寸ソケット　（ＳＳＳ）
  0
TEXT
  8
0
  6
CONTINUOUS
 62
     7
 10
395.52256
 20
128.55632
 40
10
 41
1.0178573
  1
1/2
  0
TEXT
  8
0
  6
CONTINUOUS
 62
     7
 10
686.39982
 20
126.9581
 40
10
 41
1.0178573
  1
3/4
  0
TEXT
  8
0
  6
CONTINUOUS
 62
     7
 10
407.07881
 20
-46.102287
 40
10
 41
1.0714291
  1
1
  0
TEXT
  8
0
  6
CONTINUOUS
 62
     7
 10
674.93888
 20
-38.269817
 40
10
 41
1.0129871
  1
11/4
  0
TEXT
  8
0
  6
CONTINUOUS
 62
     7
 10
438.33824
 20
-265.9986
 40
10
 41
1.0129871
  1
11/2
  0
TEXT
  8
0
  6
CONTINUOUS
 62
     7
 10
457.51698
 20
-454.58936
 40
10
 41
1.0714291
  1
2
  0
TEXT
  8
0
  6
CONTINUOUS
 62
     7
 10
330.27728
 20
218.37701
 40
15
 41
0.84210156
  1
ＨＩ－ＬＡ（Ｐ－ＬＡ）特寸ソケット　（ＳＳＳ）
  0
TEXT
  8
0
  6
CONTINUOUS
 62
     7
 10
679.80394
 20
217.89212
 40
10
 41
0.84195842
  1
ＨＩ－ＬＡとＰ－ＬＡの寸法は同じになっております。
  0
LINE
  8
0
  6
CONTINUOUS
 62
     7
 10
-191.85289
 20
92.671349
 11
-191.85289
 21
91.849615
  0
LINE
  8
0
  6
CONTINUOUS
 62
     7
 10
-192.45289
 20
92.671349
 11
-192.45289
 21
91.849615
  0
LINE
  8
0
  6
CONTINUOUS
 62
     7
 10
-192.45289
 20
87.493082
 11
-192.45289
 21
86.671349
  0
LINE
  8
0
  6
CONTINUOUS
 62
     7
 10
-191.85289
 20
87.493082
 11
-191.85289
 21
86.671349
  0
LINE
  8
0
  6
CONTINUOUS
 62
     7
 10
-192.45289
 20
91.247435
 11
-192.45289
 21
89.671349
  0
LINE
  8
0
  6
CONTINUOUS
 62
     7
 10
-191.85289
 20
91.247435
 11
-191.85289
 21
89.671349
  0
ARC
  8
0
  6
CONTINUOUS
 62
     7
 10
-190.95289
 20
89.671349
 40
1.2
 50
306.00832
 51
53.991676
  0
ARC
  8
0
  6
CONTINUOUS
 62
     7
 10
-190.95289
 20
89.671349
 40
1.8
 50
306.00832
 51
53.991676
  0
ARC
  8
0
  6
CONTINUOUS
 62
     7
 10
-193.35289
 20
89.671349
 40
1.2
 50
126.00833
 51
233.99168
  0
ARC
  8
0
  6
CONTINUOUS
 62
     7
 10
-193.35289
 20
89.671349
 40
1.8
 50
126.00833
 51
233.99168
  0
ARC
  8
0
  6
CONTINUOUS
 62
     7
 10
-192.15289
 20
88.020195
 40
3.8411539
 50
53.991676
 51
85.520553
  0
ARC
  8
0
  6
CONTINUOUS
 62
     7
 10
-192.15289
 20
88.020195
 40
3.241154
 50
53.991676
 51
84.689121
  0
ARC
  8
0
  6
CONTINUOUS
 62
     7
 10
-192.15289
 20
91.322502
 40
3.241154
 50
233.99167
 51
306.00832
  0
ARC
  8
0
  6
CONTINUOUS
 62
     7
 10
-192.15289
 20
91.322502
 40
3.8411539
 50
233.99167
 51
265.52055
  0
ARC
  8
0
  6
CONTINUOUS
 62
     7
 10
-192.15289
 20
92.446349
 40
0.375
 50
36.869897
 51
143.1301
  0
ARC
  8
0
  6
CONTINUOUS
 62
     7
 10
-192.15289
 20
89.896349
 40
0.375
 50
216.8699
 51
323.1301
  0
ARC
  8
0
  6
CONTINUOUS
 62
     7
 10
-192.15289
 20
86.896348
 40
0.375
 50
216.8699
 51
323.1301
  0
ARC
  8
0
  6
CONTINUOUS
 62
     7
 10
-192.15289
 20
91.322502
 40
3.8411539
 50
274.47945
 51
306.00832
  0
ARC
  8
0
  6
CONTINUOUS
 62
     7
 10
-192.15289
 20
88.020195
 40
3.241154
 50
95.310878
 51
126.00833
  0
ARC
  8
0
  6
CONTINUOUS
 62
     7
 10
-192.15289
 20
88.020195
 40
3.8411539
 50
94.479452
 51
126.00833
  0
LINE
  8
0
  6
CONTINUOUS
 62
     7
 10
80.37527
 20
95.552452
 11
80.37527
 21
94.319852
  0
LINE
  8
0
  6
CONTINUOUS
 62
     7
 10
79.47527
 20
95.552452
 11
79.47527
 21
94.319852
  0
LINE
  8
0
  6
CONTINUOUS
 62
     7
 10
79.47527
 20
87.785052
 11
79.47527
 21
86.552452
  0
LINE
  8
0
  6
CONTINUOUS
 62
     7
 10
80.37527
 20
87.785052
 11
80.37527
 21
86.552452
  0
LINE
  8
0
  6
CONTINUOUS
 62
     7
 10
79.47527
 20
93.416581
 11
79.47527
 21
91.052452
  0
LINE
  8
0
  6
CONTINUOUS
 62
     7
 10
80.37527
 20
93.416581
 11
80.37527
 21
91.052452
  0
ARC
  8
0
  6
CONTINUOUS
 62
     7
 10
81.72527
 20
91.052452
 40
1.8
 50
306.00832
 51
53.991676
  0
ARC
  8
0
  6
CONTINUOUS
 62
     7
 10
81.72527
 20
91.052452
 40
2.7
 50
306.00832
 51
53.991676
  0
ARC
  8
0
  6
CONTINUOUS
 62
     7
 10
78.12527
 20
91.052452
 40
1.8
 50
126.00833
 51
233.99168
  0
ARC
  8
0
  6
CONTINUOUS
 62
     7
 10
78.12527
 20
91.052452
 40
2.7
 50
126.00833
 51
233.99168
  0
ARC
  8
0
  6
CONTINUOUS
 62
     7
 10
79.92527
 20
88.575721
 40
5.7617307
 50
53.991676
 51
85.520553
  0
ARC
  8
0
  6
CONTINUOUS
 62
     7
 10
79.92527
 20
88.575721
 40
4.8617306
 50
53.991676
 51
84.689121
  0
ARC
  8
0
  6
CONTINUOUS
 62
     7
 10
79.92527
 20
93.529183
 40
4.8617306
 50
233.99167
 51
306.00832
  0
ARC
  8
0
  6
CONTINUOUS
 62
     7
 10
79.92527
 20
93.529183
 40
5.7617307
 50
233.99167
 51
265.52055
  0
ARC
  8
0
  6
CONTINUOUS
 62
     7
 10
79.92527
 20
95.214952
 40
0.5625
 50
36.869897
 51
143.1301
  0
ARC
  8
0
  6
CONTINUOUS
 62
     7
 10
79.92527
 20
91.389952
 40
0.5625
 50
216.8699
 51
323.1301
  0
ARC
  8
0
  6
CONTINUOUS
 62
     7
 10
79.92527
 20
86.889952
 40
0.5625
 50
216.8699
 51
323.1301
  0
ARC
  8
0
  6
CONTINUOUS
 62
     7
 10
79.92527
 20
88.575721
 40
5.7617307
 50
94.479452
 51
126.00833
  0
ARC
  8
0
  6
CONTINUOUS
 62
     7
 10
79.92527
 20
88.575721
 40
4.8617306
 50
95.310878
 51
126.00833
  0
ARC
  8
0
  6
CONTINUOUS
 62
     7
 10
79.92527
 20
93.529183
 40
5.7617307
 50
274.47945
 51
306.00832
  0
LINE
  8
0
  6
CONTINUOUS
 62
     7
 10
-189.87288
 20
-92.491463
 11
-189.87288
 21
-93.724062
  0
LINE
  8
0
  6
CONTINUOUS
 62
     7
 10
-190.77288
 20
-92.491463
 11
-190.77288
 21
-93.724062
  0
LINE
  8
0
  6
CONTINUOUS
 62
     7
 10
-190.77288
 20
-100.25886
 11
-190.77288
 21
-101.49146
  0
LINE
  8
0
  6
CONTINUOUS
 62
     7
 10
-189.87288
 20
-100.25886
 11
-189.87288
 21
-101.49146
  0
LINE
  8
0
  6
CONTINUOUS
 62
     7
 10
-190.77288
 20
-94.627333
 11
-190.77288
 21
-96.991463
  0
LINE
  8
0
  6
CONTINUOUS
 62
     7
 10
-189.87288
 20
-94.627333
 11
-189.87288
 21
-96.991463
  0
ARC
  8
0
  6
CONTINUOUS
 62
     7
 10
-188.52288
 20
-96.991463
 40
1.8
 50
306.00832
 51
53.991676
  0
ARC
  8
0
  6
CONTINUOUS
 62
     7
 10
-188.52288
 20
-96.991463
 40
2.7
 50
306.00832
 51
53.991676
  0
ARC
  8
0
  6
CONTINUOUS
 62
     7
 10
-192.12288
 20
-96.991463
 40
1.8
 50
126.00833
 51
233.99168
  0
ARC
  8
0
  6
CONTINUOUS
 62
     7
 10
-192.12288
 20
-96.991463
 40
2.7
 50
126.00833
 51
233.99168
  0
ARC
  8
0
  6
CONTINUOUS
 62
     7
 10
-190.32288
 20
-99.468194
 40
5.7617307
 50
53.991676
 51
85.520553
  0
ARC
  8
0
  6
CONTINUOUS
 62
     7
 10
-190.32288
 20
-99.468194
 40
4.8617306
 50
53.991676
 51
84.689121
  0
ARC
  8
0
  6
CONTINUOUS
 62
     7
 10
-190.32288
 20
-94.514732
 40
4.8617306
 50
233.99167
 51
306.00832
  0
ARC
  8
0
  6
CONTINUOUS
 62
     7
 10
-190.32288
 20
-94.514732
 40
5.7617307
 50
233.99167
 51
265.52055
  0
ARC
  8
0
  6
CONTINUOUS
 62
     7
 10
-190.32288
 20
-92.828963
 40
0.5625
 50
36.869897
 51
143.1301
  0
ARC
  8
0
  6
CONTINUOUS
 62
     7
 10
-190.32288
 20
-96.653963
 40
0.5625
 50
216.8699
 51
323.1301
  0
ARC
  8
0
  6
CONTINUOUS
 62
     7
 10
-190.32288
 20
-101.15396
 40
0.5625
 50
216.8699
 51
323.1301
  0
ARC
  8
0
  6
CONTINUOUS
 62
     7
 10
-190.32288
 20
-99.468194
 40
5.7617307
 50
94.479452
 51
126.00833
  0
ARC
  8
0
  6
CONTINUOUS
 62
     7
 10
-190.32288
 20
-99.468194
 40
4.8617306
 50
95.310878
 51
126.00833
  0
ARC
  8
0
  6
CONTINUOUS
 62
     7
 10
-190.32288
 20
-94.514732
 40
5.7617307
 50
274.47945
 51
306.00832
  0
LINE
  8
0
  6
CONTINUOUS
 62
     7
 10
93.611292
 20
-95.321487
 11
93.611292
 21
-96.964954
  0
LINE
  8
0
  6
CONTINUOUS
 62
     7
 10
92.411291
 20
-95.321487
 11
92.411291
 21
-96.964954
  0
LINE
  8
0
  6
CONTINUOUS
 62
     7
 10
92.411291
 20
-105.67802
 11
92.411291
 21
-107.32149
  0
LINE
  8
0
  6
CONTINUOUS
 62
     7
 10
93.611292
 20
-105.67802
 11
93.611292
 21
-107.32149
  0
LINE
  8
0
  6
CONTINUOUS
 62
     7
 10
92.411291
 20
-98.169315
 11
92.411291
 21
-101.32149
  0
LINE
  8
0
  6
CONTINUOUS
 62
     7
 10
93.611292
 20
-98.169315
 11
93.611292
 21
-101.32149
  0
ARC
  8
0
  6
CONTINUOUS
 62
     7
 10
95.411292
 20
-101.32149
 40
2.4000001
 50
306.00832
 51
53.991676
  0
ARC
  8
0
  6
CONTINUOUS
 62
     7
 10
95.411292
 20
-101.32149
 40
3.5999999
 50
306.00832
 51
53.991676
  0
ARC
  8
0
  6
CONTINUOUS
 62
     7
 10
90.611291
 20
-101.32149
 40
2.4000001
 50
126.00833
 51
233.99168
  0
ARC
  8
0
  6
CONTINUOUS
 62
     7
 10
90.611291
 20
-101.32149
 40
3.5999999
 50
126.00833
 51
233.99168
  0
ARC
  8
0
  6
CONTINUOUS
 62
     7
 10
93.011292
 20
-104.6238
 40
7.6823077
 50
53.991676
 51
85.520553
  0
ARC
  8
0
  6
CONTINUOUS
 62
     7
 10
93.011292
 20
-104.6238
 40
6.4823079
 50
53.991676
 51
84.689121
  0
ARC
  8
0
  6
CONTINUOUS
 62
     7
 10
93.011292
 20
-98.01918
 40
6.4823079
 50
233.99167
 51
306.00832
  0
ARC
  8
0
  6
CONTINUOUS
 62
     7
 10
93.011292
 20
-98.01918
 40
7.6823077
 50
233.99167
 51
265.52055
  0
ARC
  8
0
  6
CONTINUOUS
 62
     7
 10
93.011292
 20
-95.771487
 40
0.75
 50
36.869897
 51
143.1301
  0
ARC
  8
0
  6
CONTINUOUS
 62
     7
 10
93.011292
 20
-100.87149
 40
0.75
 50
216.8699
 51
323.1301
  0
ARC
  8
0
  6
CONTINUOUS
 62
     7
 10
93.011292
 20
-106.87149
 40
0.75
 50
216.8699
 51
323.1301
  0
ARC
  8
0
  6
CONTINUOUS
 62
     7
 10
93.011292
 20
-104.6238
 40
6.4823079
 50
95.310878
 51
126.00833
  0
ARC
  8
0
  6
CONTINUOUS
 62
     7
 10
93.011292
 20
-104.6238
 40
7.6823077
 50
94.479452
 51
126.00833
  0
ARC
  8
0
  6
CONTINUOUS
 62
     7
 10
93.011292
 20
-98.01918
 40
7.6823077
 50
274.47945
 51
306.00832
  0
LINE
  8
0
  6
CONTINUOUS
 62
     7
 10
-164.10248
 20
-352.68539
 11
-164.10248
 21
-354.32886
  0
LINE
  8
0
  6
CONTINUOUS
 62
     7
 10
-165.30248
 20
-352.68539
 11
-165.30248
 21
-354.32886
  0
LINE
  8
0
  6
CONTINUOUS
 62
     7
 10
-165.30248
 20
-363.04193
 11
-165.30248
 21
-364.68539
  0
LINE
  8
0
  6
CONTINUOUS
 62
     7
 10
-164.10248
 20
-363.04193
 11
-164.10248
 21
-364.68539
  0
LINE
  8
0
  6
CONTINUOUS
 62
     7
 10
-165.30248
 20
-355.53322
 11
-165.30248
 21
-358.68539
  0
LINE
  8
0
  6
CONTINUOUS
 62
     7
 10
-164.10248
 20
-355.53322
 11
-164.10248
 21
-358.68539
  0
ARC
  8
0
  6
CONTINUOUS
 62
     7
 10
-162.30248
 20
-358.68539
 40
2.4000001
 50
306.00832
 51
53.991676
  0
ARC
  8
0
  6
CONTINUOUS
 62
     7
 10
-162.30248
 20
-358.68539
 40
3.5999999
 50
306.00832
 51
53.991676
  0
ARC
  8
0
  6
CONTINUOUS
 62
     7
 10
-167.10248
 20
-358.68539
 40
2.4000001
 50
126.00833
 51
233.99168
  0
ARC
  8
0
  6
CONTINUOUS
 62
     7
 10
-167.10248
 20
-358.68539
 40
3.5999999
 50
126.00833
 51
233.99168
  0
ARC
  8
0
  6
CONTINUOUS
 62
     7
 10
-164.70248
 20
-361.9877
 40
7.6823077
 50
53.991676
 51
85.520553
  0
ARC
  8
0
  6
CONTINUOUS
 62
     7
 10
-164.70248
 20
-361.9877
 40
6.4823079
 50
53.991676
 51
84.689121
  0
ARC
  8
0
  6
CONTINUOUS
 62
     7
 10
-164.70248
 20
-355.38309
 40
6.4823079
 50
233.99167
 51
306.00832
  0
ARC
  8
0
  6
CONTINUOUS
 62
     7
 10
-164.70248
 20
-355.38309
 40
7.6823077
 50
233.99167
 51
265.52055
  0
ARC
  8
0
  6
CONTINUOUS
 62
     7
 10
-164.70248
 20
-353.13539
 40
0.75
 50
36.869897
 51
143.1301
  0
ARC
  8
0
  6
CONTINUOUS
 62
     7
 10
-164.70248
 20
-358.23539
 40
0.75
 50
216.8699
 51
323.1301
  0
ARC
  8
0
  6
CONTINUOUS
 62
     7
 10
-164.70248
 20
-364.23539
 40
0.75
 50
216.8699
 51
323.1301
  0
ARC
  8
0
  6
CONTINUOUS
 62
     7
 10
-164.70248
 20
-361.9877
 40
6.4823079
 50
95.310878
 51
126.00833
  0
ARC
  8
0
  6
CONTINUOUS
 62
     7
 10
-164.70248
 20
-361.9877
 40
7.6823077
 50
94.479452
 51
126.00833
  0
ARC
  8
0
  6
CONTINUOUS
 62
     7
 10
-164.70248
 20
-355.38309
 40
7.6823077
 50
274.47945
 51
306.00832
  0
LINE
  8
0
  6
CONTINUOUS
 62
     7
 10
-165.93252
 20
-530.19806
 11
-165.93252
 21
-531.84153
  0
LINE
  8
0
  6
CONTINUOUS
 62
     7
 10
-167.13252
 20
-530.19806
 11
-167.13252
 21
-531.84153
  0
LINE
  8
0
  6
CONTINUOUS
 62
     7
 10
-167.13252
 20
-540.55459
 11
-167.13252
 21
-542.19806
  0
LINE
  8
0
  6
CONTINUOUS
 62
     7
 10
-165.93252
 20
-540.55459
 11
-165.93252
 21
-542.19806
  0
LINE
  8
0
  6
CONTINUOUS
 62
     7
 10
-167.13252
 20
-533.04589
 11
-167.13252
 21
-536.19806
  0
LINE
  8
0
  6
CONTINUOUS
 62
     7
 10
-165.93252
 20
-533.04589
 11
-165.93252
 21
-536.19806
  0
ARC
  8
0
  6
CONTINUOUS
 62
     7
 10
-164.13252
 20
-536.19806
 40
2.4000001
 50
306.00832
 51
53.991676
  0
ARC
  8
0
  6
CONTINUOUS
 62
     7
 10
-164.13252
 20
-536.19806
 40
3.5999999
 50
306.00832
 51
53.991676
  0
ARC
  8
0
  6
CONTINUOUS
 62
     7
 10
-168.93252
 20
-536.19806
 40
2.4000001
 50
126.00833
 51
233.99168
  0
ARC
  8
0
  6
CONTINUOUS
 62
     7
 10
-168.93252
 20
-536.19806
 40
3.5999999
 50
126.00833
 51
233.99168
  0
ARC
  8
0
  6
CONTINUOUS
 62
     7
 10
-166.53252
 20
-539.50037
 40
7.6823077
 50
53.991676
 51
85.520553
  0
ARC
  8
0
  6
CONTINUOUS
 62
     7
 10
-166.53252
 20
-539.50037
 40
6.4823079
 50
53.991676
 51
84.689121
  0
ARC
  8
0
  6
CONTINUOUS
 62
     7
 10
-166.53252
 20
-532.89575
 40
6.4823079
 50
233.99167
 51
306.00832
  0
ARC
  8
0
  6
CONTINUOUS
 62
     7
 10
-166.53252
 20
-532.89575
 40
7.6823077
 50
233.99167
 51
265.52055
  0
ARC
  8
0
  6
CONTINUOUS
 62
     7
 10
-166.53252
 20
-530.64806
 40
0.75
 50
36.869897
 51
143.1301
  0
ARC
  8
0
  6
CONTINUOUS
 62
     7
 10
-166.53252
 20
-535.74806
 40
0.75
 50
216.8699
 51
323.1301
  0
ARC
  8
0
  6
CONTINUOUS
 62
     7
 10
-166.53252
 20
-541.74806
 40
0.75
 50
216.8699
 51
323.1301
  0
ARC
  8
0
  6
CONTINUOUS
 62
     7
 10
-166.53252
 20
-539.50037
 40
6.4823079
 50
95.310878
 51
126.00833
  0
ARC
  8
0
  6
CONTINUOUS
 62
     7
 10
-166.53252
 20
-539.50037
 40
7.6823077
 50
94.479452
 51
126.00833
  0
ARC
  8
0
  6
CONTINUOUS
 62
     7
 10
-166.53252
 20
-532.89575
 40
7.6823077
 50
274.47945
 51
306.00832
  0
LINE
  8
0
  6
CONTINUOUS
 62
     7
 10
409.40178
 20
91.313805
 11
409.40178
 21
90.492071
  0
LINE
  8
0
  6
CONTINUOUS
 62
     7
 10
408.80178
 20
91.313805
 11
408.80178
 21
90.492071
  0
LINE
  8
0
  6
CONTINUOUS
 62
     7
 10
408.80178
 20
86.135538
 11
408.80178
 21
85.313805
  0
LINE
  8
0
  6
CONTINUOUS
 62
     7
 10
409.40178
 20
86.135538
 11
409.40178
 21
85.313805
  0
LINE
  8
0
  6
CONTINUOUS
 62
     7
 10
408.80178
 20
89.889891
 11
408.80178
 21
88.313805
  0
LINE
  8
0
  6
CONTINUOUS
 62
     7
 10
409.40178
 20
89.889891
 11
409.40178
 21
88.313805
  0
ARC
  8
0
  6
CONTINUOUS
 62
     7
 10
410.30178
 20
88.313805
 40
1.2
 50
306.00832
 51
53.991676
  0
ARC
  8
0
  6
CONTINUOUS
 62
     7
 10
410.30178
 20
88.313805
 40
1.8
 50
306.00832
 51
53.991676
  0
ARC
  8
0
  6
CONTINUOUS
 62
     7
 10
407.90178
 20
88.313805
 40
1.2
 50
126.00833
 51
233.99168
  0
ARC
  8
0
  6
CONTINUOUS
 62
     7
 10
407.90178
 20
88.313805
 40
1.8
 50
126.00833
 51
233.99168
  0
ARC
  8
0
  6
CONTINUOUS
 62
     7
 10
409.10178
 20
86.662651
 40
3.8411539
 50
53.991676
 51
85.520553
  0
ARC
  8
0
  6
CONTINUOUS
 62
     7
 10
409.10178
 20
86.662651
 40
3.241154
 50
53.991676
 51
84.689121
  0
ARC
  8
0
  6
CONTINUOUS
 62
     7
 10
409.10178
 20
89.964958
 40
3.241154
 50
233.99167
 51
306.00832
  0
ARC
  8
0
  6
CONTINUOUS
 62
     7
 10
409.10178
 20
89.964958
 40
3.8411539
 50
233.99167
 51
265.52055
  0
ARC
  8
0
  6
CONTINUOUS
 62
     7
 10
409.10178
 20
91.088805
 40
0.375
 50
36.869897
 51
143.1301
  0
ARC
  8
0
  6
CONTINUOUS
 62
     7
 10
409.10178
 20
88.538805
 40
0.375
 50
216.8699
 51
323.1301
  0
ARC
  8
0
  6
CONTINUOUS
 62
     7
 10
409.10178
 20
85.538805
 40
0.375
 50
216.8699
 51
323.1301
  0
ARC
  8
0
  6
CONTINUOUS
 62
     7
 10
409.10178
 20
89.964958
 40
3.8411539
 50
274.47945
 51
306.00832
  0
ARC
  8
0
  6
CONTINUOUS
 62
     7
 10
409.10178
 20
86.662651
 40
3.241154
 50
95.310878
 51
126.00833
  0
ARC
  8
0
  6
CONTINUOUS
 62
     7
 10
409.10178
 20
86.662651
 40
3.8411539
 50
94.479452
 51
126.00833
  0
LINE
  8
0
  6
CONTINUOUS
 62
     7
 10
700.01061
 20
88.511299
 11
700.01061
 21
87.278699
  0
LINE
  8
0
  6
CONTINUOUS
 62
     7
 10
699.11061
 20
88.511299
 11
699.11061
 21
87.278699
  0
LINE
  8
0
  6
CONTINUOUS
 62
     7
 10
699.11061
 20
80.743899
 11
699.11061
 21
79.511299
  0
LINE
  8
0
  6
CONTINUOUS
 62
     7
 10
700.01061
 20
80.743899
 11
700.01061
 21
79.511299
  0
LINE
  8
0
  6
CONTINUOUS
 62
     7
 10
699.11061
 20
86.375428
 11
699.11061
 21
84.011299
  0
LINE
  8
0
  6
CONTINUOUS
 62
     7
 10
700.01061
 20
86.375428
 11
700.01061
 21
84.011299
  0
ARC
  8
0
  6
CONTINUOUS
 62
     7
 10
701.36061
 20
84.011299
 40
1.8
 50
306.00832
 51
53.991676
  0
ARC
  8
0
  6
CONTINUOUS
 62
     7
 10
701.36061
 20
84.011299
 40
2.7
 50
306.00832
 51
53.991676
  0
ARC
  8
0
  6
CONTINUOUS
 62
     7
 10
697.76061
 20
84.011299
 40
1.8
 50
126.00833
 51
233.99168
  0
ARC
  8
0
  6
CONTINUOUS
 62
     7
 10
697.76061
 20
84.011299
 40
2.7
 50
126.00833
 51
233.99168
  0
ARC
  8
0
  6
CONTINUOUS
 62
     7
 10
699.56061
 20
81.534568
 40
5.7617307
 50
53.991676
 51
85.520553
  0
ARC
  8
0
  6
CONTINUOUS
 62
     7
 10
699.56061
 20
81.534568
 40
4.8617306
 50
53.991676
 51
84.689121
  0
ARC
  8
0
  6
CONTINUOUS
 62
     7
 10
699.56061
 20
86.48803
 40
4.8617306
 50
233.99167
 51
306.00832
  0
ARC
  8
0
  6
CONTINUOUS
 62
     7
 10
699.56061
 20
86.48803
 40
5.7617307
 50
233.99167
 51
265.52055
  0
ARC
  8
0
  6
CONTINUOUS
 62
     7
 10
699.56061
 20
88.173799
 40
0.5625
 50
36.869897
 51
143.1301
  0
ARC
  8
0
  6
CONTINUOUS
 62
     7
 10
699.56061
 20
84.348799
 40
0.5625
 50
216.8699
 51
323.1301
  0
ARC
  8
0
  6
CONTINUOUS
 62
     7
 10
699.56061
 20
79.848799
 40
0.5625
 50
216.8699
 51
323.1301
  0
ARC
  8
0
  6
CONTINUOUS
 62
     7
 10
699.56061
 20
81.534568
 40
5.7617307
 50
94.479452
 51
126.00833
  0
ARC
  8
0
  6
CONTINUOUS
 62
     7
 10
699.56061
 20
81.534568
 40
4.8617306
 50
95.310878
 51
126.00833
  0
ARC
  8
0
  6
CONTINUOUS
 62
     7
 10
699.56061
 20
86.48803
 40
5.7617307
 50
274.47945
 51
306.00832
  0
LINE
  8
0
  6
CONTINUOUS
 62
     7
 10
412.69847
 20
-86.147316
 11
412.69847
 21
-87.379916
  0
LINE
  8
0
  6
CONTINUOUS
 62
     7
 10
411.79847
 20
-86.147316
 11
411.79847
 21
-87.379916
  0
LINE
  8
0
  6
CONTINUOUS
 62
     7
 10
411.79847
 20
-93.914716
 11
411.79847
 21
-95.147316
  0
LINE
  8
0
  6
CONTINUOUS
 62
     7
 10
412.69847
 20
-93.914716
 11
412.69847
 21
-95.147316
  0
LINE
  8
0
  6
CONTINUOUS
 62
     7
 10
411.79847
 20
-88.283187
 11
411.79847
 21
-90.647316
  0
LINE
  8
0
  6
CONTINUOUS
 62
     7
 10
412.69847
 20
-88.283187
 11
412.69847
 21
-90.647316
  0
ARC
  8
0
  6
CONTINUOUS
 62
     7
 10
414.04847
 20
-90.647316
 40
1.8
 50
306.00832
 51
53.991676
  0
ARC
  8
0
  6
CONTINUOUS
 62
     7
 10
414.04847
 20
-90.647316
 40
2.7
 50
306.00832
 51
53.991676
  0
ARC
  8
0
  6
CONTINUOUS
 62
     7
 10
410.44847
 20
-90.647316
 40
1.8
 50
126.00833
 51
233.99168
  0
ARC
  8
0
  6
CONTINUOUS
 62
     7
 10
410.44847
 20
-90.647316
 40
2.7
 50
126.00833
 51
233.99168
  0
ARC
  8
0
  6
CONTINUOUS
 62
     7
 10
412.24847
 20
-93.124047
 40
5.7617307
 50
53.991676
 51
85.520553
  0
ARC
  8
0
  6
CONTINUOUS
 62
     7
 10
412.24847
 20
-93.124047
 40
4.8617306
 50
53.991676
 51
84.689121
  0
ARC
  8
0
  6
CONTINUOUS
 62
     7
 10
412.24847
 20
-88.170585
 40
4.8617306
 50
233.99167
 51
306.00832
  0
ARC
  8
0
  6
CONTINUOUS
 62
     7
 10
412.24847
 20
-88.170585
 40
5.7617307
 50
233.99167
 51
265.52055
  0
ARC
  8
0
  6
CONTINUOUS
 62
     7
 10
412.24847
 20
-86.484816
 40
0.5625
 50
36.869897
 51
143.1301
  0
ARC
  8
0
  6
CONTINUOUS
 62
     7
 10
412.24847
 20
-90.309816
 40
0.5625
 50
216.8699
 51
323.1301
  0
ARC
  8
0
  6
CONTINUOUS
 62
     7
 10
412.24847
 20
-94.809816
 40
0.5625
 50
216.8699
 51
323.1301
  0
ARC
  8
0
  6
CONTINUOUS
 62
     7
 10
412.24847
 20
-93.124047
 40
5.7617307
 50
94.479452
 51
126.00833
  0
ARC
  8
0
  6
CONTINUOUS
 62
     7
 10
412.24847
 20
-93.124047
 40
4.8617306
 50
95.310878
 51
126.00833
  0
ARC
  8
0
  6
CONTINUOUS
 62
     7
 10
412.24847
 20
-88.170585
 40
5.7617307
 50
274.47945
 51
306.00832
  0
LINE
  8
0
  6
CONTINUOUS
 62
     7
 10
695.09255
 20
-80.011299
 11
695.09255
 21
-81.654766
  0
LINE
  8
0
  6
CONTINUOUS
 62
     7
 10
693.89255
 20
-80.011299
 11
693.89255
 21
-81.654766
  0
LINE
  8
0
  6
CONTINUOUS
 62
     7
 10
693.89255
 20
-90.367833
 11
693.89255
 21
-92.011299
  0
LINE
  8
0
  6
CONTINUOUS
 62
     7
 10
695.09255
 20
-90.367833
 11
695.09255
 21
-92.011299
  0
LINE
  8
0
  6
CONTINUOUS
 62
     7
 10
693.89255
 20
-82.859127
 11
693.89255
 21
-86.011299
  0
LINE
  8
0
  6
CONTINUOUS
 62
     7
 10
695.09255
 20
-82.859127
 11
695.09255
 21
-86.011299
  0
ARC
  8
0
  6
CONTINUOUS
 62
     7
 10
696.89255
 20
-86.011299
 40
2.4000001
 50
306.00832
 51
53.991676
  0
ARC
  8
0
  6
CONTINUOUS
 62
     7
 10
696.89255
 20
-86.011299
 40
3.5999999
 50
306.00832
 51
53.991676
  0
ARC
  8
0
  6
CONTINUOUS
 62
     7
 10
692.09255
 20
-86.011299
 40
2.4000001
 50
126.00833
 51
233.99168
  0
ARC
  8
0
  6
CONTINUOUS
 62
     7
 10
692.09255
 20
-86.011299
 40
3.5999999
 50
126.00833
 51
233.99168
  0
ARC
  8
0
  6
CONTINUOUS
 62
     7
 10
694.49255
 20
-89.313607
 40
7.6823077
 50
53.991676
 51
85.520553
  0
ARC
  8
0
  6
CONTINUOUS
 62
     7
 10
694.49255
 20
-89.313607
 40
6.4823079
 50
53.991676
 51
84.689121
  0
ARC
  8
0
  6
CONTINUOUS
 62
     7
 10
694.49255
 20
-82.708992
 40
6.4823079
 50
233.99167
 51
306.00832
  0
ARC
  8
0
  6
CONTINUOUS
 62
     7
 10
694.49255
 20
-82.708992
 40
7.6823077
 50
233.99167
 51
265.52055
  0
ARC
  8
0
  6
CONTINUOUS
 62
     7
 10
694.49255
 20
-80.461299
 40
0.75
 50
36.869897
 51
143.1301
  0
ARC
  8
0
  6
CONTINUOUS
 62
     7
 10
694.49255
 20
-85.561299
 40
0.75
 50
216.8699
 51
323.1301
  0
ARC
  8
0
  6
CONTINUOUS
 62
     7
 10
694.49255
 20
-91.561299
 40
0.75
 50
216.8699
 51
323.1301
  0
ARC
  8
0
  6
CONTINUOUS
 62
     7
 10
694.49255
 20
-89.313607
 40
6.4823079
 50
95.310878
 51
126.00833
  0
ARC
  8
0
  6
CONTINUOUS
 62
     7
 10
694.49255
 20
-89.313607
 40
7.6823077
 50
94.479452
 51
126.00833
  0
ARC
  8
0
  6
CONTINUOUS
 62
     7
 10
694.49255
 20
-82.708992
 40
7.6823077
 50
274.47945
 51
306.00832
  0
LINE
  8
0
  6
CONTINUOUS
 62
     7
 10
453.69726
 20
-318.92767
 11
453.69726
 21
-320.57114
  0
LINE
  8
0
  6
CONTINUOUS
 62
     7
 10
452.49726
 20
-318.92767
 11
452.49726
 21
-320.57114
  0
LINE
  8
0
  6
CONTINUOUS
 62
     7
 10
452.49726
 20
-329.28421
 11
452.49726
 21
-330.92767
  0
LINE
  8
0
  6
CONTINUOUS
 62
     7
 10
453.69726
 20
-329.28421
 11
453.69726
 21
-330.92767
  0
LINE
  8
0
  6
CONTINUOUS
 62
     7
 10
452.49726
 20
-321.7755
 11
452.49726
 21
-324.92767
  0
LINE
  8
0
  6
CONTINUOUS
 62
     7
 10
453.69726
 20
-321.7755
 11
453.69726
 21
-324.92767
  0
ARC
  8
0
  6
CONTINUOUS
 62
     7
 10
455.49726
 20
-324.92767
 40
2.4000001
 50
306.00832
 51
53.991676
  0
ARC
  8
0
  6
CONTINUOUS
 62
     7
 10
455.49726
 20
-324.92767
 40
3.5999999
 50
306.00832
 51
53.991676
  0
ARC
  8
0
  6
CONTINUOUS
 62
     7
 10
450.69726
 20
-324.92767
 40
2.4000001
 50
126.00833
 51
233.99168
  0
ARC
  8
0
  6
CONTINUOUS
 62
     7
 10
450.69726
 20
-324.92767
 40
3.5999999
 50
126.00833
 51
233.99168
  0
ARC
  8
0
  6
CONTINUOUS
 62
     7
 10
453.09726
 20
-328.22998
 40
7.6823077
 50
53.991676
 51
85.520553
  0
ARC
  8
0
  6
CONTINUOUS
 62
     7
 10
453.09726
 20
-328.22998
 40
6.4823079
 50
53.991676
 51
84.689121
  0
ARC
  8
0
  6
CONTINUOUS
 62
     7
 10
453.09726
 20
-321.62537
 40
6.4823079
 50
233.99167
 51
306.00832
  0
ARC
  8
0
  6
CONTINUOUS
 62
     7
 10
453.09726
 20
-321.62537
 40
7.6823077
 50
233.99167
 51
265.52055
  0
ARC
  8
0
  6
CONTINUOUS
 62
     7
 10
453.09726
 20
-319.37767
 40
0.75
 50
36.869897
 51
143.1301
  0
ARC
  8
0
  6
CONTINUOUS
 62
     7
 10
453.09726
 20
-324.47767
 40
0.75
 50
216.8699
 51
323.1301
  0
ARC
  8
0
  6
CONTINUOUS
 62
     7
 10
453.09726
 20
-330.47767
 40
0.75
 50
216.8699
 51
323.1301
  0
ARC
  8
0
  6
CONTINUOUS
 62
     7
 10
453.09726
 20
-328.22998
 40
6.4823079
 50
95.310878
 51
126.00833
  0
ARC
  8
0
  6
CONTINUOUS
 62
     7
 10
453.09726
 20
-328.22998
 40
7.6823077
 50
94.479452
 51
126.00833
  0
ARC
  8
0
  6
CONTINUOUS
 62
     7
 10
453.09726
 20
-321.62537
 40
7.6823077
 50
274.47945
 51
306.00832
  0
LINE
  8
0
  6
CONTINUOUS
 62
     7
 10
462.48751
 20
-510.7149
 11
462.48751
 21
-512.35837
  0
LINE
  8
0
  6
CONTINUOUS
 62
     7
 10
461.28751
 20
-510.7149
 11
461.28751
 21
-512.35837
  0
LINE
  8
0
  6
CONTINUOUS
 62
     7
 10
461.28751
 20
-521.07144
 11
461.28751
 21
-522.7149
  0
LINE
  8
0
  6
CONTINUOUS
 62
     7
 10
462.48751
 20
-521.07144
 11
462.48751
 21
-522.7149
  0
LINE
  8
0
  6
CONTINUOUS
 62
     7
 10
461.28751
 20
-513.56273
 11
461.28751
 21
-516.7149
  0
LINE
  8
0
  6
CONTINUOUS
 62
     7
 10
462.48751
 20
-513.56273
 11
462.48751
 21
-516.7149
  0
ARC
  8
0
  6
CONTINUOUS
 62
     7
 10
464.28751
 20
-516.7149
 40
2.4000001
 50
306.00832
 51
53.991676
  0
ARC
  8
0
  6
CONTINUOUS
 62
     7
 10
464.28751
 20
-516.7149
 40
3.5999999
 50
306.00832
 51
53.991676
  0
ARC
  8
0
  6
CONTINUOUS
 62
     7
 10
459.48751
 20
-516.7149
 40
2.4000001
 50
126.00833
 51
233.99168
  0
ARC
  8
0
  6
CONTINUOUS
 62
     7
 10
459.48751
 20
-516.7149
 40
3.5999999
 50
126.00833
 51
233.99168
  0
ARC
  8
0
  6
CONTINUOUS
 62
     7
 10
461.88751
 20
-520.01721
 40
7.6823077
 50
53.991676
 51
85.520553
  0
ARC
  8
0
  6
CONTINUOUS
 62
     7
 10
461.88751
 20
-520.01721
 40
6.4823079
 50
53.991676
 51
84.689121
  0
ARC
  8
0
  6
CONTINUOUS
 62
     7
 10
461.88751
 20
-513.4126
 40
6.4823079
 50
233.99167
 51
306.00832
  0
ARC
  8
0
  6
CONTINUOUS
 62
     7
 10
461.88751
 20
-513.4126
 40
7.6823077
 50
233.99167
 51
265.52055
  0
ARC
  8
0
  6
CONTINUOUS
 62
     7
 10
461.88751
 20
-511.1649
 40
0.75
 50
36.869897
 51
143.1301
  0
ARC
  8
0
  6
CONTINUOUS
 62
     7
 10
461.88751
 20
-516.2649
 40
0.75
 50
216.8699
 51
323.1301
  0
ARC
  8
0
  6
CONTINUOUS
 62
     7
 10
461.88751
 20
-522.2649
 40
0.75
 50
216.8699
 51
323.1301
  0
ARC
  8
0
  6
CONTINUOUS
 62
     7
 10
461.88751
 20
-520.01721
 40
6.4823079
 50
95.310878
 51
126.00833
  0
ARC
  8
0
  6
CONTINUOUS
 62
     7
 10
461.88751
 20
-520.01721
 40
7.6823077
 50
94.479452
 51
126.00833
  0
ARC
  8
0
  6
CONTINUOUS
 62
     7
 10
461.88751
 20
-513.4126
 40
7.6823077
 50
274.47945
 51
306.00832
  0
ENDSEC
  0
EOF
