  0
SECTION
  2
HEADER
  9
$EXTMAX
 10
297
 20
210
  9
$EXTMIN
 10
-297
 20
-210
  0
ENDSEC
  0
SECTION
  2
TABLES
  0
TABLE
  2
LTYPE
 70
    22
  0
LTYPE
  2
CONTINUOUS
 70
    64
  3
Solid line
 72
    65
 73
     0
 40
0.000000
  0
LTYPE
  2
DASHED
 70
    64
  3
__ __ __ __ __ __ __ __ __ __ __ __ __ __ __
 72
    65
 73
     2
 40
3.500000
 49
2.000000
 49
-1.500000
  0
LTYPE
  2
CENTER
 70
    64
  3
____ _ ____ _ ____ _ ____ _ ____ _ ____ _ ____
 72
    65
 73
     4
 40
17.500000
 49
13.000000
 49
-1.500000
 49
1.500000
 49
-1.500000
  0
LTYPE
  2
PHANTOM
 70
    64
  3
_____ _ _ _____ _ _ _____ _ _ _____ _ _ ____  
 72
    65
 73
     6
 40
15.500000
 49
8.000000
 49
-1.500000
 49
1.500000
 49
-1.500000
 49
1.500000
 49
-1.500000
  0
LTYPE
  2
DOT
 70
    64
  3
. . . . . . . . . . . . . . . . . . . . . . . .
 72
    65
 73
     2
 40
0.25
 49
0.0
 49
-0.25
  0
ENDTAB
  0
TABLE
  2
LAYER
 70
     1
  0
LAYER
  2
0
 70
     0
 62
     7
  6
CONTINUOUS
  0
ENDTAB
  0
TABLE
  2
STYLE
 70
     1
  0
STYLE
  2
STANDARD
 70
     0
 40
0.000000
 41
1.000000
 50
0.000000
 71
     0
 42
0.200000
  3
txt
  4
BIGFONT
  0
ENDTAB
  0
TABLE
  2
VIEW
 70
     0
  0
ENDTAB
  0
ENDSEC
  0
SECTION
  2
BLOCKS
  0
ENDSEC
  0
SECTION
  2
ENTITIES
  0
POINT
  8
0
  6
CONTINUOUS
 62
     7
 10
-150.61659
 20
130.4572
  0
POINT
  8
0
  6
CONTINUOUS
 62
     7
 10
56.262047
 20
132.92583
  0
POINT
  8
0
  6
CONTINUOUS
 62
     7
 10
-49.422913
 20
20.830708
  0
POINT
  8
0
  6
CONTINUOUS
 62
     7
 10
92.540771
 20
-89.851692
  0
POINT
  8
0
  6
CONTINUOUS
 62
     7
 10
73.354797
 20
-355.42645
  0
POINT
  8
0
  6
CONTINUOUS
 62
     7
 10
-172.19142
 20
-354.11679
  0
POINT
  8
0
  6
CONTINUOUS
 62
     7
 10
-165.10059
 20
-86.620605
  0
POINT
  8
0
  6
CONTINUOUS
 62
     7
 10
-218.02879
 20
-534.54309
  0
POINT
  8
0
  6
CONTINUOUS
 62
     7
 10
66.726746
 20
-535.87976
  0
POINT
  8
0
  6
CONTINUOUS
 62
     7
 10
-67.520279
 20
130.4572
  0
POINT
  8
0
  6
CONTINUOUS
 62
     7
 10
150.77455
 20
132.92583
  0
POINT
  8
0
  6
CONTINUOUS
 62
     7
 10
52.31459
 20
20.830708
  0
POINT
  8
0
  6
CONTINUOUS
 62
     7
 10
200.54077
 20
-89.851692
  0
POINT
  8
0
  6
CONTINUOUS
 62
     7
 10
-60.100594
 20
-86.620605
  0
POINT
  8
0
  6
CONTINUOUS
 62
     7
 10
-61.191422
 20
-354.11679
  0
POINT
  8
0
  6
CONTINUOUS
 62
     7
 10
189.3548
 20
-355.42645
  0
POINT
  8
0
  6
CONTINUOUS
 62
     7
 10
214.72675
 20
-535.87976
  0
POINT
  8
0
  6
CONTINUOUS
 62
     7
 10
-86.028793
 20
-534.54309
  0
POINT
  8
0
  6
CONTINUOUS
 62
     7
 10
380.375
 20
144.35001
  0
POINT
  8
0
  6
CONTINUOUS
 62
     7
 10
463.47131
 20
144.35001
  0
POINT
  8
0
  6
CONTINUOUS
 62
     7
 10
567.7478
 20
144.35001
  0
POINT
  8
0
  6
CONTINUOUS
 62
     7
 10
662.26025
 20
144.35001
  0
POINT
  8
0
  6
CONTINUOUS
 62
     7
 10
766.0274
 20
144.35001
  0
POINT
  8
0
  6
CONTINUOUS
 62
     7
 10
867.76489
 20
144.35001
  0
POINT
  8
0
  6
CONTINUOUS
 62
     7
 10
430.375
 20
26.864449
  0
POINT
  8
0
  6
CONTINUOUS
 62
     7
 10
535.375
 20
26.864449
  0
POINT
  8
0
  6
CONTINUOUS
 62
     7
 10
682.26025
 20
26.864449
  0
POINT
  8
0
  6
CONTINUOUS
 62
     7
 10
790.26025
 20
26.864449
  0
POINT
  8
0
  6
CONTINUOUS
 62
     7
 10
410.375
 20
-106.88996
  0
POINT
  8
0
  6
CONTINUOUS
 62
     7
 10
531.375
 20
-106.88996
  0
POINT
  8
0
  6
CONTINUOUS
 62
     7
 10
690.125
 20
-106.88996
  0
POINT
  8
0
  6
CONTINUOUS
 62
     7
 10
826.125
 20
-106.88996
  0
POINT
  8
0
  6
CONTINUOUS
 62
     7
 10
518.54999
 20
-337
  0
POINT
  8
0
  6
CONTINUOUS
 62
     7
 10
680.54999
 20
-337
  0
POINT
  8
0
  6
CONTINUOUS
 62
     7
 10
525.70624
 20
-547
  0
POINT
  8
0
  6
CONTINUOUS
 62
     7
 10
683.70624
 20
-547
  0
POINT
  8
0
  6
CONTINUOUS
 62
     7
 10
724.0274
 20
144.35001
  0
POINT
  8
0
  6
CONTINUOUS
 62
     7
 10
724.0274
 20
144.35001
  0
POINT
  8
0
  6
CONTINUOUS
 62
     7
 10
808.0274
 20
144.35001
  0
POINT
  8
0
  6
CONTINUOUS
 62
     7
 10
808.0274
 20
144.35001
  0
POINT
  8
0
  6
CONTINUOUS
 62
     7
 10
385.875
 20
26.864449
  0
POINT
  8
0
  6
CONTINUOUS
 62
     7
 10
474.875
 20
26.864449
  0
POINT
  8
0
  6
CONTINUOUS
 62
     7
 10
634.76025
 20
26.864449
  0
POINT
  8
0
  6
CONTINUOUS
 62
     7
 10
729.76025
 20
26.864449
  0
POINT
  8
0
  6
CONTINUOUS
 62
     7
 10
359.875
 20
-106.88996
  0
POINT
  8
0
  6
CONTINUOUS
 62
     7
 10
460.875
 20
-106.88996
  0
POINT
  8
0
  6
CONTINUOUS
 62
     7
 10
636.125
 20
-106.88996
  0
POINT
  8
0
  6
CONTINUOUS
 62
     7
 10
744.125
 20
-106.88996
  0
POINT
  8
0
  6
CONTINUOUS
 62
     7
 10
455.54999
 20
-337
  0
POINT
  8
0
  6
CONTINUOUS
 62
     7
 10
581.54999
 20
-337
  0
POINT
  8
0
  6
CONTINUOUS
 62
     7
 10
636.125
 20
-106.88996
  0
POINT
  8
0
  6
CONTINUOUS
 62
     7
 10
744.125
 20
-106.88996
  0
LINE
  8
0
  6
CONTINUOUS
 62
     7
 10
-297
 20
-650
 11
-297
 21
-230
  0
LINE
  8
0
  6
CONTINUOUS
 62
     7
 10
-297
 20
-230
 11
297
 21
-230
  0
LINE
  8
0
  6
CONTINUOUS
 62
     7
 10
297
 20
-230
 11
297
 21
-650
  0
LINE
  8
0
  6
CONTINUOUS
 62
     7
 10
297
 20
-650
 11
-297
 21
-650
  0
LINE
  8
0
  6
CENTER
 62
     7
 10
-189.22826
 20
130.4572
 11
-112.53407
 21
130.4572
  0
LINE
  8
0
  6
CONTINUOUS
 62
     7
 10
-147.61659
 20
131.9572
 11
-142.61659
 21
131.9572
  0
LINE
  8
0
  6
CONTINUOUS
 62
     7
 10
-147.61659
 20
128.9572
 11
-142.61659
 21
128.9572
  0
LINE
  8
0
  6
CONTINUOUS
 62
     7
 10
-147.61659
 20
131.9572
 11
-147.61659
 21
128.9572
  0
LINE
  8
0
  6
CONTINUOUS
 62
     7
 10
-153.61659
 20
131.9572
 11
-153.61659
 21
128.9572
  0
LINE
  8
0
  6
CONTINUOUS
 62
     7
 10
-158.61659
 20
131.9572
 11
-153.61659
 21
131.9572
  0
LINE
  8
0
  6
CONTINUOUS
 62
     7
 10
-158.61659
 20
128.9572
 11
-153.61659
 21
128.9572
  0
LINE
  8
0
  6
CONTINUOUS
 62
     7
 10
-140.90915
 20
143.89891
 11
-146.4919
 21
144.45718
  0
LINE
  8
0
  6
CONTINUOUS
 62
     7
 10
-146.61659
 20
144.4572
 11
-154.61659
 21
144.4572
  0
LINE
  8
0
  6
CONTINUOUS
 62
     7
 10
-160.32405
 20
143.89893
 11
-154.74129
 21
144.4572
  0
LINE
  8
0
  6
CONTINUOUS
 62
     7
 10
-146.61659
 20
116.45719
 11
-154.61659
 21
116.45719
  0
LINE
  8
0
  6
CONTINUOUS
 62
     7
 10
-160.32404
 20
117.01546
 11
-154.74127
 21
116.45718
  0
LINE
  8
0
  6
CONTINUOUS
 62
     7
 10
-140.90915
 20
117.01547
 11
-146.49191
 21
116.4572
  0
LINE
  8
0
  6
CONTINUOUS
 62
     7
 10
-142.61659
 20
131.9572
 11
-142.61659
 21
128.9572
  0
LINE
  8
0
  6
CONTINUOUS
 62
     7
 10
-158.61659
 20
131.9572
 11
-158.61659
 21
128.9572
  0
LINE
  8
0
  6
CENTER
 62
     7
 10
-150.61659
 20
147.6131
 11
-150.61659
 21
112.2631
  0
LINE
  8
0
  6
CONTINUOUS
 62
     7
 10
-167.11659
 20
146.4572
 11
-165.19859
 21
146.4572
  0
LINE
  8
0
  6
CONTINUOUS
 62
     7
 10
-134.11659
 20
146.4572
 11
-136.03459
 21
146.4572
  0
LINE
  8
0
  6
CONTINUOUS
 62
     7
 10
-167.11659
 20
114.45719
 11
-165.19859
 21
114.45719
  0
LINE
  8
0
  6
CONTINUOUS
 62
     7
 10
-134.11659
 20
114.45719
 11
-136.03459
 21
114.45719
  0
LINE
  8
0
  6
CONTINUOUS
 62
     7
 10
-165.19859
 20
146.4572
 11
-165.19859
 21
114.45719
  0
LINE
  8
0
  6
CONTINUOUS
 62
     7
 10
-136.03459
 20
146.4572
 11
-136.03459
 21
114.45719
  0
LINE
  8
0
  6
CONTINUOUS
 62
     7
 10
-118.61659
 20
146.9572
 11
-118.61659
 21
113.95719
  0
LINE
  8
0
  6
CONTINUOUS
 62
     7
 10
-134.11659
 20
146.9572
 11
-134.11659
 21
113.95719
  0
LINE
  8
0
  6
CONTINUOUS
 62
     7
 10
-132.11659
 20
111.95719
 11
-120.61659
 21
111.95719
  0
LINE
  8
0
  6
CONTINUOUS
 62
     7
 10
-132.11659
 20
148.9572
 11
-120.61659
 21
148.9572
  0
LINE
  8
0
  6
CONTINUOUS
 62
     7
 10
-49.04269
 20
138.11086
 11
-59.866615
 21
148.93478
  0
LINE
  8
0
  6
CONTINUOUS
 62
     7
 10
-59.866623
 20
148.93478
 11
-75.17395
 21
148.93478
  0
LINE
  8
0
  6
CONTINUOUS
 62
     7
 10
-85.997879
 20
138.11086
 11
-75.173958
 21
148.93478
  0
LINE
  8
0
  6
CONTINUOUS
 62
     7
 10
-85.997879
 20
122.80352
 11
-85.997879
 21
138.11086
  0
LINE
  8
0
  6
CONTINUOUS
 62
     7
 10
-75.17395
 20
111.97959
 11
-85.997879
 21
122.80352
  0
LINE
  8
0
  6
CONTINUOUS
 62
     7
 10
-59.866608
 20
111.97959
 11
-75.17395
 21
111.97959
  0
LINE
  8
0
  6
CONTINUOUS
 62
     7
 10
-49.042698
 20
122.80352
 11
-59.866619
 21
111.9796
  0
LINE
  8
0
  6
CONTINUOUS
 62
     7
 10
-49.042694
 20
138.11086
 11
-49.042694
 21
122.80352
  0
LINE
  8
0
  6
CONTINUOUS
 62
     7
 10
-134.11659
 20
138.11086
 11
-118.61659
 21
138.11086
  0
LINE
  8
0
  6
CONTINUOUS
 62
     7
 10
-134.11659
 20
122.80352
 11
-118.61659
 21
122.80352
  0
LINE
  8
0
  6
CONTINUOUS
 62
     7
 10
-132.11659
 20
148.95718
 11
-134.11659
 21
146.95718
  0
LINE
  8
0
  6
CONTINUOUS
 62
     7
 10
-120.6166
 20
148.9572
 11
-118.6166
 21
146.9572
  0
LINE
  8
0
  6
CONTINUOUS
 62
     7
 10
-134.11659
 20
113.95719
 11
-132.11659
 21
111.95719
  0
LINE
  8
0
  6
CONTINUOUS
 62
     7
 10
-120.61659
 20
111.95719
 11
-118.61659
 21
113.95719
  0
LINE
  8
0
  6
CENTER
 62
     7
 10
-67.520279
 20
151.54309
 11
-67.520279
 21
109.37128
  0
LINE
  8
0
  6
CONTINUOUS
 62
     7
 10
-182.61659
 20
146.9572
 11
-182.61659
 21
113.95719
  0
LINE
  8
0
  6
CONTINUOUS
 62
     7
 10
-167.11659
 20
146.9572
 11
-167.11659
 21
113.95719
  0
LINE
  8
0
  6
CONTINUOUS
 62
     7
 10
-169.11659
 20
111.95719
 11
-180.61659
 21
111.95719
  0
LINE
  8
0
  6
CONTINUOUS
 62
     7
 10
-169.11659
 20
148.9572
 11
-180.61659
 21
148.9572
  0
LINE
  8
0
  6
CONTINUOUS
 62
     7
 10
-167.11659
 20
138.11086
 11
-182.61659
 21
138.11086
  0
LINE
  8
0
  6
CONTINUOUS
 62
     7
 10
-167.11659
 20
122.80352
 11
-182.61659
 21
122.80352
  0
LINE
  8
0
  6
CONTINUOUS
 62
     7
 10
-169.11658
 20
148.95717
 11
-167.11658
 21
146.95717
  0
LINE
  8
0
  6
CONTINUOUS
 62
     7
 10
-180.61659
 20
148.95718
 11
-182.61659
 21
146.95718
  0
LINE
  8
0
  6
CONTINUOUS
 62
     7
 10
-167.11659
 20
113.95718
 11
-169.11659
 21
111.95718
  0
LINE
  8
0
  6
CONTINUOUS
 62
     7
 10
-180.61659
 20
111.95718
 11
-182.61659
 21
113.95718
  0
LINE
  8
0
  6
CONTINUOUS
 62
     7
 10
59.262047
 20
134.92583
 11
59.262047
 21
130.92583
  0
LINE
  8
0
  6
CONTINUOUS
 62
     7
 10
53.262047
 20
134.92583
 11
53.262047
 21
130.92583
  0
LINE
  8
0
  6
CONTINUOUS
 62
     7
 10
43.980755
 20
148.2713
 11
52.162205
 21
148.92581
  0
LINE
  8
0
  6
CONTINUOUS
 62
     7
 10
52.162209
 20
148.92583
 11
60.361885
 21
148.92583
  0
LINE
  8
0
  6
CONTINUOUS
 62
     7
 10
68.543343
 20
148.27129
 11
60.361893
 21
148.92581
  0
LINE
  8
0
  6
CONTINUOUS
 62
     7
 10
52.162209
 20
116.92583
 11
60.361885
 21
116.92583
  0
LINE
  8
0
  6
CONTINUOUS
 62
     7
 10
43.980766
 20
117.58034
 11
52.162212
 21
116.92583
  0
LINE
  8
0
  6
CONTINUOUS
 62
     7
 10
68.543327
 20
117.58033
 11
60.361881
 21
116.92582
  0
LINE
  8
0
  6
CONTINUOUS
 62
     7
 10
46.262047
 20
134.92583
 11
46.262047
 21
130.92583
  0
LINE
  8
0
  6
CONTINUOUS
 62
     7
 10
66.262047
 20
134.92583
 11
66.262047
 21
130.92583
  0
LINE
  8
0
  6
CONTINUOUS
 62
     7
 10
59.262047
 20
134.92583
 11
66.262047
 21
134.92583
  0
LINE
  8
0
  6
CONTINUOUS
 62
     7
 10
59.262047
 20
130.92583
 11
66.262047
 21
130.92583
  0
LINE
  8
0
  6
CONTINUOUS
 62
     7
 10
46.262047
 20
130.92583
 11
53.262047
 21
130.92583
  0
LINE
  8
0
  6
CONTINUOUS
 62
     7
 10
46.262047
 20
134.92583
 11
53.262047
 21
134.92583
  0
LINE
  8
0
  6
CENTER
 62
     7
 10
56.262047
 20
152.99619
 11
56.262047
 21
111.65941
  0
LINE
  8
0
  6
CENTER
 62
     7
 10
12.724794
 20
132.92583
 11
96.933594
 21
132.92583
  0
LINE
  8
0
  6
CONTINUOUS
 62
     7
 10
90.762047
 20
151.92583
 11
90.762047
 21
113.92583
  0
LINE
  8
0
  6
CONTINUOUS
 62
     7
 10
75.262047
 20
153.92583
 11
88.762047
 21
153.92583
  0
LINE
  8
0
  6
CONTINUOUS
 62
     7
 10
75.262047
 20
111.92583
 11
88.762047
 21
111.92583
  0
LINE
  8
0
  6
CONTINUOUS
 62
     7
 10
73.262047
 20
151.92583
 11
73.262047
 21
113.92583
  0
LINE
  8
0
  6
CONTINUOUS
 62
     7
 10
171.77454
 20
141.6243
 11
159.47302
 21
153.92581
  0
LINE
  8
0
  6
CONTINUOUS
 62
     7
 10
159.47302
 20
153.92583
 11
142.07607
 21
153.92583
  0
LINE
  8
0
  6
CONTINUOUS
 62
     7
 10
129.77454
 20
141.6243
 11
142.07605
 21
153.92581
  0
LINE
  8
0
  6
CONTINUOUS
 62
     7
 10
129.77455
 20
124.22734
 11
129.77455
 21
141.6243
  0
LINE
  8
0
  6
CONTINUOUS
 62
     7
 10
142.07605
 20
111.92582
 11
129.77454
 21
124.22733
  0
LINE
  8
0
  6
CONTINUOUS
 62
     7
 10
159.47302
 20
111.92583
 11
142.07607
 21
111.92583
  0
LINE
  8
0
  6
CONTINUOUS
 62
     7
 10
171.77454
 20
124.22733
 11
159.47302
 21
111.92582
  0
LINE
  8
0
  6
CONTINUOUS
 62
     7
 10
171.77455
 20
141.6243
 11
171.77455
 21
124.22734
  0
LINE
  8
0
  6
CONTINUOUS
 62
     7
 10
74.262047
 20
141.6243
 11
89.762047
 21
141.6243
  0
LINE
  8
0
  6
CONTINUOUS
 62
     7
 10
74.262047
 20
124.22734
 11
89.762047
 21
124.22734
  0
LINE
  8
0
  6
CONTINUOUS
 62
     7
 10
75.262047
 20
153.92583
 11
73.262047
 21
151.92583
  0
LINE
  8
0
  6
CONTINUOUS
 62
     7
 10
88.762054
 20
153.92581
 11
90.762039
 21
151.92583
  0
LINE
  8
0
  6
CONTINUOUS
 62
     7
 10
90.762047
 20
113.92582
 11
88.762054
 21
111.92583
  0
LINE
  8
0
  6
CONTINUOUS
 62
     7
 10
73.262054
 20
113.92582
 11
75.262047
 21
111.92583
  0
LINE
  8
0
  6
CENTER
 62
     7
 10
150.77455
 20
156.21172
 11
150.77455
 21
109.63992
  0
LINE
  8
0
  6
CONTINUOUS
 62
     7
 10
21.762049
 20
151.92583
 11
21.762049
 21
113.92583
  0
LINE
  8
0
  6
CONTINUOUS
 62
     7
 10
37.262051
 20
153.92583
 11
23.762049
 21
153.92583
  0
LINE
  8
0
  6
CONTINUOUS
 62
     7
 10
37.262051
 20
111.92583
 11
23.762049
 21
111.92583
  0
LINE
  8
0
  6
CONTINUOUS
 62
     7
 10
39.262051
 20
151.92583
 11
39.262051
 21
113.92583
  0
LINE
  8
0
  6
CONTINUOUS
 62
     7
 10
38.262051
 20
141.6243
 11
22.762049
 21
141.6243
  0
LINE
  8
0
  6
CONTINUOUS
 62
     7
 10
38.262051
 20
124.22734
 11
22.762049
 21
124.22734
  0
LINE
  8
0
  6
CONTINUOUS
 62
     7
 10
37.262039
 20
153.92583
 11
39.262043
 21
151.92583
  0
LINE
  8
0
  6
CONTINUOUS
 62
     7
 10
23.762045
 20
153.92581
 11
21.762043
 21
151.92581
  0
LINE
  8
0
  6
CONTINUOUS
 62
     7
 10
21.762049
 20
113.92582
 11
23.762049
 21
111.92582
  0
LINE
  8
0
  6
CONTINUOUS
 62
     7
 10
39.262039
 20
113.92583
 11
37.262039
 21
111.92582
  0
LINE
  8
0
  6
CONTINUOUS
 62
     7
 10
-53.547688
 20
40.330692
 11
-64.267029
 21
39.437416
  0
LINE
  8
0
  6
CONTINUOUS
 62
     7
 10
-53.547699
 20
40.330708
 11
-45.298126
 21
40.330708
  0
LINE
  8
0
  6
CONTINUOUS
 62
     7
 10
-53.547668
 20
1.3307151
 11
-64.267036
 21
2.2239957
  0
LINE
  8
0
  6
CONTINUOUS
 62
     7
 10
-53.547699
 20
1.3307074
 11
-45.298126
 21
1.3307074
  0
LINE
  8
0
  6
CONTINUOUS
 62
     7
 10
-45.298119
 20
1.3306901
 11
-34.578773
 21
2.223969
  0
LINE
  8
0
  6
CONTINUOUS
 62
     7
 10
-45.298115
 20
40.330711
 11
-34.57877
 21
39.437431
  0
LINE
  8
0
  6
CONTINUOUS
 62
     7
 10
-54.410416
 20
22.830708
 11
-54.410416
 21
18.830708
  0
LINE
  8
0
  6
CONTINUOUS
 62
     7
 10
-44.43541
 20
22.830708
 11
-44.43541
 21
18.830708
  0
LINE
  8
0
  6
CONTINUOUS
 62
     7
 10
-60.422913
 20
22.830708
 11
-60.422913
 21
18.830708
  0
LINE
  8
0
  6
CONTINUOUS
 62
     7
 10
-38.422913
 20
22.830708
 11
-38.422913
 21
18.830708
  0
LINE
  8
0
  6
CENTER
 62
     7
 10
-49.422913
 20
45.250294
 11
-49.422913
 21
-4.2642937
  0
LINE
  8
0
  6
CONTINUOUS
 62
     7
 10
-60.422913
 20
22.830708
 11
-54.410416
 21
22.830708
  0
LINE
  8
0
  6
CONTINUOUS
 62
     7
 10
-60.422913
 20
18.830708
 11
-54.410416
 21
18.830708
  0
LINE
  8
0
  6
CONTINUOUS
 62
     7
 10
-44.43541
 20
22.830708
 11
-38.422913
 21
22.830708
  0
LINE
  8
0
  6
CONTINUOUS
 62
     7
 10
-44.43541
 20
18.830708
 11
-38.422913
 21
18.830708
  0
LINE
  8
0
  6
CENTER
 62
     7
 10
-99.630615
 20
20.830708
 11
-3.4012628
 21
20.830708
  0
LINE
  8
0
  6
CONTINUOUS
 62
     7
 10
-11.922912
 20
43.330708
 11
-11.922912
 21
-1.6692926
  0
LINE
  8
0
  6
CONTINUOUS
 62
     7
 10
-30.422911
 20
43.330708
 11
-30.422911
 21
-1.6692926
  0
LINE
  8
0
  6
CONTINUOUS
 62
     7
 10
-28.422911
 20
45.330708
 11
-13.922912
 21
45.330708
  0
LINE
  8
0
  6
CONTINUOUS
 62
     7
 10
-28.422911
 20
-3.6692924
 11
-13.922912
 21
-3.6692924
  0
LINE
  8
0
  6
CONTINUOUS
 62
     7
 10
-30.422905
 20
43.3307
 11
-28.422903
 21
45.330704
  0
LINE
  8
0
  6
CONTINUOUS
 62
     7
 10
-28.422909
 20
-3.6693034
 11
-30.422909
 21
-1.6693026
  0
LINE
  8
0
  6
CONTINUOUS
 62
     7
 10
-13.922891
 20
45.330715
 11
-11.922892
 21
43.330715
  0
LINE
  8
0
  6
CONTINUOUS
 62
     7
 10
-11.922904
 20
-1.6692989
 11
-13.922907
 21
-3.669301
  0
LINE
  8
0
  6
CONTINUOUS
 62
     7
 10
76.797409
 20
30.971821
 11
62.455711
 21
45.313519
  0
LINE
  8
0
  6
CONTINUOUS
 62
     7
 10
62.455704
 20
45.313511
 11
42.173477
 21
45.313511
  0
LINE
  8
0
  6
CONTINUOUS
 62
     7
 10
27.831785
 20
30.971809
 11
42.173485
 21
45.313511
  0
LINE
  8
0
  6
CONTINUOUS
 62
     7
 10
27.831789
 20
10.689594
 11
27.831789
 21
30.971806
  0
LINE
  8
0
  6
CONTINUOUS
 62
     7
 10
42.173473
 20
-3.6521127
 11
27.831778
 21
10.689584
  0
LINE
  8
0
  6
CONTINUOUS
 62
     7
 10
62.455704
 20
-3.6521111
 11
42.173477
 21
-3.6521111
  0
LINE
  8
0
  6
CONTINUOUS
 62
     7
 10
76.797401
 20
10.689592
 11
62.455704
 21
-3.6521075
  0
LINE
  8
0
  6
CONTINUOUS
 62
     7
 10
76.797409
 20
30.971806
 11
76.797409
 21
10.689594
  0
LINE
  8
0
  6
CONTINUOUS
 62
     7
 10
-29.422911
 20
30.971806
 11
-12.922912
 21
30.971806
  0
LINE
  8
0
  6
CONTINUOUS
 62
     7
 10
-29.422911
 20
10.689594
 11
-12.922912
 21
10.689594
  0
LINE
  8
0
  6
CENTER
 62
     7
 10
52.31459
 20
46.866596
 11
52.31459
 21
-5.2051964
  0
LINE
  8
0
  6
CONTINUOUS
 62
     7
 10
-86.922905
 20
43.330708
 11
-86.922905
 21
-1.6692926
  0
LINE
  8
0
  6
CONTINUOUS
 62
     7
 10
-68.422913
 20
43.330708
 11
-68.422913
 21
-1.6692926
  0
LINE
  8
0
  6
CONTINUOUS
 62
     7
 10
-70.422897
 20
45.330708
 11
-84.922905
 21
45.330708
  0
LINE
  8
0
  6
CONTINUOUS
 62
     7
 10
-70.422897
 20
-3.6692924
 11
-84.922905
 21
-3.6692924
  0
LINE
  8
0
  6
CONTINUOUS
 62
     7
 10
-68.422905
 20
43.330704
 11
-70.422905
 21
45.3307
  0
LINE
  8
0
  6
CONTINUOUS
 62
     7
 10
-70.422897
 20
-3.6692901
 11
-68.422905
 21
-1.6692986
  0
LINE
  8
0
  6
CONTINUOUS
 62
     7
 10
-84.922897
 20
45.330711
 11
-86.922897
 21
43.330708
  0
LINE
  8
0
  6
CONTINUOUS
 62
     7
 10
-86.922897
 20
-1.669294
 11
-84.922897
 21
-3.6692934
  0
LINE
  8
0
  6
CONTINUOUS
 62
     7
 10
-69.422897
 20
30.971806
 11
-85.922905
 21
30.971806
  0
LINE
  8
0
  6
CONTINUOUS
 62
     7
 10
-69.422897
 20
10.689594
 11
-85.922905
 21
10.689594
  0
LINE
  8
0
  6
CONTINUOUS
 62
     7
 10
-170.08809
 20
-84.120605
 11
-170.08809
 21
-89.120605
  0
LINE
  8
0
  6
CONTINUOUS
 62
     7
 10
-160.11308
 20
-84.120605
 11
-160.11308
 21
-89.120605
  0
LINE
  8
0
  6
CONTINUOUS
 62
     7
 10
-176.10059
 20
-84.120605
 11
-176.10059
 21
-89.120605
  0
LINE
  8
0
  6
CONTINUOUS
 62
     7
 10
-154.10059
 20
-84.120605
 11
-154.10059
 21
-89.120605
  0
LINE
  8
0
  6
CONTINUOUS
 62
     7
 10
-160.11308
 20
-84.120605
 11
-154.10059
 21
-84.120605
  0
LINE
  8
0
  6
CONTINUOUS
 62
     7
 10
-160.11308
 20
-89.120605
 11
-154.10059
 21
-89.120605
  0
LINE
  8
0
  6
CONTINUOUS
 62
     7
 10
-176.10059
 20
-84.120605
 11
-170.08809
 21
-84.120605
  0
LINE
  8
0
  6
CONTINUOUS
 62
     7
 10
-176.10059
 20
-89.120605
 11
-170.08809
 21
-89.120605
  0
LINE
  8
0
  6
CONTINUOUS
 62
     7
 10
-182.35547
 20
-64.559746
 11
-169.31435
 21
-63.628235
  0
LINE
  8
0
  6
CONTINUOUS
 62
     7
 10
-169.2076
 20
-63.620602
 11
-160.99358
 21
-63.620602
  0
LINE
  8
0
  6
CONTINUOUS
 62
     7
 10
-182.35545
 20
-108.68147
 11
-169.31433
 21
-109.61298
  0
LINE
  8
0
  6
CONTINUOUS
 62
     7
 10
-169.2076
 20
-109.62061
 11
-160.99358
 21
-109.62061
  0
LINE
  8
0
  6
CONTINUOUS
 62
     7
 10
-147.84573
 20
-64.559738
 11
-160.88686
 21
-63.628231
  0
LINE
  8
0
  6
CONTINUOUS
 62
     7
 10
-147.84575
 20
-108.68147
 11
-160.88687
 21
-109.61298
  0
LINE
  8
0
  6
CENTER
 62
     7
 10
-165.10059
 20
-54.373867
 11
-165.10059
 21
-113.59261
  0
LINE
  8
0
  6
CENTER
 62
     7
 10
-211.96188
 20
-86.620605
 11
-117.1832
 21
-86.620605
  0
LINE
  8
0
  6
CONTINUOUS
 62
     7
 10
-125.10059
 20
-59.620602
 11
-125.10059
 21
-113.62061
  0
LINE
  8
0
  6
CONTINUOUS
 62
     7
 10
-143.60059
 20
-59.620602
 11
-143.60059
 21
-113.62061
  0
LINE
  8
0
  6
CONTINUOUS
 62
     7
 10
-141.60059
 20
-115.62061
 11
-127.10059
 21
-115.62061
  0
LINE
  8
0
  6
CONTINUOUS
 62
     7
 10
-141.60059
 20
-57.620602
 11
-127.10059
 21
-57.620602
  0
LINE
  8
0
  6
CONTINUOUS
 62
     7
 10
-143.6006
 20
-59.620605
 11
-141.6006
 21
-57.620602
  0
LINE
  8
0
  6
CONTINUOUS
 62
     7
 10
-127.10059
 20
-57.620602
 11
-125.1006
 21
-59.620594
  0
LINE
  8
0
  6
CONTINUOUS
 62
     7
 10
-143.60059
 20
-113.62061
 11
-141.60057
 21
-115.62061
  0
LINE
  8
0
  6
CONTINUOUS
 62
     7
 10
-127.10059
 20
-115.62061
 11
-125.10059
 21
-113.62061
  0
LINE
  8
0
  6
CONTINUOUS
 62
     7
 10
-31.10059
 20
-74.608414
 11
-48.088402
 21
-57.620602
  0
LINE
  8
0
  6
CONTINUOUS
 62
     7
 10
-48.088402
 20
-57.620602
 11
-72.112785
 21
-57.620602
  0
LINE
  8
0
  6
CONTINUOUS
 62
     7
 10
-89.100601
 20
-74.608414
 11
-72.112785
 21
-57.620602
  0
LINE
  8
0
  6
CONTINUOUS
 62
     7
 10
-89.100594
 20
-98.632805
 11
-89.100594
 21
-74.608414
  0
LINE
  8
0
  6
CONTINUOUS
 62
     7
 10
-72.112785
 20
-115.62061
 11
-89.100601
 21
-98.632797
  0
LINE
  8
0
  6
CONTINUOUS
 62
     7
 10
-48.088402
 20
-115.62061
 11
-72.112785
 21
-115.62061
  0
LINE
  8
0
  6
CONTINUOUS
 62
     7
 10
-31.10059
 20
-98.632797
 11
-48.088398
 21
-115.62061
  0
LINE
  8
0
  6
CONTINUOUS
 62
     7
 10
-31.100594
 20
-74.608414
 11
-31.100594
 21
-98.632805
  0
LINE
  8
0
  6
CONTINUOUS
 62
     7
 10
-142.60059
 20
-74.608414
 11
-126.10059
 21
-74.608414
  0
LINE
  8
0
  6
CONTINUOUS
 62
     7
 10
-142.60059
 20
-98.632805
 11
-126.10059
 21
-98.632805
  0
LINE
  8
0
  6
CENTER
 62
     7
 10
-60.100594
 20
-51.511723
 11
-60.100594
 21
-120.7489
  0
LINE
  8
0
  6
CONTINUOUS
 62
     7
 10
-205.10059
 20
-59.620602
 11
-205.10059
 21
-113.62061
  0
LINE
  8
0
  6
CONTINUOUS
 62
     7
 10
-186.60059
 20
-59.620602
 11
-186.60059
 21
-113.62061
  0
LINE
  8
0
  6
CONTINUOUS
 62
     7
 10
-188.60059
 20
-115.62061
 11
-203.10059
 21
-115.62061
  0
LINE
  8
0
  6
CONTINUOUS
 62
     7
 10
-188.60059
 20
-57.620602
 11
-203.10059
 21
-57.620602
  0
LINE
  8
0
  6
CONTINUOUS
 62
     7
 10
-186.60059
 20
-59.620613
 11
-188.60059
 21
-57.620613
  0
LINE
  8
0
  6
CONTINUOUS
 62
     7
 10
-203.10059
 20
-57.620613
 11
-205.1006
 21
-59.620613
  0
LINE
  8
0
  6
CONTINUOUS
 62
     7
 10
-186.60059
 20
-113.6206
 11
-188.6006
 21
-115.62061
  0
LINE
  8
0
  6
CONTINUOUS
 62
     7
 10
-203.1006
 20
-115.62061
 11
-205.1006
 21
-113.62061
  0
LINE
  8
0
  6
CONTINUOUS
 62
     7
 10
-187.60059
 20
-74.608414
 11
-204.10059
 21
-74.608414
  0
LINE
  8
0
  6
CONTINUOUS
 62
     7
 10
-187.60059
 20
-98.632805
 11
-204.10059
 21
-98.632805
  0
LINE
  8
0
  6
CENTER
 62
     7
 10
92.540771
 20
-55.365334
 11
92.540771
 21
-125.19033
  0
LINE
  8
0
  6
CENTER
 62
     7
 10
40.063236
 20
-89.851692
 11
135.54077
 21
-89.851692
  0
LINE
  8
0
  6
CONTINUOUS
 62
     7
 10
72.005035
 20
-63.079769
 11
88.436691
 21
-62.101692
  0
LINE
  8
0
  6
CONTINUOUS
 62
     7
 10
88.540771
 20
-62.101692
 11
96.644844
 21
-62.101692
  0
LINE
  8
0
  6
CONTINUOUS
 62
     7
 10
113.07651
 20
-63.079773
 11
96.644852
 21
-62.1017
  0
LINE
  8
0
  6
CONTINUOUS
 62
     7
 10
72.005035
 20
-116.62363
 11
88.436699
 21
-117.6017
  0
LINE
  8
0
  6
CONTINUOUS
 62
     7
 10
88.540771
 20
-117.6017
 11
96.644844
 21
-117.6017
  0
LINE
  8
0
  6
CONTINUOUS
 62
     7
 10
113.07651
 20
-116.62363
 11
96.644844
 21
-117.6017
  0
LINE
  8
0
  6
CONTINUOUS
 62
     7
 10
85.540771
 20
-87.351692
 11
85.540771
 21
-92.351692
  0
LINE
  8
0
  6
CONTINUOUS
 62
     7
 10
99.540771
 20
-87.351692
 11
99.540771
 21
-92.351692
  0
LINE
  8
0
  6
CONTINUOUS
 62
     7
 10
78.540771
 20
-92.351692
 11
85.540771
 21
-92.351692
  0
LINE
  8
0
  6
CONTINUOUS
 62
     7
 10
78.540771
 20
-87.351692
 11
85.540771
 21
-87.351692
  0
LINE
  8
0
  6
CONTINUOUS
 62
     7
 10
78.540771
 20
-87.351692
 11
78.540771
 21
-92.351692
  0
LINE
  8
0
  6
CONTINUOUS
 62
     7
 10
106.54077
 20
-87.351692
 11
106.54077
 21
-92.351692
  0
LINE
  8
0
  6
CONTINUOUS
 62
     7
 10
99.540771
 20
-87.351692
 11
106.54077
 21
-87.351692
  0
LINE
  8
0
  6
CONTINUOUS
 62
     7
 10
99.540771
 20
-92.351692
 11
106.54077
 21
-92.351692
  0
LINE
  8
0
  6
CONTINUOUS
 62
     7
 10
135.54077
 20
-58.851692
 11
135.54077
 21
-120.8517
  0
LINE
  8
0
  6
CONTINUOUS
 62
     7
 10
116.54077
 20
-58.851692
 11
116.54077
 21
-120.8517
  0
LINE
  8
0
  6
CONTINUOUS
 62
     7
 10
118.54077
 20
-56.851692
 11
133.54077
 21
-56.851692
  0
LINE
  8
0
  6
CONTINUOUS
 62
     7
 10
118.54077
 20
-122.8517
 11
133.54077
 21
-122.8517
  0
LINE
  8
0
  6
CONTINUOUS
 62
     7
 10
116.54077
 20
-58.8517
 11
118.54076
 21
-56.851707
  0
LINE
  8
0
  6
CONTINUOUS
 62
     7
 10
133.54076
 20
-56.851711
 11
135.54076
 21
-58.851704
  0
LINE
  8
0
  6
CONTINUOUS
 62
     7
 10
135.54076
 20
-120.85169
 11
133.54077
 21
-122.85169
  0
LINE
  8
0
  6
CONTINUOUS
 62
     7
 10
116.54077
 20
-120.85168
 11
118.54077
 21
-122.85169
  0
LINE
  8
0
  6
CONTINUOUS
 62
     7
 10
233.54079
 20
-76.182648
 11
214.20982
 21
-56.851688
  0
LINE
  8
0
  6
CONTINUOUS
 62
     7
 10
214.20982
 20
-56.851692
 11
186.87172
 21
-56.851692
  0
LINE
  8
0
  6
CONTINUOUS
 62
     7
 10
167.54077
 20
-76.182648
 11
186.87173
 21
-56.851688
  0
LINE
  8
0
  6
CONTINUOUS
 62
     7
 10
167.54077
 20
-103.52074
 11
167.54077
 21
-76.182648
  0
LINE
  8
0
  6
CONTINUOUS
 62
     7
 10
186.87173
 20
-122.85169
 11
167.54077
 21
-103.52074
  0
LINE
  8
0
  6
CONTINUOUS
 62
     7
 10
214.20982
 20
-122.8517
 11
186.87172
 21
-122.8517
  0
LINE
  8
0
  6
CONTINUOUS
 62
     7
 10
233.54079
 20
-103.52074
 11
214.20982
 21
-122.85169
  0
LINE
  8
0
  6
CONTINUOUS
 62
     7
 10
233.54077
 20
-76.182648
 11
233.54077
 21
-103.52074
  0
LINE
  8
0
  6
CONTINUOUS
 62
     7
 10
117.54077
 20
-76.182648
 11
134.54077
 21
-76.182648
  0
LINE
  8
0
  6
CONTINUOUS
 62
     7
 10
117.54077
 20
-103.52074
 11
134.54077
 21
-103.52074
  0
LINE
  8
0
  6
CENTER
 62
     7
 10
200.54077
 20
-55.965797
 11
200.54077
 21
-123.73759
  0
LINE
  8
0
  6
CONTINUOUS
 62
     7
 10
67.540771
 20
-103.52074
 11
50.540771
 21
-103.52074
  0
LINE
  8
0
  6
CONTINUOUS
 62
     7
 10
49.540771
 20
-58.851692
 11
49.540771
 21
-120.8517
  0
LINE
  8
0
  6
CONTINUOUS
 62
     7
 10
68.540771
 20
-58.851692
 11
68.540771
 21
-120.8517
  0
LINE
  8
0
  6
CONTINUOUS
 62
     7
 10
66.540771
 20
-56.851692
 11
51.540771
 21
-56.851692
  0
LINE
  8
0
  6
CONTINUOUS
 62
     7
 10
66.540771
 20
-122.8517
 11
51.540771
 21
-122.8517
  0
LINE
  8
0
  6
CONTINUOUS
 62
     7
 10
68.540771
 20
-58.8517
 11
66.540764
 21
-56.851696
  0
LINE
  8
0
  6
CONTINUOUS
 62
     7
 10
51.540768
 20
-56.851704
 11
49.540771
 21
-58.8517
  0
LINE
  8
0
  6
CONTINUOUS
 62
     7
 10
49.540771
 20
-120.85169
 11
51.540771
 21
-122.85169
  0
LINE
  8
0
  6
CONTINUOUS
 62
     7
 10
68.540771
 20
-120.8517
 11
66.540771
 21
-122.8517
  0
LINE
  8
0
  6
CONTINUOUS
 62
     7
 10
67.540771
 20
-76.182648
 11
50.540771
 21
-76.182648
  0
LINE
  8
0
  6
CENTER
 62
     7
 10
-172.19142
 20
-317.87134
 11
-172.19142
 21
-394.22684
  0
LINE
  8
0
  6
CENTER
 62
     7
 10
-226.43858
 20
-354.11679
 11
-119.32697
 21
-354.11679
  0
LINE
  8
0
  6
CONTINUOUS
 62
     7
 10
-192.91916
 20
-324.2753
 11
-176.31337
 21
-323.11676
  0
LINE
  8
0
  6
CONTINUOUS
 62
     7
 10
-176.31337
 20
-323.11679
 11
-168.06947
 21
-323.11679
  0
LINE
  8
0
  6
CONTINUOUS
 62
     7
 10
-151.46368
 20
-324.27533
 11
-168.06947
 21
-323.11679
  0
LINE
  8
0
  6
CONTINUOUS
 62
     7
 10
-192.91916
 20
-383.95822
 11
-176.31337
 21
-385.11676
  0
LINE
  8
0
  6
CONTINUOUS
 62
     7
 10
-176.31337
 20
-385.11679
 11
-168.06947
 21
-385.11679
  0
LINE
  8
0
  6
CONTINUOUS
 62
     7
 10
-151.46368
 20
-383.95822
 11
-168.06949
 21
-385.11679
  0
LINE
  8
0
  6
CONTINUOUS
 62
     7
 10
-187.19142
 20
-351.61679
 11
-179.19142
 21
-351.61679
  0
LINE
  8
0
  6
CONTINUOUS
 62
     7
 10
-187.19142
 20
-356.61679
 11
-179.19142
 21
-356.61679
  0
LINE
  8
0
  6
CONTINUOUS
 62
     7
 10
-165.19142
 20
-351.61679
 11
-165.19142
 21
-356.61679
  0
LINE
  8
0
  6
CONTINUOUS
 62
     7
 10
-179.19142
 20
-351.61679
 11
-179.19142
 21
-356.61679
  0
LINE
  8
0
  6
CONTINUOUS
 62
     7
 10
-187.19142
 20
-351.61679
 11
-187.19142
 21
-356.61679
  0
LINE
  8
0
  6
CONTINUOUS
 62
     7
 10
-157.19142
 20
-351.61679
 11
-157.19142
 21
-356.61679
  0
LINE
  8
0
  6
CONTINUOUS
 62
     7
 10
-165.19142
 20
-351.61679
 11
-157.19142
 21
-351.61679
  0
LINE
  8
0
  6
CONTINUOUS
 62
     7
 10
-165.19142
 20
-356.61679
 11
-157.19142
 21
-356.61679
  0
LINE
  8
0
  6
CONTINUOUS
 62
     7
 10
-126.69142
 20
-319.61679
 11
-126.69142
 21
-388.61679
  0
LINE
  8
0
  6
CONTINUOUS
 62
     7
 10
-147.69142
 20
-354.11679
 11
-127.69142
 21
-354.11679
  0
LINE
  8
0
  6
CONTINUOUS
 62
     7
 10
-148.69142
 20
-319.61679
 11
-148.69142
 21
-388.61679
  0
LINE
  8
0
  6
CONTINUOUS
 62
     7
 10
-146.69142
 20
-317.61679
 11
-128.69142
 21
-317.61679
  0
LINE
  8
0
  6
CONTINUOUS
 62
     7
 10
-146.69142
 20
-390.61679
 11
-128.69142
 21
-390.61679
  0
LINE
  8
0
  6
CENTER
 62
     7
 10
-61.191422
 20
-312.29178
 11
-61.191422
 21
-396.64178
  0
LINE
  8
0
  6
CONTINUOUS
 62
     7
 10
-22.813053
 20
-354.11676
 11
-30.142662
 21
-331.55856
  0
LINE
  8
0
  6
CONTINUOUS
 62
     7
 10
-30.142662
 20
-331.55856
 11
-49.331856
 21
-317.61679
  0
LINE
  8
0
  6
CONTINUOUS
 62
     7
 10
-73.050995
 20
-317.61679
 11
-49.331856
 21
-317.61679
  0
LINE
  8
0
  6
CONTINUOUS
 62
     7
 10
-92.24015
 20
-331.55853
 11
-73.050987
 21
-317.61679
  0
LINE
  8
0
  6
CONTINUOUS
 62
     7
 10
-99.569794
 20
-354.11679
 11
-92.240173
 21
-331.55853
  0
LINE
  8
0
  6
CONTINUOUS
 62
     7
 10
-92.240181
 20
-376.67502
 11
-99.569786
 21
-354.11679
  0
LINE
  8
0
  6
CONTINUOUS
 62
     7
 10
-73.050987
 20
-390.61679
 11
-92.240181
 21
-376.67502
  0
LINE
  8
0
  6
CONTINUOUS
 62
     7
 10
-49.331856
 20
-390.61679
 11
-73.050987
 21
-390.61679
  0
LINE
  8
0
  6
CONTINUOUS
 62
     7
 10
-30.142653
 20
-376.67505
 11
-49.331821
 21
-390.61679
  0
LINE
  8
0
  6
CONTINUOUS
 62
     7
 10
-22.81304
 20
-354.11679
 11
-30.142658
 21
-376.67502
  0
LINE
  8
0
  6
CONTINUOUS
 62
     7
 10
-147.69142
 20
-331.55856
 11
-127.69142
 21
-331.55856
  0
LINE
  8
0
  6
CONTINUOUS
 62
     7
 10
-147.69142
 20
-376.67502
 11
-127.69142
 21
-376.67502
  0
LINE
  8
0
  6
CONTINUOUS
 62
     7
 10
-148.69144
 20
-319.61679
 11
-146.69142
 21
-317.61679
  0
LINE
  8
0
  6
CONTINUOUS
 62
     7
 10
-128.69142
 20
-317.61679
 11
-126.69141
 21
-319.61679
  0
LINE
  8
0
  6
CONTINUOUS
 62
     7
 10
-148.69144
 20
-388.61679
 11
-146.69144
 21
-390.61679
  0
LINE
  8
0
  6
CONTINUOUS
 62
     7
 10
-126.69142
 20
-388.61679
 11
-128.69142
 21
-390.61679
  0
LINE
  8
0
  6
CONTINUOUS
 62
     7
 10
-217.69144
 20
-388.61679
 11
-215.69144
 21
-390.61682
  0
LINE
  8
0
  6
CONTINUOUS
 62
     7
 10
-217.69142
 20
-319.61679
 11
-217.69142
 21
-388.61679
  0
LINE
  8
0
  6
CONTINUOUS
 62
     7
 10
-196.69142
 20
-354.11679
 11
-216.69142
 21
-354.11679
  0
LINE
  8
0
  6
CONTINUOUS
 62
     7
 10
-195.69142
 20
-319.61679
 11
-195.69142
 21
-388.61679
  0
LINE
  8
0
  6
CONTINUOUS
 62
     7
 10
-197.69142
 20
-317.61679
 11
-215.69142
 21
-317.61679
  0
LINE
  8
0
  6
CONTINUOUS
 62
     7
 10
-197.69142
 20
-390.61679
 11
-215.69142
 21
-390.61679
  0
LINE
  8
0
  6
CONTINUOUS
 62
     7
 10
-196.69142
 20
-331.55856
 11
-216.69142
 21
-331.55856
  0
LINE
  8
0
  6
CONTINUOUS
 62
     7
 10
-196.69142
 20
-376.67502
 11
-216.69142
 21
-376.67502
  0
LINE
  8
0
  6
CONTINUOUS
 62
     7
 10
-195.69144
 20
-319.61679
 11
-197.69145
 21
-317.61679
  0
LINE
  8
0
  6
CONTINUOUS
 62
     7
 10
-215.69144
 20
-317.61679
 11
-217.69144
 21
-319.61679
  0
LINE
  8
0
  6
CONTINUOUS
 62
     7
 10
-195.69144
 20
-388.61679
 11
-197.69144
 21
-390.61679
  0
LINE
  8
0
  6
CENTER
 62
     7
 10
17.088705
 20
-355.42645
 11
127.36574
 21
-355.42645
  0
LINE
  8
0
  6
CENTER
 62
     7
 10
73.354797
 20
-308.17645
 11
73.354797
 21
-403.37643
  0
LINE
  8
0
  6
CONTINUOUS
 62
     7
 10
69.229919
 20
-317.92645
 11
77.479675
 21
-317.92645
  0
LINE
  8
0
  6
CONTINUOUS
 62
     7
 10
50.108772
 20
-319.12152
 11
69.105286
 21
-317.93423
  0
LINE
  8
0
  6
CONTINUOUS
 62
     7
 10
96.600822
 20
-319.12149
 11
77.604309
 21
-317.9342
  0
LINE
  8
0
  6
CONTINUOUS
 62
     7
 10
50.108768
 20
-391.73138
 11
69.105286
 21
-392.91864
  0
LINE
  8
0
  6
CONTINUOUS
 62
     7
 10
69.229919
 20
-392.92645
 11
77.479675
 21
-392.92645
  0
LINE
  8
0
  6
CONTINUOUS
 62
     7
 10
96.60083
 20
-391.73135
 11
77.604309
 21
-392.91864
  0
LINE
  8
0
  6
CONTINUOUS
 62
     7
 10
58.354797
 20
-352.92645
 11
66.354797
 21
-352.92645
  0
LINE
  8
0
  6
CONTINUOUS
 62
     7
 10
58.354797
 20
-357.92645
 11
66.354797
 21
-357.92645
  0
LINE
  8
0
  6
CONTINUOUS
 62
     7
 10
58.354797
 20
-352.92645
 11
58.354797
 21
-357.92645
  0
LINE
  8
0
  6
CONTINUOUS
 62
     7
 10
88.354797
 20
-352.92645
 11
88.354797
 21
-357.92645
  0
LINE
  8
0
  6
CONTINUOUS
 62
     7
 10
66.354797
 20
-352.92645
 11
66.354797
 21
-357.92645
  0
LINE
  8
0
  6
CONTINUOUS
 62
     7
 10
80.354797
 20
-352.92645
 11
80.354797
 21
-357.92645
  0
LINE
  8
0
  6
CONTINUOUS
 62
     7
 10
80.354797
 20
-352.92645
 11
88.354797
 21
-352.92645
  0
LINE
  8
0
  6
CONTINUOUS
 62
     7
 10
80.354797
 20
-357.92645
 11
88.354797
 21
-357.92645
  0
LINE
  8
0
  6
CONTINUOUS
 62
     7
 10
121.8548
 20
-313.92645
 11
121.8548
 21
-396.92645
  0
LINE
  8
0
  6
CONTINUOUS
 62
     7
 10
99.354797
 20
-355.42645
 11
120.8548
 21
-355.42645
  0
LINE
  8
0
  6
CONTINUOUS
 62
     7
 10
98.354797
 20
-313.92645
 11
98.354797
 21
-396.92645
  0
LINE
  8
0
  6
CONTINUOUS
 62
     7
 10
100.3548
 20
-311.92645
 11
119.8548
 21
-311.92645
  0
LINE
  8
0
  6
CONTINUOUS
 62
     7
 10
100.3548
 20
-398.92645
 11
119.8548
 21
-398.92645
  0
LINE
  8
0
  6
CONTINUOUS
 62
     7
 10
98.35482
 20
-313.92645
 11
100.35483
 21
-311.92645
  0
LINE
  8
0
  6
CONTINUOUS
 62
     7
 10
119.85481
 20
-311.92645
 11
121.85481
 21
-313.92645
  0
LINE
  8
0
  6
CONTINUOUS
 62
     7
 10
98.35479
 20
-396.92645
 11
100.35479
 21
-398.92645
  0
LINE
  8
0
  6
CONTINUOUS
 62
     7
 10
119.85479
 20
-398.92642
 11
121.85479
 21
-396.92642
  0
LINE
  8
0
  6
CONTINUOUS
 62
     7
 10
235.09341
 20
-355.42645
 11
226.35811
 21
-328.54193
  0
LINE
  8
0
  6
CONTINUOUS
 62
     7
 10
226.35809
 20
-328.54193
 11
203.4888
 21
-311.92642
  0
LINE
  8
0
  6
CONTINUOUS
 62
     7
 10
175.22079
 20
-311.92645
 11
203.4888
 21
-311.92645
  0
LINE
  8
0
  6
CONTINUOUS
 62
     7
 10
152.3515
 20
-328.54196
 11
175.22081
 21
-311.92645
  0
LINE
  8
0
  6
CONTINUOUS
 62
     7
 10
143.6162
 20
-355.42645
 11
152.35149
 21
-328.54196
  0
LINE
  8
0
  6
CONTINUOUS
 62
     7
 10
152.35149
 20
-382.31094
 11
143.61618
 21
-355.42642
  0
LINE
  8
0
  6
CONTINUOUS
 62
     7
 10
175.22078
 20
-398.92642
 11
152.35149
 21
-382.31091
  0
LINE
  8
0
  6
CONTINUOUS
 62
     7
 10
203.48882
 20
-398.92645
 11
175.22079
 21
-398.92645
  0
LINE
  8
0
  6
CONTINUOUS
 62
     7
 10
226.35811
 20
-382.31091
 11
203.4888
 21
-398.92642
  0
LINE
  8
0
  6
CONTINUOUS
 62
     7
 10
235.09343
 20
-355.42645
 11
226.35814
 21
-382.31091
  0
LINE
  8
0
  6
CENTER
 62
     7
 10
189.3548
 20
-302.22644
 11
189.3548
 21
-406.52643
  0
LINE
  8
0
  6
CONTINUOUS
 62
     7
 10
120.8548
 20
-328.54196
 11
99.354797
 21
-328.54196
  0
LINE
  8
0
  6
CONTINUOUS
 62
     7
 10
120.8548
 20
-382.31091
 11
99.354797
 21
-382.31091
  0
LINE
  8
0
  6
CONTINUOUS
 62
     7
 10
25.854797
 20
-382.31091
 11
47.354797
 21
-382.31091
  0
LINE
  8
0
  6
CONTINUOUS
 62
     7
 10
24.854797
 20
-313.92645
 11
24.854797
 21
-396.92645
  0
LINE
  8
0
  6
CONTINUOUS
 62
     7
 10
47.354797
 20
-355.42645
 11
25.854797
 21
-355.42645
  0
LINE
  8
0
  6
CONTINUOUS
 62
     7
 10
48.354797
 20
-313.92645
 11
48.354797
 21
-396.92645
  0
LINE
  8
0
  6
CONTINUOUS
 62
     7
 10
46.354797
 20
-311.92645
 11
26.854797
 21
-311.92645
  0
LINE
  8
0
  6
CONTINUOUS
 62
     7
 10
46.354797
 20
-398.92645
 11
26.854797
 21
-398.92645
  0
LINE
  8
0
  6
CONTINUOUS
 62
     7
 10
48.354794
 20
-313.92645
 11
46.354794
 21
-311.92642
  0
LINE
  8
0
  6
CONTINUOUS
 62
     7
 10
26.854782
 20
-311.92645
 11
24.85478
 21
-313.92645
  0
LINE
  8
0
  6
CONTINUOUS
 62
     7
 10
48.354797
 20
-396.92642
 11
46.354794
 21
-398.92642
  0
LINE
  8
0
  6
CONTINUOUS
 62
     7
 10
26.854784
 20
-398.92645
 11
24.854782
 21
-396.92645
  0
LINE
  8
0
  6
CONTINUOUS
 62
     7
 10
25.854797
 20
-328.54196
 11
47.354797
 21
-328.54196
  0
LINE
  8
0
  6
CENTER
 62
     7
 10
-218.02879
 20
-482.20773
 11
-218.02879
 21
-584.05774
  0
LINE
  8
0
  6
CENTER
 62
     7
 10
-276.54495
 20
-534.54309
 11
-158.6857
 21
-534.54309
  0
LINE
  8
0
  6
CONTINUOUS
 62
     7
 10
-222.17538
 20
-488.29306
 11
-213.88222
 21
-488.29306
  0
LINE
  8
0
  6
CONTINUOUS
 62
     7
 10
-214.02881
 20
-488.28351
 11
-195.24818
 21
-489.50833
  0
LINE
  8
0
  6
CONTINUOUS
 62
     7
 10
-222.02879
 20
-488.28351
 11
-240.80942
 21
-489.50833
  0
LINE
  8
0
  6
CONTINUOUS
 62
     7
 10
-222.02881
 20
-580.80267
 11
-240.80942
 21
-579.57782
  0
LINE
  8
0
  6
CONTINUOUS
 62
     7
 10
-222.17538
 20
-580.79309
 11
-213.88222
 21
-580.79309
  0
LINE
  8
0
  6
CONTINUOUS
 62
     7
 10
-214.02879
 20
-580.80261
 11
-195.24818
 21
-579.57782
  0
LINE
  8
0
  6
CONTINUOUS
 62
     7
 10
-209.52879
 20
-531.54309
 11
-209.52879
 21
-537.54309
  0
LINE
  8
0
  6
CONTINUOUS
 62
     7
 10
-226.52879
 20
-531.54309
 11
-226.52879
 21
-537.54309
  0
LINE
  8
0
  6
CONTINUOUS
 62
     7
 10
-200.52879
 20
-531.54309
 11
-200.52879
 21
-537.54309
  0
LINE
  8
0
  6
CONTINUOUS
 62
     7
 10
-235.52879
 20
-531.54309
 11
-235.52879
 21
-537.54309
  0
LINE
  8
0
  6
CONTINUOUS
 62
     7
 10
-235.52879
 20
-531.54309
 11
-226.52879
 21
-531.54309
  0
LINE
  8
0
  6
CONTINUOUS
 62
     7
 10
-235.52879
 20
-537.54309
 11
-226.52879
 21
-537.54309
  0
LINE
  8
0
  6
CONTINUOUS
 62
     7
 10
-209.52879
 20
-531.54309
 11
-200.52879
 21
-531.54309
  0
LINE
  8
0
  6
CONTINUOUS
 62
     7
 10
-209.52879
 20
-537.54309
 11
-200.52879
 21
-537.54309
  0
LINE
  8
0
  6
CONTINUOUS
 62
     7
 10
-163.02879
 20
-482.54306
 11
-163.02879
 21
-586.54309
  0
LINE
  8
0
  6
CONTINUOUS
 62
     7
 10
-192.02879
 20
-534.54309
 11
-163.02879
 21
-534.54309
  0
LINE
  8
0
  6
CONTINUOUS
 62
     7
 10
-192.02879
 20
-482.54306
 11
-192.02879
 21
-586.54309
  0
LINE
  8
0
  6
CONTINUOUS
 62
     7
 10
-190.02879
 20
-480.54306
 11
-165.02879
 21
-480.54306
  0
LINE
  8
0
  6
CONTINUOUS
 62
     7
 10
-190.02879
 20
-588.54309
 11
-165.02879
 21
-588.54309
  0
LINE
  8
0
  6
CONTINUOUS
 62
     7
 10
-192.02881
 20
-482.54309
 11
-190.02881
 21
-480.54309
  0
LINE
  8
0
  6
CONTINUOUS
 62
     7
 10
-165.02881
 20
-480.54309
 11
-163.02879
 21
-482.54309
  0
LINE
  8
0
  6
CONTINUOUS
 62
     7
 10
-192.02878
 20
-586.54309
 11
-190.02879
 21
-588.54303
  0
LINE
  8
0
  6
CONTINUOUS
 62
     7
 10
-165.02879
 20
-588.54303
 11
-163.02879
 21
-586.54303
  0
LINE
  8
0
  6
CENTER
 62
     7
 10
-86.028793
 20
-477.72827
 11
-86.028793
 21
-592.07971
  0
LINE
  8
0
  6
CONTINUOUS
 62
     7
 10
-191.02879
 20
-502.4053
 11
-164.02879
 21
-502.4053
  0
LINE
  8
0
  6
CONTINUOUS
 62
     7
 10
-191.02879
 20
-566.68085
 11
-164.02879
 21
-566.68085
  0
LINE
  8
0
  6
CONTINUOUS
 62
     7
 10
-273.02881
 20
-482.54306
 11
-273.02881
 21
-586.54309
  0
LINE
  8
0
  6
CONTINUOUS
 62
     7
 10
-245.02879
 20
-534.54309
 11
-272.02881
 21
-534.54309
  0
LINE
  8
0
  6
CONTINUOUS
 62
     7
 10
-244.02879
 20
-482.54306
 11
-244.02879
 21
-586.54309
  0
LINE
  8
0
  6
CONTINUOUS
 62
     7
 10
-246.02879
 20
-480.54306
 11
-271.02881
 21
-480.54306
  0
LINE
  8
0
  6
CONTINUOUS
 62
     7
 10
-246.02879
 20
-588.54309
 11
-271.02881
 21
-588.54309
  0
LINE
  8
0
  6
CONTINUOUS
 62
     7
 10
-244.02881
 20
-482.54306
 11
-246.02881
 21
-480.54306
  0
LINE
  8
0
  6
CONTINUOUS
 62
     7
 10
-271.02878
 20
-480.54303
 11
-273.02878
 21
-482.54303
  0
LINE
  8
0
  6
CONTINUOUS
 62
     7
 10
-244.02878
 20
-586.54309
 11
-246.02878
 21
-588.54309
  0
LINE
  8
0
  6
CONTINUOUS
 62
     7
 10
-271.02878
 20
-588.54309
 11
-273.02878
 21
-586.54309
  0
LINE
  8
0
  6
CONTINUOUS
 62
     7
 10
-245.02879
 20
-502.4053
 11
-272.02881
 21
-502.4053
  0
LINE
  8
0
  6
CONTINUOUS
 62
     7
 10
-245.02879
 20
-566.68085
 11
-272.02881
 21
-566.68085
  0
LINE
  8
0
  6
CENTER
 62
     7
 10
0.48005024
 20
-535.87976
 11
132.24251
 21
-535.87976
  0
LINE
  8
0
  6
CENTER
 62
     7
 10
66.726746
 20
-477.42978
 11
66.726746
 21
-596.07977
  0
LINE
  8
0
  6
CONTINUOUS
 62
     7
 10
62.570648
 20
-482.37976
 11
70.882843
 21
-482.37976
  0
LINE
  8
0
  6
CONTINUOUS
 62
     7
 10
70.726738
 20
-482.37003
 11
94.518555
 21
-483.85699
  0
LINE
  8
0
  6
CONTINUOUS
 62
     7
 10
62.726746
 20
-482.37
 11
38.934933
 21
-483.85699
  0
LINE
  8
0
  6
CONTINUOUS
 62
     7
 10
62.726746
 20
-589.38947
 11
38.934937
 21
-587.90253
  0
LINE
  8
0
  6
CONTINUOUS
 62
     7
 10
62.570648
 20
-589.37976
 11
70.882843
 21
-589.37976
  0
LINE
  8
0
  6
CONTINUOUS
 62
     7
 10
70.726746
 20
-589.38953
 11
94.518555
 21
-587.90253
  0
LINE
  8
0
  6
CONTINUOUS
 62
     7
 10
49.226746
 20
-538.87976
 11
58.226746
 21
-538.87976
  0
LINE
  8
0
  6
CONTINUOUS
 62
     7
 10
49.226746
 20
-532.87976
 11
58.226746
 21
-532.87976
  0
LINE
  8
0
  6
CONTINUOUS
 62
     7
 10
58.226746
 20
-532.87976
 11
58.226746
 21
-538.87976
  0
LINE
  8
0
  6
CONTINUOUS
 62
     7
 10
75.226746
 20
-532.87976
 11
75.226746
 21
-538.87976
  0
LINE
  8
0
  6
CONTINUOUS
 62
     7
 10
49.226746
 20
-532.87976
 11
49.226746
 21
-538.87976
  0
LINE
  8
0
  6
CONTINUOUS
 62
     7
 10
84.226746
 20
-532.87976
 11
84.226746
 21
-538.87976
  0
LINE
  8
0
  6
CONTINUOUS
 62
     7
 10
75.226746
 20
-532.87976
 11
84.226746
 21
-532.87976
  0
LINE
  8
0
  6
CONTINUOUS
 62
     7
 10
75.226746
 20
-538.87976
 11
84.226746
 21
-538.87976
  0
LINE
  8
0
  6
CONTINUOUS
 62
     7
 10
98.726746
 20
-535.87976
 11
125.72675
 21
-535.87976
  0
LINE
  8
0
  6
CONTINUOUS
 62
     7
 10
126.72675
 20
-476.37976
 11
126.72675
 21
-595.37976
  0
LINE
  8
0
  6
CONTINUOUS
 62
     7
 10
97.726746
 20
-476.37976
 11
97.726746
 21
-595.37976
  0
LINE
  8
0
  6
CONTINUOUS
 62
     7
 10
99.726746
 20
-597.37976
 11
124.72675
 21
-597.37976
  0
LINE
  8
0
  6
CONTINUOUS
 62
     7
 10
99.726746
 20
-474.37976
 11
124.72675
 21
-474.37976
  0
LINE
  8
0
  6
CONTINUOUS
 62
     7
 10
99.726738
 20
-474.37976
 11
97.726738
 21
-476.37976
  0
LINE
  8
0
  6
CONTINUOUS
 62
     7
 10
97.726746
 20
-595.37976
 11
99.726746
 21
-597.37976
  0
LINE
  8
0
  6
CONTINUOUS
 62
     7
 10
124.72675
 20
-597.37976
 11
126.72675
 21
-595.37976
  0
LINE
  8
0
  6
CONTINUOUS
 62
     7
 10
124.72674
 20
-474.37973
 11
126.72674
 21
-476.37973
  0
LINE
  8
0
  6
CENTER
 62
     7
 10
214.72675
 20
-474.37976
 11
214.72675
 21
-597.37976
  0
LINE
  8
0
  6
CONTINUOUS
 62
     7
 10
279.39166
 20
-535.87976
 11
267.04175
 21
-497.87064
  0
LINE
  8
0
  6
CONTINUOUS
 62
     7
 10
267.04178
 20
-497.87067
 11
234.70932
 21
-474.37976
  0
LINE
  8
0
  6
CONTINUOUS
 62
     7
 10
194.74419
 20
-474.37976
 11
234.7093
 21
-474.37976
  0
LINE
  8
0
  6
CONTINUOUS
 62
     7
 10
162.41173
 20
-497.87067
 11
194.74419
 21
-474.37976
  0
LINE
  8
0
  6
CONTINUOUS
 62
     7
 10
150.06183
 20
-535.87976
 11
162.41173
 21
-497.8707
  0
LINE
  8
0
  6
CONTINUOUS
 62
     7
 10
162.41171
 20
-573.88885
 11
150.0618
 21
-535.87976
  0
LINE
  8
0
  6
CONTINUOUS
 62
     7
 10
194.74419
 20
-597.37976
 11
162.41173
 21
-573.88885
  0
LINE
  8
0
  6
CONTINUOUS
 62
     7
 10
234.7093
 20
-597.37976
 11
194.74419
 21
-597.37976
  0
LINE
  8
0
  6
CONTINUOUS
 62
     7
 10
267.04178
 20
-573.88885
 11
234.70932
 21
-597.37982
  0
LINE
  8
0
  6
CONTINUOUS
 62
     7
 10
279.39166
 20
-535.87976
 11
267.04178
 21
-573.88885
  0
LINE
  8
0
  6
CONTINUOUS
 62
     7
 10
98.726746
 20
-497.87067
 11
125.72675
 21
-497.87067
  0
LINE
  8
0
  6
CONTINUOUS
 62
     7
 10
98.726746
 20
-573.88885
 11
125.72675
 21
-573.88885
  0
LINE
  8
0
  6
CONTINUOUS
 62
     7
 10
34.726742
 20
-573.88885
 11
7.7267427
 21
-573.88885
  0
LINE
  8
0
  6
CONTINUOUS
 62
     7
 10
34.726742
 20
-535.87976
 11
7.7267427
 21
-535.87976
  0
LINE
  8
0
  6
CONTINUOUS
 62
     7
 10
6.7267427
 20
-476.37976
 11
6.7267427
 21
-595.37976
  0
LINE
  8
0
  6
CONTINUOUS
 62
     7
 10
35.726742
 20
-476.37976
 11
35.726742
 21
-595.37976
  0
LINE
  8
0
  6
CONTINUOUS
 62
     7
 10
33.726742
 20
-597.37976
 11
8.7267427
 21
-597.37976
  0
LINE
  8
0
  6
CONTINUOUS
 62
     7
 10
33.726742
 20
-474.37976
 11
8.7267427
 21
-474.37976
  0
LINE
  8
0
  6
CONTINUOUS
 62
     7
 10
33.726738
 20
-474.37979
 11
35.726742
 21
-476.37979
  0
LINE
  8
0
  6
CONTINUOUS
 62
     7
 10
35.726734
 20
-595.37976
 11
33.726734
 21
-597.37976
  0
LINE
  8
0
  6
CONTINUOUS
 62
     7
 10
8.7267485
 20
-597.37976
 11
6.726747
 21
-595.37976
  0
LINE
  8
0
  6
CONTINUOUS
 62
     7
 10
8.7267513
 20
-474.37976
 11
6.7267489
 21
-476.37976
  0
LINE
  8
0
  6
CONTINUOUS
 62
     7
 10
34.726742
 20
-497.87067
 11
7.7267427
 21
-497.87067
  0
LINE
  8
0
  6
CENTER
 62
     7
 10
-143.35371
 20
-534.54309
 11
-26.032043
 21
-534.54309
  0
LINE
  8
0
  6
CENTER
 62
     7
 10
147.55997
 20
-535.87976
 11
283.57675
 21
-535.87976
  0
LINE
  8
0
  6
CONTINUOUS
 62
     7
 10
-297
 20
-210
 11
-297
 21
210
  0
LINE
  8
0
  6
CONTINUOUS
 62
     7
 10
297
 20
-210
 11
-297
 21
-210
  0
LINE
  8
0
  6
CONTINUOUS
 62
     7
 10
-297
 20
210
 11
297
 21
210
  0
LINE
  8
0
  6
CONTINUOUS
 62
     7
 10
297
 20
210
 11
297
 21
-210
  0
LINE
  8
0
  6
CENTER
 62
     7
 10
139.06178
 20
-355.42645
 11
240.9845
 21
-355.42645
  0
LINE
  8
0
  6
CENTER
 62
     7
 10
-104.02531
 20
-354.11679
 11
-18.336029
 21
-354.11679
  0
LINE
  8
0
  6
CENTER
 62
     7
 10
158.53659
 20
-89.851692
 11
242.05322
 21
-89.851692
  0
LINE
  8
0
  6
CENTER
 62
     7
 10
-95.642593
 20
-86.620605
 11
-23.481558
 21
-86.620605
  0
LINE
  8
0
  6
CENTER
 62
     7
 10
-93.647636
 20
130.4572
 11
-40.136066
 21
130.4572
  0
LINE
  8
0
  6
CENTER
 62
     7
 10
123.30732
 20
132.92583
 11
176.8045
 21
132.92583
  0
LINE
  8
0
  6
CENTER
 62
     7
 10
19.29241
 20
20.830708
 11
82.47438
 21
20.830708
  0
LINE
  8
0
  6
CONTINUOUS
 62
     7
 10
-29.249828
 20
-534.54309
 11
-40.093647
 21
-501.16925
  0
LINE
  8
0
  6
CONTINUOUS
 62
     7
 10
-40.093639
 20
-501.16925
 11
-68.483131
 21
-480.54309
  0
LINE
  8
0
  6
CONTINUOUS
 62
     7
 10
-103.57446
 20
-480.54309
 11
-68.483131
 21
-480.54309
  0
LINE
  8
0
  6
CONTINUOUS
 62
     7
 10
-131.96396
 20
-501.16925
 11
-103.57447
 21
-480.54306
  0
LINE
  8
0
  6
CONTINUOUS
 62
     7
 10
-142.80777
 20
-534.54309
 11
-131.96393
 21
-501.16925
  0
LINE
  8
0
  6
CONTINUOUS
 62
     7
 10
-131.96391
 20
-567.91693
 11
-142.80774
 21
-534.54309
  0
LINE
  8
0
  6
CONTINUOUS
 62
     7
 10
-103.57446
 20
-588.54315
 11
-131.96396
 21
-567.91693
  0
LINE
  8
0
  6
CONTINUOUS
 62
     7
 10
-68.483131
 20
-588.54309
 11
-103.57446
 21
-588.54309
  0
LINE
  8
0
  6
CONTINUOUS
 62
     7
 10
-40.093662
 20
-567.91693
 11
-68.483154
 21
-588.54309
  0
LINE
  8
0
  6
CONTINUOUS
 62
     7
 10
-29.24983
 20
-534.54309
 11
-40.093658
 21
-567.91693
  0
LINE
  8
0
  6
CONTINUOUS
 62
     7
 10
317
 20
-650
 11
317
 21
-230
  0
LINE
  8
0
  6
CONTINUOUS
 62
     7
 10
317
 20
-230
 11
911
 21
-230
  0
LINE
  8
0
  6
CONTINUOUS
 62
     7
 10
911
 20
-230
 11
911
 21
-650
  0
LINE
  8
0
  6
CONTINUOUS
 62
     7
 10
911
 20
-650
 11
317
 21
-650
  0
LINE
  8
0
  6
CENTER
 62
     7
 10
518.54999
 20
-284.66464
 11
518.54999
 21
-386.51465
  0
LINE
  8
0
  6
CENTER
 62
     7
 10
443.20001
 20
-337
 11
597.63776
 21
-337
  0
LINE
  8
0
  6
CONTINUOUS
 62
     7
 10
546.54999
 20
-288
 11
552.54999
 21
-288
  0
LINE
  8
0
  6
CONTINUOUS
 62
     7
 10
546.54999
 20
-288
 11
546.54999
 21
-386
  0
LINE
  8
0
  6
CONTINUOUS
 62
     7
 10
514.40344
 20
-290.75
 11
522.69659
 21
-290.75
  0
LINE
  8
0
  6
CONTINUOUS
 62
     7
 10
522.54999
 20
-290.74045
 11
541.33063
 21
-291.96527
  0
LINE
  8
0
  6
CONTINUOUS
 62
     7
 10
514.54999
 20
-290.74042
 11
495.76935
 21
-291.96527
  0
LINE
  8
0
  6
CONTINUOUS
 62
     7
 10
490.54999
 20
-288
 11
490.54999
 21
-386
  0
LINE
  8
0
  6
CONTINUOUS
 62
     7
 10
514.54999
 20
-383.25958
 11
495.76935
 21
-382.03476
  0
LINE
  8
0
  6
CONTINUOUS
 62
     7
 10
514.40344
 20
-383.25
 11
522.69659
 21
-383.25
  0
LINE
  8
0
  6
CONTINUOUS
 62
     7
 10
522.54999
 20
-383.25955
 11
541.33063
 21
-382.03473
  0
LINE
  8
0
  6
CONTINUOUS
 62
     7
 10
546.54999
 20
-386
 11
552.54999
 21
-386
  0
LINE
  8
0
  6
CONTINUOUS
 62
     7
 10
527.04999
 20
-334
 11
527.04999
 21
-340
  0
LINE
  8
0
  6
CONTINUOUS
 62
     7
 10
510.04999
 20
-334
 11
510.04999
 21
-340
  0
LINE
  8
0
  6
CONTINUOUS
 62
     7
 10
536.04999
 20
-334
 11
536.04999
 21
-340
  0
LINE
  8
0
  6
CONTINUOUS
 62
     7
 10
501.04999
 20
-334
 11
501.04999
 21
-340
  0
LINE
  8
0
  6
CONTINUOUS
 62
     7
 10
501.04999
 20
-334
 11
510.04999
 21
-334
  0
LINE
  8
0
  6
CONTINUOUS
 62
     7
 10
501.04999
 20
-340
 11
510.04999
 21
-340
  0
LINE
  8
0
  6
CONTINUOUS
 62
     7
 10
527.04999
 20
-334
 11
536.04999
 21
-334
  0
LINE
  8
0
  6
CONTINUOUS
 62
     7
 10
527.04999
 20
-340
 11
536.04999
 21
-340
  0
LINE
  8
0
  6
CONTINUOUS
 62
     7
 10
581.54999
 20
-285
 11
581.54999
 21
-389
  0
LINE
  8
0
  6
CONTINUOUS
 62
     7
 10
553.54999
 20
-337
 11
580.54999
 21
-337
  0
LINE
  8
0
  6
CONTINUOUS
 62
     7
 10
583.54999
 20
-296.60001
 11
583.54999
 21
-377.40002
  0
LINE
  8
0
  6
CONTINUOUS
 62
     7
 10
552.54999
 20
-285
 11
552.54999
 21
-389
  0
LINE
  8
0
  6
CONTINUOUS
 62
     7
 10
554.54999
 20
-283
 11
579.54999
 21
-283
  0
LINE
  8
0
  6
CONTINUOUS
 62
     7
 10
554.54999
 20
-391
 11
579.54999
 21
-391
  0
LINE
  8
0
  6
CONTINUOUS
 62
     7
 10
552.54999
 20
-285
 11
554.54999
 21
-282.99997
  0
LINE
  8
0
  6
CONTINUOUS
 62
     7
 10
579.54999
 20
-282.99997
 11
581.54999
 21
-284.99997
  0
LINE
  8
0
  6
CONTINUOUS
 62
     7
 10
552.54999
 20
-389
 11
554.54999
 21
-391
  0
LINE
  8
0
  6
CONTINUOUS
 62
     7
 10
579.54999
 20
-391
 11
581.54999
 21
-389
  0
LINE
  8
0
  6
CONTINUOUS
 62
     7
 10
553.54999
 20
-304.86224
 11
580.54999
 21
-304.86224
  0
LINE
  8
0
  6
CONTINUOUS
 62
     7
 10
553.54999
 20
-369.13776
 11
580.54999
 21
-369.13776
  0
LINE
  8
0
  6
CONTINUOUS
 62
     7
 10
583.54999
 20
-296.59998
 11
581.54999
 21
-296.06409
  0
LINE
  8
0
  6
CONTINUOUS
 62
     7
 10
583.54999
 20
-377.39996
 11
581.54999
 21
-377.93585
  0
LINE
  8
0
  6
CONTINUOUS
 62
     7
 10
453.55002
 20
-377.40002
 11
455.55002
 21
-377.93591
  0
LINE
  8
0
  6
CONTINUOUS
 62
     7
 10
490.54999
 20
-288
 11
484.54999
 21
-288
  0
LINE
  8
0
  6
CONTINUOUS
 62
     7
 10
490.54999
 20
-386
 11
484.54999
 21
-386
  0
LINE
  8
0
  6
CONTINUOUS
 62
     7
 10
455.54999
 20
-285
 11
455.54999
 21
-389
  0
LINE
  8
0
  6
CONTINUOUS
 62
     7
 10
483.54999
 20
-337
 11
456.54999
 21
-337
  0
LINE
  8
0
  6
CONTINUOUS
 62
     7
 10
453.54999
 20
-296.60001
 11
453.54999
 21
-377.40002
  0
LINE
  8
0
  6
CONTINUOUS
 62
     7
 10
484.54999
 20
-285
 11
484.54999
 21
-389
  0
LINE
  8
0
  6
CONTINUOUS
 62
     7
 10
482.54999
 20
-283
 11
457.54999
 21
-283
  0
LINE
  8
0
  6
CONTINUOUS
 62
     7
 10
482.54999
 20
-391
 11
457.54999
 21
-391
  0
LINE
  8
0
  6
CONTINUOUS
 62
     7
 10
484.55002
 20
-285.00003
 11
482.54999
 21
-283.00003
  0
LINE
  8
0
  6
CONTINUOUS
 62
     7
 10
457.54999
 20
-283.00003
 11
455.55002
 21
-285
  0
LINE
  8
0
  6
CONTINUOUS
 62
     7
 10
484.54999
 20
-389
 11
482.54999
 21
-391
  0
LINE
  8
0
  6
CONTINUOUS
 62
     7
 10
457.54999
 20
-391
 11
455.54999
 21
-389
  0
LINE
  8
0
  6
CONTINUOUS
 62
     7
 10
483.54999
 20
-304.86224
 11
456.54999
 21
-304.86224
  0
LINE
  8
0
  6
CONTINUOUS
 62
     7
 10
483.54999
 20
-369.13776
 11
456.54999
 21
-369.13776
  0
LINE
  8
0
  6
CONTINUOUS
 62
     7
 10
453.55002
 20
-296.60001
 11
455.55002
 21
-296.06409
  0
LINE
  8
0
  6
CENTER
 62
     7
 10
432.70001
 20
-547
 11
607.76447
 21
-547
  0
LINE
  8
0
  6
CENTER
 62
     7
 10
525.70624
 20
-488.54999
 11
525.70624
 21
-607.20001
  0
LINE
  8
0
  6
CONTINUOUS
 62
     7
 10
558.70624
 20
-491
 11
564.70624
 21
-491
  0
LINE
  8
0
  6
CONTINUOUS
 62
     7
 10
558.70624
 20
-491
 11
558.70624
 21
-603
  0
LINE
  8
0
  6
CONTINUOUS
 62
     7
 10
521.55017
 20
-493.5
 11
529.86237
 21
-493.5
  0
LINE
  8
0
  6
CONTINUOUS
 62
     7
 10
529.70624
 20
-493.49023
 11
553.49811
 21
-494.97723
  0
LINE
  8
0
  6
CONTINUOUS
 62
     7
 10
521.70624
 20
-493.4902
 11
497.91443
 21
-494.9772
  0
LINE
  8
0
  6
CONTINUOUS
 62
     7
 10
492.70624
 20
-491
 11
492.70624
 21
-603
  0
LINE
  8
0
  6
CONTINUOUS
 62
     7
 10
521.70624
 20
-600.50977
 11
497.91449
 21
-599.02277
  0
LINE
  8
0
  6
CONTINUOUS
 62
     7
 10
521.55017
 20
-600.5
 11
529.86237
 21
-600.5
  0
LINE
  8
0
  6
CONTINUOUS
 62
     7
 10
529.70624
 20
-600.5097
 11
553.49805
 21
-599.02277
  0
LINE
  8
0
  6
CONTINUOUS
 62
     7
 10
558.70624
 20
-603
 11
564.70624
 21
-603
  0
LINE
  8
0
  6
CONTINUOUS
 62
     7
 10
508.20624
 20
-550
 11
517.20624
 21
-550
  0
LINE
  8
0
  6
CONTINUOUS
 62
     7
 10
508.20624
 20
-544
 11
517.20624
 21
-544
  0
LINE
  8
0
  6
CONTINUOUS
 62
     7
 10
517.20624
 20
-544
 11
517.20624
 21
-550
  0
LINE
  8
0
  6
CONTINUOUS
 62
     7
 10
534.20624
 20
-544
 11
534.20624
 21
-550
  0
LINE
  8
0
  6
CONTINUOUS
 62
     7
 10
508.20624
 20
-544
 11
508.20624
 21
-550
  0
LINE
  8
0
  6
CONTINUOUS
 62
     7
 10
543.20624
 20
-544
 11
543.20624
 21
-550
  0
LINE
  8
0
  6
CONTINUOUS
 62
     7
 10
534.20624
 20
-544
 11
543.20624
 21
-544
  0
LINE
  8
0
  6
CONTINUOUS
 62
     7
 10
534.20624
 20
-550
 11
543.20624
 21
-550
  0
LINE
  8
0
  6
CONTINUOUS
 62
     7
 10
565.70624
 20
-547
 11
592.70624
 21
-547
  0
LINE
  8
0
  6
CONTINUOUS
 62
     7
 10
593.70624
 20
-487.5
 11
593.70624
 21
-606.5
  0
LINE
  8
0
  6
CONTINUOUS
 62
     7
 10
564.70624
 20
-487.5
 11
564.70624
 21
-606.5
  0
LINE
  8
0
  6
CONTINUOUS
 62
     7
 10
566.70624
 20
-608.5
 11
591.70624
 21
-608.5
  0
LINE
  8
0
  6
CONTINUOUS
 62
     7
 10
566.70624
 20
-485.5
 11
591.70624
 21
-485.5
  0
LINE
  8
0
  6
CONTINUOUS
 62
     7
 10
566.70624
 20
-485.49997
 11
564.70624
 21
-487.49997
  0
LINE
  8
0
  6
CONTINUOUS
 62
     7
 10
564.70624
 20
-606.5
 11
566.70624
 21
-608.5
  0
LINE
  8
0
  6
CONTINUOUS
 62
     7
 10
591.7063
 20
-608.5
 11
593.7063
 21
-606.5
  0
LINE
  8
0
  6
CONTINUOUS
 62
     7
 10
591.70624
 20
-485.5
 11
593.70624
 21
-487.5
  0
LINE
  8
0
  6
CONTINUOUS
 62
     7
 10
748.37122
 20
-546.99994
 11
736.0213
 21
-508.99084
  0
LINE
  8
0
  6
CONTINUOUS
 62
     7
 10
736.0213
 20
-508.99094
 11
703.68884
 21
-485.5
  0
LINE
  8
0
  6
CONTINUOUS
 62
     7
 10
663.72369
 20
-485.5
 11
703.68884
 21
-485.5
  0
LINE
  8
0
  6
CONTINUOUS
 62
     7
 10
631.39117
 20
-508.99091
 11
663.72369
 21
-485.5
  0
LINE
  8
0
  6
CONTINUOUS
 62
     7
 10
619.04132
 20
-547
 11
631.39124
 21
-508.99091
  0
LINE
  8
0
  6
CONTINUOUS
 62
     7
 10
631.39124
 20
-585.00909
 11
619.04132
 21
-546.99994
  0
LINE
  8
0
  6
CONTINUOUS
 62
     7
 10
663.72369
 20
-608.5
 11
631.39124
 21
-585.00909
  0
LINE
  8
0
  6
CONTINUOUS
 62
     7
 10
703.68884
 20
-608.5
 11
663.72369
 21
-608.5
  0
LINE
  8
0
  6
CONTINUOUS
 62
     7
 10
736.02124
 20
-585.00909
 11
703.68878
 21
-608.5
  0
LINE
  8
0
  6
CONTINUOUS
 62
     7
 10
748.37115
 20
-547
 11
736.02124
 21
-585.00909
  0
LINE
  8
0
  6
CONTINUOUS
 62
     7
 10
595.70624
 20
-500.14999
 11
595.70624
 21
-593.84998
  0
LINE
  8
0
  6
CONTINUOUS
 62
     7
 10
595.70624
 20
-500.14999
 11
593.70624
 21
-499.61411
  0
LINE
  8
0
  6
CONTINUOUS
 62
     7
 10
595.7063
 20
-593.85004
 11
593.7063
 21
-594.38593
  0
LINE
  8
0
  6
CONTINUOUS
 62
     7
 10
565.70624
 20
-508.99091
 11
592.70624
 21
-508.99091
  0
LINE
  8
0
  6
CONTINUOUS
 62
     7
 10
565.70624
 20
-585.00909
 11
592.70624
 21
-585.00909
  0
LINE
  8
0
  6
CONTINUOUS
 62
     7
 10
485.70624
 20
-585.00909
 11
458.70624
 21
-585.00909
  0
LINE
  8
0
  6
CONTINUOUS
 62
     7
 10
455.70627
 20
-500.15002
 11
457.70627
 21
-499.61414
  0
LINE
  8
0
  6
CONTINUOUS
 62
     7
 10
492.70624
 20
-491
 11
486.70624
 21
-491
  0
LINE
  8
0
  6
CONTINUOUS
 62
     7
 10
492.70624
 20
-603
 11
486.70624
 21
-603
  0
LINE
  8
0
  6
CONTINUOUS
 62
     7
 10
485.70624
 20
-547
 11
458.70624
 21
-547
  0
LINE
  8
0
  6
CONTINUOUS
 62
     7
 10
457.70624
 20
-487.5
 11
457.70624
 21
-606.5
  0
LINE
  8
0
  6
CONTINUOUS
 62
     7
 10
486.70624
 20
-487.5
 11
486.70624
 21
-606.5
  0
LINE
  8
0
  6
CONTINUOUS
 62
     7
 10
484.70624
 20
-608.5
 11
459.70624
 21
-608.5
  0
LINE
  8
0
  6
CONTINUOUS
 62
     7
 10
484.70624
 20
-485.5
 11
459.70624
 21
-485.5
  0
LINE
  8
0
  6
CONTINUOUS
 62
     7
 10
484.70627
 20
-485.5
 11
486.70627
 21
-487.5
  0
LINE
  8
0
  6
CONTINUOUS
 62
     7
 10
486.70624
 20
-606.5
 11
484.70624
 21
-608.5
  0
LINE
  8
0
  6
CONTINUOUS
 62
     7
 10
459.70624
 20
-608.5
 11
457.70624
 21
-606.5
  0
LINE
  8
0
  6
CONTINUOUS
 62
     7
 10
459.70627
 20
-485.5
 11
457.70624
 21
-487.5
  0
LINE
  8
0
  6
CONTINUOUS
 62
     7
 10
455.7063
 20
-593.84998
 11
457.7063
 21
-594.38593
  0
LINE
  8
0
  6
CONTINUOUS
 62
     7
 10
485.70624
 20
-508.99091
 11
458.70624
 21
-508.99091
  0
LINE
  8
0
  6
CONTINUOUS
 62
     7
 10
455.70624
 20
-500.14999
 11
455.70624
 21
-593.84998
  0
LINE
  8
0
  6
CONTINUOUS
 62
     7
 10
317
 20
-210
 11
317
 21
210
  0
LINE
  8
0
  6
CONTINUOUS
 62
     7
 10
317
 20
210
 11
911
 21
210
  0
LINE
  8
0
  6
CONTINUOUS
 62
     7
 10
911
 20
210
 11
911
 21
-210
  0
LINE
  8
0
  6
CONTINUOUS
 62
     7
 10
911
 20
-210
 11
317
 21
-210
  0
LINE
  8
0
  6
CENTER
 62
     7
 10
336.26334
 20
144.35001
 11
426.74121
 21
144.35001
  0
LINE
  8
0
  6
CONTINUOUS
 62
     7
 10
383.375
 20
145.85001
 11
388.375
 21
145.85001
  0
LINE
  8
0
  6
CONTINUOUS
 62
     7
 10
383.375
 20
142.85001
 11
388.375
 21
142.85001
  0
LINE
  8
0
  6
CONTINUOUS
 62
     7
 10
383.375
 20
145.85001
 11
383.375
 21
142.85001
  0
LINE
  8
0
  6
CONTINUOUS
 62
     7
 10
377.375
 20
145.85001
 11
377.375
 21
142.85001
  0
LINE
  8
0
  6
CONTINUOUS
 62
     7
 10
372.375
 20
145.85001
 11
377.375
 21
145.85001
  0
LINE
  8
0
  6
CONTINUOUS
 62
     7
 10
372.375
 20
142.85001
 11
377.375
 21
142.85001
  0
LINE
  8
0
  6
CONTINUOUS
 62
     7
 10
390.08246
 20
157.7917
 11
384.49969
 21
158.34999
  0
LINE
  8
0
  6
CONTINUOUS
 62
     7
 10
384.375
 20
158.35001
 11
376.375
 21
158.35001
  0
LINE
  8
0
  6
CONTINUOUS
 62
     7
 10
370.66754
 20
157.79172
 11
376.25031
 21
158.34999
  0
LINE
  8
0
  6
CONTINUOUS
 62
     7
 10
384.375
 20
130.35001
 11
376.375
 21
130.35001
  0
LINE
  8
0
  6
CONTINUOUS
 62
     7
 10
370.66757
 20
130.90826
 11
376.25031
 21
130.34999
  0
LINE
  8
0
  6
CONTINUOUS
 62
     7
 10
390.08243
 20
130.90828
 11
384.49969
 21
130.34999
  0
LINE
  8
0
  6
CONTINUOUS
 62
     7
 10
388.375
 20
145.85001
 11
388.375
 21
142.85001
  0
LINE
  8
0
  6
CONTINUOUS
 62
     7
 10
372.375
 20
145.85001
 11
372.375
 21
142.85001
  0
LINE
  8
0
  6
CENTER
 62
     7
 10
380.375
 20
161.50591
 11
380.375
 21
126.15591
  0
LINE
  8
0
  6
CONTINUOUS
 62
     7
 10
359.375
 20
160.35001
 11
365.793
 21
160.35001
  0
LINE
  8
0
  6
CONTINUOUS
 62
     7
 10
401.375
 20
160.35001
 11
394.957
 21
160.35001
  0
LINE
  8
0
  6
CONTINUOUS
 62
     7
 10
359.375
 20
128.35001
 11
365.793
 21
128.35001
  0
LINE
  8
0
  6
CONTINUOUS
 62
     7
 10
401.375
 20
128.35001
 11
394.957
 21
128.35001
  0
LINE
  8
0
  6
CONTINUOUS
 62
     7
 10
365.793
 20
160.35001
 11
365.793
 21
128.35001
  0
LINE
  8
0
  6
CONTINUOUS
 62
     7
 10
394.957
 20
160.35001
 11
394.957
 21
128.35001
  0
LINE
  8
0
  6
CONTINUOUS
 62
     7
 10
416.875
 20
160.85001
 11
416.875
 21
127.85001
  0
LINE
  8
0
  6
CONTINUOUS
 62
     7
 10
401.375
 20
160.85001
 11
401.375
 21
127.85001
  0
LINE
  8
0
  6
CONTINUOUS
 62
     7
 10
403.375
 20
125.85001
 11
414.875
 21
125.85001
  0
LINE
  8
0
  6
CONTINUOUS
 62
     7
 10
403.375
 20
162.85001
 11
414.875
 21
162.85001
  0
LINE
  8
0
  6
CONTINUOUS
 62
     7
 10
481.94891
 20
152.00366
 11
471.12497
 21
162.82759
  0
LINE
  8
0
  6
CONTINUOUS
 62
     7
 10
471.12497
 20
162.82759
 11
455.81763
 21
162.82759
  0
LINE
  8
0
  6
CONTINUOUS
 62
     7
 10
444.99371
 20
152.00368
 11
455.81763
 21
162.82759
  0
LINE
  8
0
  6
CONTINUOUS
 62
     7
 10
444.99371
 20
136.69633
 11
444.99371
 21
152.00366
  0
LINE
  8
0
  6
CONTINUOUS
 62
     7
 10
455.81766
 20
125.87241
 11
444.99371
 21
136.69633
  0
LINE
  8
0
  6
CONTINUOUS
 62
     7
 10
471.125
 20
125.87241
 11
455.81763
 21
125.87241
  0
LINE
  8
0
  6
CONTINUOUS
 62
     7
 10
481.94891
 20
136.69633
 11
471.12497
 21
125.87241
  0
LINE
  8
0
  6
CONTINUOUS
 62
     7
 10
481.94891
 20
152.00366
 11
481.94891
 21
136.69633
  0
LINE
  8
0
  6
CONTINUOUS
 62
     7
 10
401.375
 20
152.00366
 11
416.875
 21
152.00366
  0
LINE
  8
0
  6
CONTINUOUS
 62
     7
 10
401.375
 20
136.69633
 11
416.875
 21
136.69633
  0
LINE
  8
0
  6
CONTINUOUS
 62
     7
 10
403.37503
 20
162.84998
 11
401.37503
 21
160.85001
  0
LINE
  8
0
  6
CONTINUOUS
 62
     7
 10
414.875
 20
162.85001
 11
416.875
 21
160.84999
  0
LINE
  8
0
  6
CONTINUOUS
 62
     7
 10
401.375
 20
127.85002
 11
403.375
 21
125.85001
  0
LINE
  8
0
  6
CONTINUOUS
 62
     7
 10
414.875
 20
125.85001
 11
416.875
 21
127.85001
  0
LINE
  8
0
  6
CONTINUOUS
 62
     7
 10
418.875
 20
154.89999
 11
418.875
 21
133.8
  0
LINE
  8
0
  6
CONTINUOUS
 62
     7
 10
416.87503
 20
155.43588
 11
418.87503
 21
154.89998
  0
LINE
  8
0
  6
CONTINUOUS
 62
     7
 10
416.875
 20
133.26411
 11
418.875
 21
133.80002
  0
LINE
  8
0
  6
CONTINUOUS
 62
     7
 10
343.875
 20
133.26411
 11
341.87497
 21
133.8
  0
LINE
  8
0
  6
CONTINUOUS
 62
     7
 10
343.87497
 20
155.43588
 11
341.87497
 21
154.89999
  0
LINE
  8
0
  6
CONTINUOUS
 62
     7
 10
341.875
 20
154.89999
 11
341.875
 21
133.8
  0
LINE
  8
0
  6
CONTINUOUS
 62
     7
 10
343.875
 20
160.85001
 11
343.875
 21
127.85001
  0
LINE
  8
0
  6
CONTINUOUS
 62
     7
 10
359.375
 20
160.85001
 11
359.375
 21
127.85001
  0
LINE
  8
0
  6
CONTINUOUS
 62
     7
 10
357.375
 20
125.85001
 11
345.875
 21
125.85001
  0
LINE
  8
0
  6
CONTINUOUS
 62
     7
 10
357.375
 20
162.85001
 11
345.875
 21
162.85001
  0
LINE
  8
0
  6
CONTINUOUS
 62
     7
 10
359.375
 20
152.00366
 11
343.875
 21
152.00366
  0
LINE
  8
0
  6
CONTINUOUS
 62
     7
 10
359.375
 20
136.69633
 11
343.875
 21
136.69633
  0
LINE
  8
0
  6
CONTINUOUS
 62
     7
 10
357.375
 20
162.84998
 11
359.375
 21
160.84998
  0
LINE
  8
0
  6
CONTINUOUS
 62
     7
 10
345.875
 20
162.84998
 11
343.875
 21
160.84998
  0
LINE
  8
0
  6
CONTINUOUS
 62
     7
 10
359.375
 20
127.85001
 11
357.375
 21
125.85001
  0
LINE
  8
0
  6
CONTINUOUS
 62
     7
 10
345.875
 20
125.84998
 11
343.875
 21
127.84998
  0
LINE
  8
0
  6
CONTINUOUS
 62
     7
 10
570.7478
 20
146.35001
 11
570.7478
 21
142.35001
  0
LINE
  8
0
  6
CONTINUOUS
 62
     7
 10
564.7478
 20
146.35001
 11
564.7478
 21
142.35001
  0
LINE
  8
0
  6
CONTINUOUS
 62
     7
 10
555.46649
 20
159.69548
 11
563.64795
 21
160.34999
  0
LINE
  8
0
  6
CONTINUOUS
 62
     7
 10
563.64795
 20
160.35001
 11
571.8476
 21
160.35001
  0
LINE
  8
0
  6
CONTINUOUS
 62
     7
 10
580.02905
 20
159.69545
 11
571.84766
 21
160.34998
  0
LINE
  8
0
  6
CONTINUOUS
 62
     7
 10
563.64795
 20
128.35001
 11
571.8476
 21
128.35001
  0
LINE
  8
0
  6
CONTINUOUS
 62
     7
 10
555.46655
 20
129.0045
 11
563.64795
 21
128.34999
  0
LINE
  8
0
  6
CONTINUOUS
 62
     7
 10
580.02911
 20
129.00452
 11
571.8476
 21
128.34999
  0
LINE
  8
0
  6
CONTINUOUS
 62
     7
 10
557.7478
 20
146.35001
 11
557.7478
 21
142.35001
  0
LINE
  8
0
  6
CONTINUOUS
 62
     7
 10
577.7478
 20
146.35001
 11
577.7478
 21
142.35001
  0
LINE
  8
0
  6
CONTINUOUS
 62
     7
 10
570.7478
 20
146.35001
 11
577.7478
 21
146.35001
  0
LINE
  8
0
  6
CONTINUOUS
 62
     7
 10
570.7478
 20
142.35001
 11
577.7478
 21
142.35001
  0
LINE
  8
0
  6
CONTINUOUS
 62
     7
 10
557.7478
 20
142.35001
 11
564.7478
 21
142.35001
  0
LINE
  8
0
  6
CONTINUOUS
 62
     7
 10
557.7478
 20
146.35001
 11
564.7478
 21
146.35001
  0
LINE
  8
0
  6
CENTER
 62
     7
 10
567.7478
 20
164.42036
 11
567.7478
 21
123.08359
  0
LINE
  8
0
  6
CENTER
 62
     7
 10
524.21051
 20
144.35001
 11
617.59064
 21
144.35001
  0
LINE
  8
0
  6
CONTINUOUS
 62
     7
 10
546.2478
 20
162.35001
 11
550.64362
 21
162.35001
  0
LINE
  8
0
  6
CONTINUOUS
 62
     7
 10
546.2478
 20
126.35001
 11
550.64362
 21
126.35001
  0
LINE
  8
0
  6
CONTINUOUS
 62
     7
 10
589.2478
 20
126.35001
 11
584.85193
 21
126.35001
  0
LINE
  8
0
  6
CONTINUOUS
 62
     7
 10
589.2478
 20
162.35001
 11
584.85193
 21
162.35001
  0
LINE
  8
0
  6
CONTINUOUS
 62
     7
 10
550.64362
 20
162.35001
 11
550.64362
 21
126.35001
  0
LINE
  8
0
  6
CONTINUOUS
 62
     7
 10
584.85193
 20
162.35001
 11
584.85193
 21
126.35001
  0
LINE
  8
0
  6
CONTINUOUS
 62
     7
 10
606.7478
 20
163.35001
 11
606.7478
 21
125.35001
  0
LINE
  8
0
  6
CONTINUOUS
 62
     7
 10
591.2478
 20
165.35001
 11
604.7478
 21
165.35001
  0
LINE
  8
0
  6
CONTINUOUS
 62
     7
 10
591.2478
 20
123.35001
 11
604.7478
 21
123.35001
  0
LINE
  8
0
  6
CONTINUOUS
 62
     7
 10
589.2478
 20
163.35001
 11
589.2478
 21
125.35001
  0
LINE
  8
0
  6
CONTINUOUS
 62
     7
 10
683.26031
 20
153.04851
 11
670.9588
 21
165.35002
  0
LINE
  8
0
  6
CONTINUOUS
 62
     7
 10
670.95874
 20
165.35001
 11
653.56177
 21
165.35001
  0
LINE
  8
0
  6
CONTINUOUS
 62
     7
 10
641.26031
 20
153.04851
 11
653.56183
 21
165.35002
  0
LINE
  8
0
  6
CONTINUOUS
 62
     7
 10
641.26025
 20
135.65152
 11
641.26025
 21
153.04848
  0
LINE
  8
0
  6
CONTINUOUS
 62
     7
 10
653.56183
 20
123.35002
 11
641.26031
 21
135.65154
  0
LINE
  8
0
  6
CONTINUOUS
 62
     7
 10
670.95874
 20
123.35001
 11
653.56177
 21
123.35001
  0
LINE
  8
0
  6
CONTINUOUS
 62
     7
 10
683.26031
 20
135.65154
 11
670.9588
 21
123.35002
  0
LINE
  8
0
  6
CONTINUOUS
 62
     7
 10
683.26025
 20
153.04848
 11
683.26025
 21
135.65152
  0
LINE
  8
0
  6
CONTINUOUS
 62
     7
 10
590.2478
 20
153.04848
 11
605.7478
 21
153.04848
  0
LINE
  8
0
  6
CONTINUOUS
 62
     7
 10
590.2478
 20
135.65152
 11
605.7478
 21
135.65152
  0
LINE
  8
0
  6
CONTINUOUS
 62
     7
 10
591.2478
 20
165.35001
 11
589.2478
 21
163.35001
  0
LINE
  8
0
  6
CONTINUOUS
 62
     7
 10
604.7478
 20
165.34999
 11
606.7478
 21
163.34999
  0
LINE
  8
0
  6
CONTINUOUS
 62
     7
 10
606.7478
 20
125.34999
 11
604.7478
 21
123.34999
  0
LINE
  8
0
  6
CONTINUOUS
 62
     7
 10
589.2478
 20
125.35
 11
591.2478
 21
123.35
  0
LINE
  8
0
  6
CONTINUOUS
 62
     7
 10
608.7478
 20
157.10001
 11
608.7478
 21
131.60001
  0
LINE
  8
0
  6
CONTINUOUS
 62
     7
 10
606.74774
 20
157.63589
 11
608.7478
 21
157.09999
  0
LINE
  8
0
  6
CONTINUOUS
 62
     7
 10
606.7478
 20
131.0641
 11
608.7478
 21
131.60001
  0
LINE
  8
0
  6
CONTINUOUS
 62
     7
 10
528.74774
 20
131.06412
 11
526.74774
 21
131.60002
  0
LINE
  8
0
  6
CONTINUOUS
 62
     7
 10
526.7478
 20
157.10001
 11
526.7478
 21
131.60001
  0
LINE
  8
0
  6
CONTINUOUS
 62
     7
 10
528.7478
 20
157.63591
 11
526.7478
 21
157.10001
  0
LINE
  8
0
  6
CONTINUOUS
 62
     7
 10
528.7478
 20
163.35001
 11
528.7478
 21
125.35001
  0
LINE
  8
0
  6
CONTINUOUS
 62
     7
 10
544.2478
 20
165.35001
 11
530.7478
 21
165.35001
  0
LINE
  8
0
  6
CONTINUOUS
 62
     7
 10
544.2478
 20
123.35001
 11
530.7478
 21
123.35001
  0
LINE
  8
0
  6
CONTINUOUS
 62
     7
 10
546.2478
 20
163.35001
 11
546.2478
 21
125.35001
  0
LINE
  8
0
  6
CONTINUOUS
 62
     7
 10
545.2478
 20
153.04848
 11
529.7478
 21
153.04848
  0
LINE
  8
0
  6
CONTINUOUS
 62
     7
 10
545.2478
 20
135.65152
 11
529.7478
 21
135.65152
  0
LINE
  8
0
  6
CONTINUOUS
 62
     7
 10
544.2478
 20
165.34999
 11
546.2478
 21
163.34999
  0
LINE
  8
0
  6
CONTINUOUS
 62
     7
 10
530.74774
 20
165.35002
 11
528.74774
 21
163.35002
  0
LINE
  8
0
  6
CONTINUOUS
 62
     7
 10
528.74774
 20
125.35002
 11
530.74774
 21
123.35002
  0
LINE
  8
0
  6
CONTINUOUS
 62
     7
 10
546.2478
 20
125.35
 11
544.2478
 21
123.35
  0
LINE
  8
0
  6
CONTINUOUS
 62
     7
 10
761.90259
 20
163.84999
 11
751.18329
 21
162.95671
  0
LINE
  8
0
  6
CONTINUOUS
 62
     7
 10
761.90259
 20
163.85001
 11
770.15216
 21
163.85001
  0
LINE
  8
0
  6
CONTINUOUS
 62
     7
 10
761.90259
 20
124.85002
 11
751.18323
 21
125.7433
  0
LINE
  8
0
  6
CONTINUOUS
 62
     7
 10
761.90259
 20
124.85001
 11
770.15216
 21
124.85001
  0
LINE
  8
0
  6
CONTINUOUS
 62
     7
 10
770.15216
 20
124.84999
 11
780.87152
 21
125.74327
  0
LINE
  8
0
  6
CONTINUOUS
 62
     7
 10
770.15216
 20
163.85002
 11
780.87158
 21
162.95674
  0
LINE
  8
0
  6
CONTINUOUS
 62
     7
 10
761.03992
 20
146.35001
 11
761.03992
 21
142.35001
  0
LINE
  8
0
  6
CONTINUOUS
 62
     7
 10
771.01489
 20
146.35001
 11
771.01489
 21
142.35001
  0
LINE
  8
0
  6
CONTINUOUS
 62
     7
 10
755.0274
 20
146.35001
 11
755.0274
 21
142.35001
  0
LINE
  8
0
  6
CONTINUOUS
 62
     7
 10
777.0274
 20
146.35001
 11
777.0274
 21
142.35001
  0
LINE
  8
0
  6
CENTER
 62
     7
 10
766.0274
 20
168.76959
 11
766.0274
 21
119.255
  0
LINE
  8
0
  6
CONTINUOUS
 62
     7
 10
755.0274
 20
146.35001
 11
761.03992
 21
146.35001
  0
LINE
  8
0
  6
CONTINUOUS
 62
     7
 10
755.0274
 20
142.35001
 11
761.03992
 21
142.35001
  0
LINE
  8
0
  6
CONTINUOUS
 62
     7
 10
771.01489
 20
146.35001
 11
777.0274
 21
146.35001
  0
LINE
  8
0
  6
CONTINUOUS
 62
     7
 10
771.01489
 20
142.35001
 11
777.0274
 21
142.35001
  0
LINE
  8
0
  6
CONTINUOUS
 62
     7
 10
742.5274
 20
165.35001
 11
746.49078
 21
165.35001
  0
LINE
  8
0
  6
CONTINUOUS
 62
     7
 10
742.5274
 20
123.35001
 11
746.49078
 21
123.35001
  0
LINE
  8
0
  6
CONTINUOUS
 62
     7
 10
789.5274
 20
123.35001
 11
785.56396
 21
123.35001
  0
LINE
  8
0
  6
CONTINUOUS
 62
     7
 10
789.5274
 20
165.35001
 11
785.56396
 21
165.35001
  0
LINE
  8
0
  6
CENTER
 62
     7
 10
715.8197
 20
144.35001
 11
817.00879
 21
144.35001
  0
LINE
  8
0
  6
CONTINUOUS
 62
     7
 10
746.49078
 20
165.35001
 11
746.49078
 21
123.35001
  0
LINE
  8
0
  6
CONTINUOUS
 62
     7
 10
785.56396
 20
165.35001
 11
785.56396
 21
123.35001
  0
LINE
  8
0
  6
CONTINUOUS
 62
     7
 10
808.0274
 20
166.85001
 11
808.0274
 21
121.85001
  0
LINE
  8
0
  6
CONTINUOUS
 62
     7
 10
789.5274
 20
166.85001
 11
789.5274
 21
121.85001
  0
LINE
  8
0
  6
CONTINUOUS
 62
     7
 10
791.5274
 20
168.85001
 11
806.0274
 21
168.85001
  0
LINE
  8
0
  6
CONTINUOUS
 62
     7
 10
791.5274
 20
119.85001
 11
806.0274
 21
119.85001
  0
LINE
  8
0
  6
CONTINUOUS
 62
     7
 10
789.52734
 20
166.84998
 11
791.52734
 21
168.84998
  0
LINE
  8
0
  6
CONTINUOUS
 62
     7
 10
791.5274
 20
119.84999
 11
789.5274
 21
121.84999
  0
LINE
  8
0
  6
CONTINUOUS
 62
     7
 10
806.0274
 20
168.84998
 11
808.0274
 21
166.84998
  0
LINE
  8
0
  6
CONTINUOUS
 62
     7
 10
808.0274
 20
121.84999
 11
806.0274
 21
119.84999
  0
LINE
  8
0
  6
CONTINUOUS
 62
     7
 10
892.24768
 20
154.49113
 11
877.90601
 21
168.83281
  0
LINE
  8
0
  6
CONTINUOUS
 62
     7
 10
877.90601
 20
168.83281
 11
857.62378
 21
168.83281
  0
LINE
  8
0
  6
CONTINUOUS
 62
     7
 10
843.28204
 20
154.49109
 11
857.62378
 21
168.83279
  0
LINE
  8
0
  6
CONTINUOUS
 62
     7
 10
843.2821
 20
134.20889
 11
843.2821
 21
154.4911
  0
LINE
  8
0
  6
CONTINUOUS
 62
     7
 10
857.62378
 20
119.8672
 11
843.2821
 21
134.20888
  0
LINE
  8
0
  6
CONTINUOUS
 62
     7
 10
877.90601
 20
119.86719
 11
857.62378
 21
119.86719
  0
LINE
  8
0
  6
CONTINUOUS
 62
     7
 10
892.24768
 20
134.20886
 11
877.90601
 21
119.86716
  0
LINE
  8
0
  6
CONTINUOUS
 62
     7
 10
892.24768
 20
154.4911
 11
892.24768
 21
134.20889
  0
LINE
  8
0
  6
CONTINUOUS
 62
     7
 10
790.5274
 20
154.4911
 11
807.0274
 21
154.4911
  0
LINE
  8
0
  6
CONTINUOUS
 62
     7
 10
790.5274
 20
134.20889
 11
807.0274
 21
134.20889
  0
LINE
  8
0
  6
CONTINUOUS
 62
     7
 10
810.0274
 20
159.85001
 11
810.0274
 21
128.85001
  0
LINE
  8
0
  6
CONTINUOUS
 62
     7
 10
808.0274
 20
160.38591
 11
810.0274
 21
159.85002
  0
LINE
  8
0
  6
CONTINUOUS
 62
     7
 10
808.0274
 20
128.3141
 11
810.0274
 21
128.85001
  0
LINE
  8
0
  6
CONTINUOUS
 62
     7
 10
724.0274
 20
160.38589
 11
722.0274
 21
159.84999
  0
LINE
  8
0
  6
CONTINUOUS
 62
     7
 10
724.0274
 20
128.3141
 11
722.02734
 21
128.85001
  0
LINE
  8
0
  6
CONTINUOUS
 62
     7
 10
722.0274
 20
159.85001
 11
722.0274
 21
128.85001
  0
LINE
  8
0
  6
CONTINUOUS
 62
     7
 10
724.0274
 20
166.85001
 11
724.0274
 21
121.85001
  0
LINE
  8
0
  6
CONTINUOUS
 62
     7
 10
742.5274
 20
166.85001
 11
742.5274
 21
121.85001
  0
LINE
  8
0
  6
CONTINUOUS
 62
     7
 10
740.5274
 20
168.85001
 11
726.0274
 21
168.85001
  0
LINE
  8
0
  6
CONTINUOUS
 62
     7
 10
740.5274
 20
119.85001
 11
726.0274
 21
119.85001
  0
LINE
  8
0
  6
CONTINUOUS
 62
     7
 10
742.5274
 20
166.85002
 11
740.5274
 21
168.85001
  0
LINE
  8
0
  6
CONTINUOUS
 62
     7
 10
740.5274
 20
119.85004
 11
742.5274
 21
121.84999
  0
LINE
  8
0
  6
CONTINUOUS
 62
     7
 10
726.0274
 20
168.85001
 11
724.0274
 21
166.84999
  0
LINE
  8
0
  6
CONTINUOUS
 62
     7
 10
724.0274
 20
121.85004
 11
726.0274
 21
119.85004
  0
LINE
  8
0
  6
CONTINUOUS
 62
     7
 10
741.5274
 20
154.4911
 11
725.0274
 21
154.4911
  0
LINE
  8
0
  6
CONTINUOUS
 62
     7
 10
741.5274
 20
134.20889
 11
725.0274
 21
134.20889
  0
LINE
  8
0
  6
CONTINUOUS
 62
     7
 10
425.38751
 20
29.364449
 11
425.38751
 21
24.364449
  0
LINE
  8
0
  6
CONTINUOUS
 62
     7
 10
435.36249
 20
29.364449
 11
435.36249
 21
24.364449
  0
LINE
  8
0
  6
CONTINUOUS
 62
     7
 10
419.375
 20
29.364449
 11
419.375
 21
24.364449
  0
LINE
  8
0
  6
CONTINUOUS
 62
     7
 10
441.375
 20
29.364449
 11
441.375
 21
24.364449
  0
LINE
  8
0
  6
CONTINUOUS
 62
     7
 10
435.36249
 20
29.364449
 11
441.375
 21
29.364449
  0
LINE
  8
0
  6
CONTINUOUS
 62
     7
 10
435.36249
 20
24.364449
 11
441.375
 21
24.364449
  0
LINE
  8
0
  6
CONTINUOUS
 62
     7
 10
419.375
 20
29.364449
 11
425.38751
 21
29.364449
  0
LINE
  8
0
  6
CONTINUOUS
 62
     7
 10
419.375
 20
24.364449
 11
425.38751
 21
24.364449
  0
LINE
  8
0
  6
CONTINUOUS
 62
     7
 10
413.12015
 20
48.925312
 11
426.16125
 21
49.856819
  0
LINE
  8
0
  6
CONTINUOUS
 62
     7
 10
426.26801
 20
49.864449
 11
434.48199
 21
49.864449
  0
LINE
  8
0
  6
CONTINUOUS
 62
     7
 10
413.12012
 20
4.8035851
 11
426.16129
 21
3.8720748
  0
LINE
  8
0
  6
CONTINUOUS
 62
     7
 10
426.26801
 20
3.8644447
 11
434.48199
 21
3.8644447
  0
LINE
  8
0
  6
CONTINUOUS
 62
     7
 10
447.62988
 20
48.925308
 11
434.58875
 21
49.856819
  0
LINE
  8
0
  6
CONTINUOUS
 62
     7
 10
447.62985
 20
4.8035841
 11
434.58875
 21
3.872076
  0
LINE
  8
0
  6
CENTER
 62
     7
 10
430.375
 20
59.111183
 11
430.375
 21
-0.10755539
  0
LINE
  8
0
  6
CONTINUOUS
 62
     7
 10
404.375
 20
51.864449
 11
408.20264
 21
51.864449
  0
LINE
  8
0
  6
CONTINUOUS
 62
     7
 10
404.375
 20
1.8644447
 11
408.20264
 21
1.8644447
  0
LINE
  8
0
  6
CONTINUOUS
 62
     7
 10
456.375
 20
51.864449
 11
452.54736
 21
51.864449
  0
LINE
  8
0
  6
CONTINUOUS
 62
     7
 10
456.375
 20
1.8644447
 11
452.54736
 21
1.8644447
  0
LINE
  8
0
  6
CENTER
 62
     7
 10
380.29114
 20
26.864449
 11
486.72244
 21
26.864449
  0
LINE
  8
0
  6
CONTINUOUS
 62
     7
 10
408.20264
 20
51.864449
 11
408.20264
 21
1.8644447
  0
LINE
  8
0
  6
CONTINUOUS
 62
     7
 10
452.54736
 20
51.864449
 11
452.54736
 21
1.8644447
  0
LINE
  8
0
  6
CONTINUOUS
 62
     7
 10
474.875
 20
53.864449
 11
474.875
 21
-0.13555527
  0
LINE
  8
0
  6
CONTINUOUS
 62
     7
 10
456.375
 20
53.864449
 11
456.375
 21
-0.13555527
  0
LINE
  8
0
  6
CONTINUOUS
 62
     7
 10
458.375
 20
-2.1355553
 11
472.875
 21
-2.1355553
  0
LINE
  8
0
  6
CONTINUOUS
 62
     7
 10
458.375
 20
55.864449
 11
472.875
 21
55.864449
  0
LINE
  8
0
  6
CONTINUOUS
 62
     7
 10
456.37503
 20
53.864437
 11
458.37503
 21
55.864437
  0
LINE
  8
0
  6
CONTINUOUS
 62
     7
 10
472.87503
 20
55.864437
 11
474.875
 21
53.864456
  0
LINE
  8
0
  6
CONTINUOUS
 62
     7
 10
456.37503
 20
-0.13556279
 11
458.37503
 21
-2.1355648
  0
LINE
  8
0
  6
CONTINUOUS
 62
     7
 10
472.875
 20
-2.1355643
 11
474.875
 21
-0.13556202
  0
LINE
  8
0
  6
CONTINUOUS
 62
     7
 10
564.375
 20
38.876629
 11
547.38721
 21
55.864456
  0
LINE
  8
0
  6
CONTINUOUS
 62
     7
 10
547.38721
 20
55.864449
 11
523.36279
 21
55.864449
  0
LINE
  8
0
  6
CONTINUOUS
 62
     7
 10
506.375
 20
38.876629
 11
523.36279
 21
55.864456
  0
LINE
  8
0
  6
CONTINUOUS
 62
     7
 10
506.375
 20
14.852249
 11
506.375
 21
38.87664
  0
LINE
  8
0
  6
CONTINUOUS
 62
     7
 10
523.36279
 20
-2.1355627
 11
506.375
 21
14.852263
  0
LINE
  8
0
  6
CONTINUOUS
 62
     7
 10
547.38721
 20
-2.1355553
 11
523.36279
 21
-2.1355553
  0
LINE
  8
0
  6
CONTINUOUS
 62
     7
 10
564.375
 20
14.852263
 11
547.38721
 21
-2.1355627
  0
LINE
  8
0
  6
CONTINUOUS
 62
     7
 10
564.375
 20
38.87664
 11
564.375
 21
14.852249
  0
LINE
  8
0
  6
CONTINUOUS
 62
     7
 10
457.375
 20
38.87664
 11
473.875
 21
38.87664
  0
LINE
  8
0
  6
CONTINUOUS
 62
     7
 10
457.375
 20
14.852249
 11
473.875
 21
14.852249
  0
LINE
  8
0
  6
CONTINUOUS
 62
     7
 10
476.875
 20
45.764442
 11
476.875
 21
7.964447
  0
LINE
  8
0
  6
CONTINUOUS
 62
     7
 10
476.875
 20
45.76445
 11
474.875
 21
46.30035
  0
LINE
  8
0
  6
CONTINUOUS
 62
     7
 10
476.875
 20
7.9644446
 11
474.875
 21
7.428545
  0
LINE
  8
0
  6
CONTINUOUS
 62
     7
 10
383.875
 20
7.9644456
 11
385.875
 21
7.428546
  0
LINE
  8
0
  6
CONTINUOUS
 62
     7
 10
383.875
 20
45.76445
 11
385.875
 21
46.300346
  0
LINE
  8
0
  6
CONTINUOUS
 62
     7
 10
385.875
 20
53.864449
 11
385.875
 21
-0.13555527
  0
LINE
  8
0
  6
CONTINUOUS
 62
     7
 10
404.375
 20
53.864449
 11
404.375
 21
-0.13555527
  0
LINE
  8
0
  6
CONTINUOUS
 62
     7
 10
402.375
 20
-2.1355553
 11
387.875
 21
-2.1355553
  0
LINE
  8
0
  6
CONTINUOUS
 62
     7
 10
402.375
 20
55.864449
 11
387.875
 21
55.864449
  0
LINE
  8
0
  6
CONTINUOUS
 62
     7
 10
404.375
 20
53.864441
 11
402.375
 21
55.864441
  0
LINE
  8
0
  6
CONTINUOUS
 62
     7
 10
387.875
 20
55.864441
 11
385.875
 21
53.864437
  0
LINE
  8
0
  6
CONTINUOUS
 62
     7
 10
404.375
 20
-0.13555591
 11
402.37497
 21
-2.1355579
  0
LINE
  8
0
  6
CONTINUOUS
 62
     7
 10
387.87497
 20
-2.1355574
 11
385.87497
 21
-0.13555513
  0
LINE
  8
0
  6
CONTINUOUS
 62
     7
 10
403.375
 20
38.87664
 11
386.875
 21
38.87664
  0
LINE
  8
0
  6
CONTINUOUS
 62
     7
 10
403.375
 20
14.852249
 11
386.875
 21
14.852249
  0
LINE
  8
0
  6
CONTINUOUS
 62
     7
 10
383.875
 20
45.764442
 11
383.875
 21
7.964447
  0
LINE
  8
0
  6
CENTER
 62
     7
 10
682.26025
 20
61.350807
 11
682.26025
 21
-8.4741898
  0
LINE
  8
0
  6
CENTER
 62
     7
 10
625.97272
 20
26.864449
 11
742.22699
 21
26.864449
  0
LINE
  8
0
  6
CONTINUOUS
 62
     7
 10
653.76025
 20
55.864449
 11
657.26025
 21
55.864449
  0
LINE
  8
0
  6
CONTINUOUS
 62
     7
 10
661.72455
 20
53.636375
 11
678.15619
 21
54.614449
  0
LINE
  8
0
  6
CONTINUOUS
 62
     7
 10
678.26025
 20
54.614449
 11
686.36438
 21
54.614449
  0
LINE
  8
0
  6
CONTINUOUS
 62
     7
 10
710.76025
 20
55.864449
 11
707.26025
 21
55.864449
  0
LINE
  8
0
  6
CONTINUOUS
 62
     7
 10
702.79602
 20
53.636364
 11
686.36438
 21
54.614437
  0
LINE
  8
0
  6
CONTINUOUS
 62
     7
 10
653.76025
 20
-2.1355553
 11
657.26025
 21
-2.1355553
  0
LINE
  8
0
  6
CONTINUOUS
 62
     7
 10
661.72455
 20
0.092519678
 11
678.15619
 21
-0.88555598
  0
LINE
  8
0
  6
CONTINUOUS
 62
     7
 10
678.26025
 20
-0.88555527
 11
686.36438
 21
-0.88555527
  0
LINE
  8
0
  6
CONTINUOUS
 62
     7
 10
702.79602
 20
0.092518471
 11
686.36438
 21
-0.8855536
  0
LINE
  8
0
  6
CONTINUOUS
 62
     7
 10
710.76025
 20
-2.1355553
 11
707.26025
 21
-2.1355553
  0
LINE
  8
0
  6
CONTINUOUS
 62
     7
 10
657.26025
 20
55.864449
 11
657.26025
 21
-2.1355553
  0
LINE
  8
0
  6
CONTINUOUS
 62
     7
 10
707.26025
 20
-2.1355553
 11
707.26025
 21
55.864449
  0
LINE
  8
0
  6
CONTINUOUS
 62
     7
 10
675.26025
 20
29.364449
 11
675.26025
 21
24.364449
  0
LINE
  8
0
  6
CONTINUOUS
 62
     7
 10
689.26025
 20
29.364449
 11
689.26025
 21
24.364449
  0
LINE
  8
0
  6
CONTINUOUS
 62
     7
 10
668.26025
 20
24.364449
 11
675.26025
 21
24.364449
  0
LINE
  8
0
  6
CONTINUOUS
 62
     7
 10
668.26025
 20
29.364449
 11
675.26025
 21
29.364449
  0
LINE
  8
0
  6
CONTINUOUS
 62
     7
 10
668.26025
 20
29.364449
 11
668.26025
 21
24.364449
  0
LINE
  8
0
  6
CONTINUOUS
 62
     7
 10
696.26025
 20
29.364449
 11
696.26025
 21
24.364449
  0
LINE
  8
0
  6
CONTINUOUS
 62
     7
 10
689.26025
 20
29.364449
 11
696.26025
 21
29.364449
  0
LINE
  8
0
  6
CONTINUOUS
 62
     7
 10
689.26025
 20
24.364449
 11
696.26025
 21
24.364449
  0
LINE
  8
0
  6
CONTINUOUS
 62
     7
 10
729.76025
 20
57.864449
 11
729.76025
 21
-4.1355553
  0
LINE
  8
0
  6
CONTINUOUS
 62
     7
 10
710.76025
 20
57.864449
 11
710.76025
 21
-4.1355553
  0
LINE
  8
0
  6
CONTINUOUS
 62
     7
 10
731.76025
 20
50.214447
 11
731.76025
 21
3.5144463
  0
LINE
  8
0
  6
CONTINUOUS
 62
     7
 10
712.76025
 20
59.864449
 11
727.76025
 21
59.864449
  0
LINE
  8
0
  6
CONTINUOUS
 62
     7
 10
712.76025
 20
-6.1355553
 11
727.76025
 21
-6.1355553
  0
LINE
  8
0
  6
CONTINUOUS
 62
     7
 10
710.76025
 20
57.864429
 11
712.76025
 21
59.864429
  0
LINE
  8
0
  6
CONTINUOUS
 62
     7
 10
727.76025
 20
59.86441
 11
729.76025
 21
57.864407
  0
LINE
  8
0
  6
CONTINUOUS
 62
     7
 10
729.76025
 20
-4.1355524
 11
727.76031
 21
-6.1355329
  0
LINE
  8
0
  6
CONTINUOUS
 62
     7
 10
710.76031
 20
-4.1355562
 11
712.76031
 21
-6.1355586
  0
LINE
  8
0
  6
CONTINUOUS
 62
     7
 10
823.26031
 20
40.533482
 11
803.92932
 21
59.86446
  0
LINE
  8
0
  6
CONTINUOUS
 62
     7
 10
803.92932
 20
59.864449
 11
776.59125
 21
59.864449
  0
LINE
  8
0
  6
CONTINUOUS
 62
     7
 10
757.26025
 20
40.533482
 11
776.59125
 21
59.86446
  0
LINE
  8
0
  6
CONTINUOUS
 62
     7
 10
757.26025
 20
13.1954
 11
757.26025
 21
40.533493
  0
LINE
  8
0
  6
CONTINUOUS
 62
     7
 10
776.59125
 20
-6.1355667
 11
757.26025
 21
13.195414
  0
LINE
  8
0
  6
CONTINUOUS
 62
     7
 10
803.92932
 20
-6.1355553
 11
776.59125
 21
-6.1355553
  0
LINE
  8
0
  6
CONTINUOUS
 62
     7
 10
823.26031
 20
13.195414
 11
803.92932
 21
-6.1355667
  0
LINE
  8
0
  6
CONTINUOUS
 62
     7
 10
823.26025
 20
40.533493
 11
823.26025
 21
13.1954
  0
LINE
  8
0
  6
CONTINUOUS
 62
     7
 10
711.76025
 20
40.533493
 11
728.76025
 21
40.533493
  0
LINE
  8
0
  6
CONTINUOUS
 62
     7
 10
711.76025
 20
13.1954
 11
728.76025
 21
13.1954
  0
LINE
  8
0
  6
CONTINUOUS
 62
     7
 10
731.76031
 20
50.214439
 11
729.76031
 21
50.75034
  0
LINE
  8
0
  6
CONTINUOUS
 62
     7
 10
731.76031
 20
3.514446
 11
729.76031
 21
2.9785464
  0
LINE
  8
0
  6
CONTINUOUS
 62
     7
 10
632.76031
 20
3.5144472
 11
634.76031
 21
2.9785478
  0
LINE
  8
0
  6
CONTINUOUS
 62
     7
 10
632.76031
 20
50.214455
 11
634.76031
 21
50.750355
  0
LINE
  8
0
  6
CONTINUOUS
 62
     7
 10
652.76025
 20
13.1954
 11
635.76025
 21
13.1954
  0
LINE
  8
0
  6
CONTINUOUS
 62
     7
 10
634.76025
 20
57.864449
 11
634.76025
 21
-4.1355553
  0
LINE
  8
0
  6
CONTINUOUS
 62
     7
 10
653.76025
 20
57.864449
 11
653.76025
 21
-4.1355553
  0
LINE
  8
0
  6
CONTINUOUS
 62
     7
 10
632.76025
 20
50.214447
 11
632.76025
 21
3.5144463
  0
LINE
  8
0
  6
CONTINUOUS
 62
     7
 10
651.76025
 20
59.864449
 11
636.76025
 21
59.864449
  0
LINE
  8
0
  6
CONTINUOUS
 62
     7
 10
651.76025
 20
-6.1355553
 11
636.76025
 21
-6.1355553
  0
LINE
  8
0
  6
CONTINUOUS
 62
     7
 10
653.76025
 20
57.864445
 11
651.76025
 21
59.864445
  0
LINE
  8
0
  6
CONTINUOUS
 62
     7
 10
636.76025
 20
59.864445
 11
634.76025
 21
57.864441
  0
LINE
  8
0
  6
CONTINUOUS
 62
     7
 10
634.76031
 20
-4.1355596
 11
636.76025
 21
-6.13554
  0
LINE
  8
0
  6
CONTINUOUS
 62
     7
 10
653.76025
 20
-4.1355491
 11
651.76025
 21
-6.1355515
  0
LINE
  8
0
  6
CONTINUOUS
 62
     7
 10
652.76025
 20
40.533493
 11
635.76025
 21
40.533493
  0
LINE
  8
0
  6
CENTER
 62
     7
 10
410.375
 20
-70.644501
 11
410.375
 21
-147
  0
LINE
  8
0
  6
CENTER
 62
     7
 10
350.40143
 20
-106.88996
 11
471.14288
 21
-106.88996
  0
LINE
  8
0
  6
CONTINUOUS
 62
     7
 10
381.875
 20
-74.389961
 11
384.875
 21
-74.389961
  0
LINE
  8
0
  6
CONTINUOUS
 62
     7
 10
384.875
 20
-74.389961
 11
384.875
 21
-139.38995
  0
LINE
  8
0
  6
CONTINUOUS
 62
     7
 10
389.64728
 20
-77.0485
 11
406.25308
 21
-75.889954
  0
LINE
  8
0
  6
CONTINUOUS
 62
     7
 10
406.25305
 20
-75.889961
 11
414.49695
 21
-75.889961
  0
LINE
  8
0
  6
CONTINUOUS
 62
     7
 10
431.10275
 20
-77.0485
 11
414.49695
 21
-75.889954
  0
LINE
  8
0
  6
CONTINUOUS
 62
     7
 10
438.875
 20
-74.389961
 11
435.875
 21
-74.389961
  0
LINE
  8
0
  6
CONTINUOUS
 62
     7
 10
435.875
 20
-74.389961
 11
435.875
 21
-139.38995
  0
LINE
  8
0
  6
CONTINUOUS
 62
     7
 10
381.875
 20
-139.38995
 11
384.875
 21
-139.38995
  0
LINE
  8
0
  6
CONTINUOUS
 62
     7
 10
389.64728
 20
-136.73141
 11
406.25305
 21
-137.88995
  0
LINE
  8
0
  6
CONTINUOUS
 62
     7
 10
406.25305
 20
-137.88995
 11
414.49695
 21
-137.88995
  0
LINE
  8
0
  6
CONTINUOUS
 62
     7
 10
431.10275
 20
-136.73141
 11
414.49695
 21
-137.88995
  0
LINE
  8
0
  6
CONTINUOUS
 62
     7
 10
438.875
 20
-139.38995
 11
435.875
 21
-139.38995
  0
LINE
  8
0
  6
CONTINUOUS
 62
     7
 10
395.375
 20
-104.38996
 11
403.375
 21
-104.38996
  0
LINE
  8
0
  6
CONTINUOUS
 62
     7
 10
395.375
 20
-109.38996
 11
403.375
 21
-109.38996
  0
LINE
  8
0
  6
CONTINUOUS
 62
     7
 10
417.375
 20
-104.38996
 11
417.375
 21
-109.38996
  0
LINE
  8
0
  6
CONTINUOUS
 62
     7
 10
403.375
 20
-104.38996
 11
403.375
 21
-109.38996
  0
LINE
  8
0
  6
CONTINUOUS
 62
     7
 10
395.375
 20
-104.38996
 11
395.375
 21
-109.38996
  0
LINE
  8
0
  6
CONTINUOUS
 62
     7
 10
425.375
 20
-104.38996
 11
425.375
 21
-109.38996
  0
LINE
  8
0
  6
CONTINUOUS
 62
     7
 10
417.375
 20
-104.38996
 11
425.375
 21
-104.38996
  0
LINE
  8
0
  6
CONTINUOUS
 62
     7
 10
417.375
 20
-109.38996
 11
425.375
 21
-109.38996
  0
LINE
  8
0
  6
CONTINUOUS
 62
     7
 10
460.875
 20
-72.389961
 11
460.875
 21
-141.38995
  0
LINE
  8
0
  6
CONTINUOUS
 62
     7
 10
439.875
 20
-106.88996
 11
459.875
 21
-106.88996
  0
LINE
  8
0
  6
CONTINUOUS
 62
     7
 10
438.875
 20
-72.389961
 11
438.875
 21
-141.38995
  0
LINE
  8
0
  6
CONTINUOUS
 62
     7
 10
440.875
 20
-70.389961
 11
458.875
 21
-70.389961
  0
LINE
  8
0
  6
CONTINUOUS
 62
     7
 10
440.875
 20
-143.38995
 11
458.875
 21
-143.38995
  0
LINE
  8
0
  6
CONTINUOUS
 62
     7
 10
462.875
 20
-80.439957
 11
462.875
 21
-133.33997
  0
LINE
  8
0
  6
CONTINUOUS
 62
     7
 10
569.75336
 20
-106.88995
 11
562.42377
 21
-84.331718
  0
LINE
  8
0
  6
CONTINUOUS
 62
     7
 10
562.42377
 20
-84.331726
 11
543.23456
 21
-70.389961
  0
LINE
  8
0
  6
CONTINUOUS
 62
     7
 10
519.51544
 20
-70.389961
 11
543.23456
 21
-70.389961
  0
LINE
  8
0
  6
CONTINUOUS
 62
     7
 10
500.32623
 20
-84.331726
 11
519.51544
 21
-70.389961
  0
LINE
  8
0
  6
CONTINUOUS
 62
     7
 10
492.99661
 20
-106.88996
 11
500.32623
 21
-84.331718
  0
LINE
  8
0
  6
CONTINUOUS
 62
     7
 10
500.32626
 20
-129.4482
 11
492.99664
 21
-106.88996
  0
LINE
  8
0
  6
CONTINUOUS
 62
     7
 10
519.51544
 20
-143.38995
 11
500.32623
 21
-129.44818
  0
LINE
  8
0
  6
CONTINUOUS
 62
     7
 10
543.23456
 20
-143.38995
 11
519.51544
 21
-143.38995
  0
LINE
  8
0
  6
CONTINUOUS
 62
     7
 10
562.42377
 20
-129.4482
 11
543.23456
 21
-143.38997
  0
LINE
  8
0
  6
CONTINUOUS
 62
     7
 10
569.75342
 20
-106.88997
 11
562.42377
 21
-129.44821
  0
LINE
  8
0
  6
CONTINUOUS
 62
     7
 10
439.875
 20
-84.331718
 11
459.875
 21
-84.331718
  0
LINE
  8
0
  6
CONTINUOUS
 62
     7
 10
439.875
 20
-129.4482
 11
459.875
 21
-129.4482
  0
LINE
  8
0
  6
CONTINUOUS
 62
     7
 10
438.875
 20
-72.389969
 11
440.875
 21
-70.389969
  0
LINE
  8
0
  6
CONTINUOUS
 62
     7
 10
458.875
 20
-70.389946
 11
460.875
 21
-72.389946
  0
LINE
  8
0
  6
CONTINUOUS
 62
     7
 10
438.875
 20
-141.38997
 11
440.875
 21
-143.38997
  0
LINE
  8
0
  6
CONTINUOUS
 62
     7
 10
460.87503
 20
-141.38994
 11
458.87503
 21
-143.38995
  0
LINE
  8
0
  6
CONTINUOUS
 62
     7
 10
462.875
 20
-80.439957
 11
460.875
 21
-79.90406
  0
LINE
  8
0
  6
CONTINUOUS
 62
     7
 10
462.875
 20
-133.33997
 11
460.87497
 21
-133.87587
  0
LINE
  8
0
  6
CONTINUOUS
 62
     7
 10
357.87503
 20
-133.33997
 11
359.875
 21
-133.87585
  0
LINE
  8
0
  6
CONTINUOUS
 62
     7
 10
359.875
 20
-141.38998
 11
361.875
 21
-143.38998
  0
LINE
  8
0
  6
CONTINUOUS
 62
     7
 10
357.87503
 20
-80.439949
 11
359.87503
 21
-79.904053
  0
LINE
  8
0
  6
CONTINUOUS
 62
     7
 10
359.875
 20
-72.389961
 11
359.875
 21
-141.38995
  0
LINE
  8
0
  6
CONTINUOUS
 62
     7
 10
380.875
 20
-106.88996
 11
360.875
 21
-106.88996
  0
LINE
  8
0
  6
CONTINUOUS
 62
     7
 10
381.875
 20
-72.389961
 11
381.875
 21
-141.38995
  0
LINE
  8
0
  6
CONTINUOUS
 62
     7
 10
379.875
 20
-70.389961
 11
361.875
 21
-70.389961
  0
LINE
  8
0
  6
CONTINUOUS
 62
     7
 10
379.875
 20
-143.38995
 11
361.875
 21
-143.38995
  0
LINE
  8
0
  6
CONTINUOUS
 62
     7
 10
357.875
 20
-80.439957
 11
357.875
 21
-133.33997
  0
LINE
  8
0
  6
CONTINUOUS
 62
     7
 10
380.875
 20
-84.331718
 11
360.875
 21
-84.331718
  0
LINE
  8
0
  6
CONTINUOUS
 62
     7
 10
380.875
 20
-129.4482
 11
360.875
 21
-129.4482
  0
LINE
  8
0
  6
CONTINUOUS
 62
     7
 10
381.875
 20
-72.389969
 11
379.87497
 21
-70.389961
  0
LINE
  8
0
  6
CONTINUOUS
 62
     7
 10
361.87497
 20
-70.389954
 11
359.87497
 21
-72.389954
  0
LINE
  8
0
  6
CONTINUOUS
 62
     7
 10
381.875
 20
-141.38994
 11
379.875
 21
-143.38994
  0
LINE
  8
0
  6
CENTER
 62
     7
 10
619.77502
 20
-106.88996
 11
759.3645
 21
-106.88996
  0
LINE
  8
0
  6
CENTER
 62
     7
 10
690.125
 20
-59.639961
 11
690.125
 21
-154.83997
  0
LINE
  8
0
  6
CONTINUOUS
 62
     7
 10
659.625
 20
-67.889961
 11
662.125
 21
-67.889961
  0
LINE
  8
0
  6
CONTINUOUS
 62
     7
 10
662.125
 20
-67.889961
 11
662.125
 21
-145.88995
  0
LINE
  8
0
  6
CONTINUOUS
 62
     7
 10
686.00012
 20
-69.389961
 11
694.24988
 21
-69.389961
  0
LINE
  8
0
  6
CONTINUOUS
 62
     7
 10
666.87897
 20
-70.58503
 11
685.87549
 21
-69.397751
  0
LINE
  8
0
  6
CONTINUOUS
 62
     7
 10
720.625
 20
-67.889961
 11
718.125
 21
-67.889961
  0
LINE
  8
0
  6
CONTINUOUS
 62
     7
 10
713.37103
 20
-70.58503
 11
694.37451
 21
-69.397751
  0
LINE
  8
0
  6
CONTINUOUS
 62
     7
 10
659.625
 20
-145.88995
 11
662.125
 21
-145.88995
  0
LINE
  8
0
  6
CONTINUOUS
 62
     7
 10
666.87897
 20
-143.19489
 11
685.87555
 21
-144.38217
  0
LINE
  8
0
  6
CONTINUOUS
 62
     7
 10
686.00012
 20
-144.38995
 11
694.24988
 21
-144.38995
  0
LINE
  8
0
  6
CONTINUOUS
 62
     7
 10
713.37103
 20
-143.19489
 11
694.37457
 21
-144.38217
  0
LINE
  8
0
  6
CONTINUOUS
 62
     7
 10
720.625
 20
-145.88995
 11
718.125
 21
-145.88995
  0
LINE
  8
0
  6
CONTINUOUS
 62
     7
 10
718.125
 20
-67.889961
 11
718.125
 21
-145.88995
  0
LINE
  8
0
  6
CONTINUOUS
 62
     7
 10
675.125
 20
-104.38996
 11
683.125
 21
-104.38996
  0
LINE
  8
0
  6
CONTINUOUS
 62
     7
 10
675.125
 20
-109.38996
 11
683.125
 21
-109.38996
  0
LINE
  8
0
  6
CONTINUOUS
 62
     7
 10
675.125
 20
-104.38996
 11
675.125
 21
-109.38996
  0
LINE
  8
0
  6
CONTINUOUS
 62
     7
 10
705.125
 20
-104.38996
 11
705.125
 21
-109.38996
  0
LINE
  8
0
  6
CONTINUOUS
 62
     7
 10
683.125
 20
-104.38996
 11
683.125
 21
-109.38996
  0
LINE
  8
0
  6
CONTINUOUS
 62
     7
 10
697.125
 20
-104.38996
 11
697.125
 21
-109.38996
  0
LINE
  8
0
  6
CONTINUOUS
 62
     7
 10
697.125
 20
-104.38996
 11
705.125
 21
-104.38996
  0
LINE
  8
0
  6
CONTINUOUS
 62
     7
 10
697.125
 20
-109.38996
 11
705.125
 21
-109.38996
  0
LINE
  8
0
  6
CONTINUOUS
 62
     7
 10
744.125
 20
-65.389961
 11
744.125
 21
-148.38995
  0
LINE
  8
0
  6
CONTINUOUS
 62
     7
 10
721.625
 20
-106.88996
 11
743.125
 21
-106.88996
  0
LINE
  8
0
  6
CONTINUOUS
 62
     7
 10
720.625
 20
-65.389961
 11
720.625
 21
-148.38995
  0
LINE
  8
0
  6
CONTINUOUS
 62
     7
 10
722.625
 20
-63.389961
 11
742.125
 21
-63.389961
  0
LINE
  8
0
  6
CONTINUOUS
 62
     7
 10
722.625
 20
-150.38995
 11
742.125
 21
-150.38995
  0
LINE
  8
0
  6
CONTINUOUS
 62
     7
 10
720.625
 20
-65.389969
 11
722.625
 21
-63.389969
  0
LINE
  8
0
  6
CONTINUOUS
 62
     7
 10
742.125
 20
-63.389969
 11
744.125
 21
-65.389969
  0
LINE
  8
0
  6
CONTINUOUS
 62
     7
 10
720.625
 20
-148.38995
 11
722.625
 21
-150.38995
  0
LINE
  8
0
  6
CONTINUOUS
 62
     7
 10
742.125
 20
-150.38995
 11
744.125
 21
-148.38995
  0
LINE
  8
0
  6
CONTINUOUS
 62
     7
 10
746.125
 20
-74.439957
 11
746.125
 21
-139.33997
  0
LINE
  8
0
  6
CONTINUOUS
 62
     7
 10
871.86365
 20
-106.88996
 11
863.1283
 21
-80.005463
  0
LINE
  8
0
  6
CONTINUOUS
 62
     7
 10
863.1283
 20
-80.00547
 11
840.25903
 21
-63.389954
  0
LINE
  8
0
  6
CONTINUOUS
 62
     7
 10
811.99097
 20
-63.389961
 11
840.25903
 21
-63.389961
  0
LINE
  8
0
  6
CONTINUOUS
 62
     7
 10
789.1217
 20
-80.00547
 11
811.99103
 21
-63.38995
  0
LINE
  8
0
  6
CONTINUOUS
 62
     7
 10
780.38641
 20
-106.88997
 11
789.1217
 21
-80.005486
  0
LINE
  8
0
  6
CONTINUOUS
 62
     7
 10
789.1217
 20
-133.77444
 11
780.38641
 21
-106.88994
  0
LINE
  8
0
  6
CONTINUOUS
 62
     7
 10
811.99097
 20
-150.38997
 11
789.1217
 21
-133.77446
  0
LINE
  8
0
  6
CONTINUOUS
 62
     7
 10
840.25903
 20
-150.38995
 11
811.99097
 21
-150.38995
  0
LINE
  8
0
  6
CONTINUOUS
 62
     7
 10
863.1283
 20
-133.77443
 11
840.25903
 21
-150.38995
  0
LINE
  8
0
  6
CONTINUOUS
 62
     7
 10
871.86365
 20
-106.88997
 11
863.12836
 21
-133.77444
  0
LINE
  8
0
  6
CONTINUOUS
 62
     7
 10
743.125
 20
-80.005486
 11
721.625
 21
-80.005486
  0
LINE
  8
0
  6
CONTINUOUS
 62
     7
 10
743.125
 20
-133.77444
 11
721.625
 21
-133.77444
  0
LINE
  8
0
  6
CONTINUOUS
 62
     7
 10
746.125
 20
-74.439964
 11
744.125
 21
-73.904068
  0
LINE
  8
0
  6
CONTINUOUS
 62
     7
 10
746.125
 20
-139.33997
 11
744.125
 21
-139.87585
  0
LINE
  8
0
  6
CONTINUOUS
 62
     7
 10
634.125
 20
-139.33997
 11
636.125
 21
-139.87585
  0
LINE
  8
0
  6
CONTINUOUS
 62
     7
 10
634.125
 20
-74.439972
 11
636.125
 21
-73.904068
  0
LINE
  8
0
  6
CONTINUOUS
 62
     7
 10
637.125
 20
-133.77444
 11
658.625
 21
-133.77444
  0
LINE
  8
0
  6
CONTINUOUS
 62
     7
 10
636.125
 20
-65.389961
 11
636.125
 21
-148.38995
  0
LINE
  8
0
  6
CONTINUOUS
 62
     7
 10
658.625
 20
-106.88996
 11
637.125
 21
-106.88996
  0
LINE
  8
0
  6
CONTINUOUS
 62
     7
 10
659.625
 20
-65.389961
 11
659.625
 21
-148.38995
  0
LINE
  8
0
  6
CONTINUOUS
 62
     7
 10
657.625
 20
-63.389961
 11
638.125
 21
-63.389961
  0
LINE
  8
0
  6
CONTINUOUS
 62
     7
 10
657.625
 20
-150.38995
 11
638.125
 21
-150.38995
  0
LINE
  8
0
  6
CONTINUOUS
 62
     7
 10
659.625
 20
-65.389977
 11
657.625
 21
-63.389977
  0
LINE
  8
0
  6
CONTINUOUS
 62
     7
 10
638.125
 20
-63.389977
 11
636.125
 21
-65.389977
  0
LINE
  8
0
  6
CONTINUOUS
 62
     7
 10
659.625
 20
-148.38995
 11
657.625
 21
-150.38995
  0
LINE
  8
0
  6
CONTINUOUS
 62
     7
 10
638.12494
 20
-150.38992
 11
636.12494
 21
-148.38992
  0
LINE
  8
0
  6
CONTINUOUS
 62
     7
 10
634.125
 20
-74.439957
 11
634.125
 21
-139.33997
  0
LINE
  8
0
  6
CONTINUOUS
 62
     7
 10
637.125
 20
-80.005486
 11
658.625
 21
-80.005486
  0
LINE
  8
0
  6
CENTER
 62
     7
 10
463.47131
 20
168.35001
 11
463.47131
 21
120.35001
  0
LINE
  8
0
  6
CENTER
 62
     7
 10
439.47131
 20
144.35001
 11
487.47131
 21
144.35001
  0
LINE
  8
0
  6
CENTER
 62
     7
 10
662.26025
 20
170.55
 11
662.26025
 21
118.15001
  0
LINE
  8
0
  6
CENTER
 62
     7
 10
636.0603
 20
144.35001
 11
688.46027
 21
144.35001
  0
LINE
  8
0
  6
CENTER
 62
     7
 10
867.76489
 20
174.85001
 11
867.76489
 21
113.85001
  0
LINE
  8
0
  6
CENTER
 62
     7
 10
837.26489
 20
144.35001
 11
898.26489
 21
144.35001
  0
LINE
  8
0
  6
CENTER
 62
     7
 10
790.26025
 20
65.750351
 11
790.26025
 21
-12.02145
  0
LINE
  8
0
  6
CENTER
 62
     7
 10
751.37439
 20
26.864449
 11
829.14618
 21
26.864449
  0
LINE
  8
0
  6
CENTER
 62
     7
 10
535.375
 20
59.214447
 11
535.375
 21
-5.4855518
  0
LINE
  8
0
  6
CENTER
 62
     7
 10
503.02499
 20
26.864449
 11
567.72498
 21
26.864449
  0
LINE
  8
0
  6
CENTER
 62
     7
 10
531.375
 20
-67.189957
 11
531.375
 21
-146.58997
  0
LINE
  8
0
  6
CENTER
 62
     7
 10
491.67499
 20
-106.88996
 11
571.07501
 21
-106.88996
  0
LINE
  8
0
  6
CENTER
 62
     7
 10
826.125
 20
-58.904064
 11
826.125
 21
-154.87585
  0
LINE
  8
0
  6
CENTER
 62
     7
 10
778.1391
 20
-106.88996
 11
874.1109
 21
-106.88996
  0
LINE
  8
0
  6
CENTER
 62
     7
 10
680.54999
 20
-281.06409
 11
680.54999
 21
-392.93591
  0
LINE
  8
0
  6
CENTER
 62
     7
 10
624.61407
 20
-337
 11
736.4859
 21
-337
  0
LINE
  8
0
  6
CENTER
 62
     7
 10
683.70624
 20
-481.89999
 11
683.70624
 21
-612.09998
  0
LINE
  8
0
  6
CENTER
 62
     7
 10
618.60626
 20
-547
 11
748.80621
 21
-547
  0
LINE
  8
0
  6
CONTINUOUS
 62
     7
 10
737.32898
 20
-337
 11
726.48517
 21
-303.62616
  0
LINE
  8
0
  6
CONTINUOUS
 62
     7
 10
726.48517
 20
-303.62616
 11
698.09564
 21
-282.99997
  0
LINE
  8
0
  6
CONTINUOUS
 62
     7
 10
663.00433
 20
-283
 11
698.09564
 21
-283
  0
LINE
  8
0
  6
CONTINUOUS
 62
     7
 10
634.61481
 20
-303.62622
 11
663.00433
 21
-283.00003
  0
LINE
  8
0
  6
CONTINUOUS
 62
     7
 10
623.771
 20
-337
 11
634.61481
 21
-303.62616
  0
LINE
  8
0
  6
CONTINUOUS
 62
     7
 10
634.61487
 20
-370.37381
 11
623.77106
 21
-337
  0
LINE
  8
0
  6
CONTINUOUS
 62
     7
 10
663.00433
 20
-391
 11
634.61481
 21
-370.37381
  0
LINE
  8
0
  6
CONTINUOUS
 62
     7
 10
698.09564
 20
-391
 11
663.00433
 21
-391
  0
LINE
  8
0
  6
CONTINUOUS
 62
     7
 10
726.48517
 20
-370.37387
 11
698.09564
 21
-391.00006
  0
LINE
  8
0
  6
CONTINUOUS
 62
     7
 10
737.32892
 20
-336.99997
 11
726.48511
 21
-370.37384
  0
ARC
  8
0
  6
CONTINUOUS
 62
     7
 10
-160.82155
 20
148.87411
 40
5
 50
208.9066
 51
275.7106
  0
ARC
  8
0
  6
CONTINUOUS
 62
     7
 10
-140.41164
 20
148.87411
 40
5
 50
264.28941
 51
331.0934
  0
ARC
  8
0
  6
CONTINUOUS
 62
     7
 10
-160.82155
 20
112.04028
 40
5
 50
84.289404
 51
151.0934
  0
ARC
  8
0
  6
CONTINUOUS
 62
     7
 10
-140.41164
 20
112.04028
 40
5
 50
28.906597
 51
95.710594
  0
ARC
  8
0
  6
CONTINUOUS
 62
     7
 10
43.582031
 20
153.25539
 40
5
 50
210.23172
 51
274.57393
  0
ARC
  8
0
  6
CONTINUOUS
 62
     7
 10
68.942062
 20
112.59627
 40
5
 50
30.23164
 51
94.573927
  0
ARC
  8
0
  6
CONTINUOUS
 62
     7
 10
68.942062
 20
153.25539
 40
5
 50
265.42607
 51
329.76836
  0
ARC
  8
0
  6
CONTINUOUS
 62
     7
 10
-64.682266
 20
44.420155
 40
5
 50
221.57141
 51
274.76364
  0
ARC
  8
0
  6
CONTINUOUS
 62
     7
 10
-64.682266
 20
-2.7587395
 40
5
 50
85.236355
 51
138.42859
  0
ARC
  8
0
  6
CONTINUOUS
 62
     7
 10
-34.163544
 20
-2.7587395
 40
5
 50
41.571677
 51
94.763643
  0
ARC
  8
0
  6
CONTINUOUS
 62
     7
 10
-34.163544
 20
44.420155
 40
5
 50
265.23636
 51
318.42832
  0
ARC
  8
0
  6
CONTINUOUS
 62
     7
 10
-182.71169
 20
-59.572445
 40
5
 50
218.94222
 51
274.08563
  0
ARC
  8
0
  6
CONTINUOUS
 62
     7
 10
-182.71169
 20
-113.66876
 40
5
 50
85.914375
 51
141.05778
  0
ARC
  8
0
  6
CONTINUOUS
 62
     7
 10
-147.48949
 20
-59.572445
 40
5
 50
265.91438
 51
321.05778
  0
ARC
  8
0
  6
CONTINUOUS
 62
     7
 10
-147.48949
 20
-113.66876
 40
5
 50
38.942225
 51
94.085617
  0
ARC
  8
0
  6
CONTINUOUS
 62
     7
 10
71.707947
 20
-58.088608
 40
5
 50
230.69602
 51
273.40643
  0
ARC
  8
0
  6
CONTINUOUS
 62
     7
 10
113.3736
 20
-58.088608
 40
5
 50
266.59356
 51
309.30401
  0
ARC
  8
0
  6
CONTINUOUS
 62
     7
 10
71.707947
 20
-121.61478
 40
5
 50
86.593555
 51
129.30398
  0
ARC
  8
0
  6
CONTINUOUS
 62
     7
 10
113.3736
 20
-121.61478
 40
5
 50
50.695986
 51
93.406443
  0
ARC
  8
0
  6
CONTINUOUS
 62
     7
 10
-193.26715
 20
-319.28745
 40
5
 50
240.99708
 51
273.9909
  0
ARC
  8
0
  6
CONTINUOUS
 62
     7
 10
-151.11569
 20
-319.28745
 40
5
 50
266.00908
 51
299.00291
  0
ARC
  8
0
  6
CONTINUOUS
 62
     7
 10
-193.26715
 20
-388.94614
 40
5
 50
86.009089
 51
119.00292
  0
ARC
  8
0
  6
CONTINUOUS
 62
     7
 10
-151.11569
 20
-388.94614
 40
5
 50
60.997086
 51
93.990916
  0
ARC
  8
0
  6
CONTINUOUS
 62
     7
 10
49.796879
 20
-314.13126
 40
5
 50
253.23683
 51
273.57633
  0
ARC
  8
0
  6
CONTINUOUS
 62
     7
 10
96.912712
 20
-314.13126
 40
5
 50
266.42366
 51
286.76321
  0
ARC
  8
0
  6
CONTINUOUS
 62
     7
 10
49.796879
 20
-396.72162
 40
5
 50
86.423668
 51
106.76317
  0
ARC
  8
0
  6
CONTINUOUS
 62
     7
 10
96.912712
 20
-396.72162
 40
5
 50
73.236792
 51
93.576337
  0
ARC
  8
0
  6
CONTINUOUS
 62
     7
 10
-194.92279
 20
-484.51892
 40
5
 50
266.2686
 51
305.36615
  0
ARC
  8
0
  6
CONTINUOUS
 62
     7
 10
-241.13481
 20
-484.51892
 40
5
 50
234.63406
 51
273.7314
  0
ARC
  8
0
  6
CONTINUOUS
 62
     7
 10
-241.13481
 20
-584.5672
 40
5
 50
86.268602
 51
125.36594
  0
ARC
  8
0
  6
CONTINUOUS
 62
     7
 10
-194.92279
 20
-584.5672
 40
5
 50
54.633853
 51
93.731396
  0
ARC
  8
0
  6
CONTINUOUS
 62
     7
 10
94.830444
 20
-478.86673
 40
5
 50
266.42366
 51
305.39853
  0
ARC
  8
0
  6
CONTINUOUS
 62
     7
 10
38.623043
 20
-478.86673
 40
5
 50
234.60147
 51
273.57633
  0
ARC
  8
0
  6
CONTINUOUS
 62
     7
 10
38.623043
 20
-592.89282
 40
5
 50
86.423668
 51
125.39853
  0
ARC
  8
0
  6
CONTINUOUS
 62
     7
 10
94.830444
 20
-592.89282
 40
5
 50
54.601471
 51
93.576337
  0
CIRCLE
  8
0
  6
CONTINUOUS
 62
     7
 10
-67.520279
 20
130.4572
 40
9.5
  0
CIRCLE
  8
0
  6
CONTINUOUS
 62
     7
 10
150.77455
 20
132.92583
 40
11.5
  0
CIRCLE
  8
0
  6
CONTINUOUS
 62
     7
 10
52.31459
 20
20.830708
 40
14.25
  0
CIRCLE
  8
0
  6
CONTINUOUS
 62
     7
 10
-60.100594
 20
-86.620605
 40
17.75
  0
CIRCLE
  8
0
  6
CONTINUOUS
 62
     7
 10
200.54077
 20
-89.851692
 40
22
  0
CIRCLE
  8
0
  6
CONTINUOUS
 62
     7
 10
-61.191422
 20
-354.11679
 40
25
  0
CIRCLE
  8
0
  6
CONTINUOUS
 62
     7
 10
189.3548
 20
-355.42645
 40
31
  0
CIRCLE
  8
0
  6
CONTINUOUS
 62
     7
 10
-86.028793
 20
-534.54309
 40
39.25
  0
CIRCLE
  8
0
  6
CONTINUOUS
 62
     7
 10
214.72675
 20
-535.87976
 40
45.75
  0
ARC
  8
0
  6
CONTINUOUS
 62
     7
 10
43.582031
 20
112.59627
 40
5
 50
85.426071
 51
149.76836
  0
ARC
  8
0
  6
CONTINUOUS
 62
     7
 10
541.65601
 20
-286.97586
 40
5
 50
266.2686
 51
348.1806
  0
ARC
  8
0
  6
CONTINUOUS
 62
     7
 10
495.44397
 20
-286.97586
 40
5
 50
191.81941
 51
273.7314
  0
ARC
  8
0
  6
CONTINUOUS
 62
     7
 10
495.44397
 20
-387.02414
 40
5
 50
86.268602
 51
168.18059
  0
ARC
  8
0
  6
CONTINUOUS
 62
     7
 10
541.65601
 20
-387.02414
 40
5
 50
11.819403
 51
93.731396
  0
CIRCLE
  8
0
  6
CONTINUOUS
 62
     7
 10
680.54999
 20
-337
 40
40.400002
  0
CIRCLE
  8
0
  6
CONTINUOUS
 62
     7
 10
680.54999
 20
-337
 40
40.935898
  0
CIRCLE
  8
0
  6
CONTINUOUS
 62
     7
 10
680.54999
 20
-337
 40
38.650002
  0
ARC
  8
0
  6
CONTINUOUS
 62
     7
 10
553.80994
 20
-489.98697
 40
5
 50
266.42366
 51
348.3106
  0
ARC
  8
0
  6
CONTINUOUS
 62
     7
 10
497.60254
 20
-489.98697
 40
5
 50
191.6894
 51
273.57633
  0
ARC
  8
0
  6
CONTINUOUS
 62
     7
 10
497.60254
 20
-604.01306
 40
5
 50
86.423668
 51
168.3106
  0
ARC
  8
0
  6
CONTINUOUS
 62
     7
 10
553.80994
 20
-604.01306
 40
5
 50
11.689404
 51
93.576337
  0
CIRCLE
  8
0
  6
CONTINUOUS
 62
     7
 10
683.70624
 20
-547
 40
46.849998
  0
CIRCLE
  8
0
  6
CONTINUOUS
 62
     7
 10
683.70624
 20
-547
 40
47.385899
  0
CIRCLE
  8
0
  6
CONTINUOUS
 62
     7
 10
683.70624
 20
-547
 40
45.099998
  0
ARC
  8
0
  6
CONTINUOUS
 62
     7
 10
370.17004
 20
162.76692
 40
5
 50
208.9066
 51
275.7106
  0
ARC
  8
0
  6
CONTINUOUS
 62
     7
 10
390.57996
 20
162.76692
 40
5
 50
264.28941
 51
331.0934
  0
ARC
  8
0
  6
CONTINUOUS
 62
     7
 10
370.17004
 20
125.93309
 40
5
 50
84.289404
 51
151.0934
  0
ARC
  8
0
  6
CONTINUOUS
 62
     7
 10
390.57996
 20
125.93309
 40
5
 50
28.906597
 51
95.710594
  0
CIRCLE
  8
0
  6
CONTINUOUS
 62
     7
 10
463.47131
 20
144.35001
 40
9
  0
CIRCLE
  8
0
  6
CONTINUOUS
 62
     7
 10
463.47131
 20
144.35001
 40
10.55
  0
CIRCLE
  8
0
  6
CONTINUOUS
 62
     7
 10
463.47131
 20
144.35001
 40
11.085898
  0
ARC
  8
0
  6
CONTINUOUS
 62
     7
 10
555.06775
 20
164.67957
 40
5
 50
207.76925
 51
274.57393
  0
ARC
  8
0
  6
CONTINUOUS
 62
     7
 10
555.06775
 20
124.02045
 40
5
 50
85.426071
 51
152.23075
  0
ARC
  8
0
  6
CONTINUOUS
 62
     7
 10
580.4278
 20
124.02045
 40
5
 50
27.769253
 51
94.573927
  0
ARC
  8
0
  6
CONTINUOUS
 62
     7
 10
580.4278
 20
164.67957
 40
5
 50
265.42607
 51
332.23075
  0
CIRCLE
  8
0
  6
CONTINUOUS
 62
     7
 10
662.26025
 20
144.35001
 40
11.2
  0
CIRCLE
  8
0
  6
CONTINUOUS
 62
     7
 10
662.26025
 20
144.35001
 40
12.75
  0
CIRCLE
  8
0
  6
CONTINUOUS
 62
     7
 10
662.26025
 20
144.35001
 40
13.285898
  0
ARC
  8
0
  6
CONTINUOUS
 62
     7
 10
750.76807
 20
167.93945
 40
5
 50
211.19078
 51
274.76364
  0
ARC
  8
0
  6
CONTINUOUS
 62
     7
 10
750.76807
 20
120.76056
 40
5
 50
85.236355
 51
148.80922
  0
ARC
  8
0
  6
CONTINUOUS
 62
     7
 10
781.28674
 20
120.76056
 40
5
 50
31.190783
 51
94.763643
  0
ARC
  8
0
  6
CONTINUOUS
 62
     7
 10
781.28674
 20
167.93945
 40
5
 50
265.23636
 51
328.80922
  0
CIRCLE
  8
0
  6
CONTINUOUS
 62
     7
 10
867.76489
 20
144.35001
 40
16.035898
  0
CIRCLE
  8
0
  6
CONTINUOUS
 62
     7
 10
867.76489
 20
144.35001
 40
13.95
  0
CIRCLE
  8
0
  6
CONTINUOUS
 62
     7
 10
867.76489
 20
144.35001
 40
15.5
  0
ARC
  8
0
  6
CONTINUOUS
 62
     7
 10
412.76392
 20
53.912605
 40
5
 50
204.18168
 51
274.08563
  0
ARC
  8
0
  6
CONTINUOUS
 62
     7
 10
412.76392
 20
-0.18371201
 40
5
 50
85.914375
 51
155.81832
  0
ARC
  8
0
  6
CONTINUOUS
 62
     7
 10
447.98608
 20
53.912605
 40
5
 50
265.91437
 51
335.81832
  0
ARC
  8
0
  6
CONTINUOUS
 62
     7
 10
447.98608
 20
-0.18371201
 40
5
 50
24.181679
 51
94.08563
  0
CIRCLE
  8
0
  6
CONTINUOUS
 62
     7
 10
535.375
 20
26.864449
 40
18.9
  0
CIRCLE
  8
0
  6
CONTINUOUS
 62
     7
 10
535.375
 20
26.864449
 40
19.435898
  0
CIRCLE
  8
0
  6
CONTINUOUS
 62
     7
 10
535.375
 20
26.864449
 40
17.35
  0
ARC
  8
0
  6
CONTINUOUS
 62
     7
 10
661.42749
 20
58.627533
 40
5
 50
213.54682
 51
273.40643
  0
ARC
  8
0
  6
CONTINUOUS
 62
     7
 10
703.09314
 20
58.627533
 40
5
 50
266.59356
 51
326.45318
  0
ARC
  8
0
  6
CONTINUOUS
 62
     7
 10
661.42749
 20
-4.8986435
 40
5
 50
86.593555
 51
146.45319
  0
ARC
  8
0
  6
CONTINUOUS
 62
     7
 10
703.09314
 20
-4.8986435
 40
5
 50
33.546816
 51
93.406443
  0
CIRCLE
  8
0
  6
CONTINUOUS
 62
     7
 10
790.26025
 20
26.864449
 40
23.35
  0
CIRCLE
  8
0
  6
CONTINUOUS
 62
     7
 10
790.26025
 20
26.864449
 40
23.885899
  0
CIRCLE
  8
0
  6
CONTINUOUS
 62
     7
 10
790.26025
 20
26.864449
 40
21.700001
  0
ARC
  8
0
  6
CONTINUOUS
 62
     7
 10
389.29926
 20
-72.060623
 40
5
 50
207.76631
 51
273.9909
  0
ARC
  8
0
  6
CONTINUOUS
 62
     7
 10
431.45074
 20
-72.060623
 40
5
 50
266.00908
 51
332.23369
  0
ARC
  8
0
  6
CONTINUOUS
 62
     7
 10
389.29926
 20
-141.7193
 40
5
 50
86.009089
 51
152.23369
  0
ARC
  8
0
  6
CONTINUOUS
 62
     7
 10
431.45074
 20
-141.7193
 40
5
 50
27.76631
 51
93.990916
  0
CIRCLE
  8
0
  6
CONTINUOUS
 62
     7
 10
531.375
 20
-106.88996
 40
26.450001
  0
CIRCLE
  8
0
  6
CONTINUOUS
 62
     7
 10
531.375
 20
-106.88996
 40
26.985899
  0
CIRCLE
  8
0
  6
CONTINUOUS
 62
     7
 10
531.375
 20
-106.88996
 40
24.700001
  0
ARC
  8
0
  6
CONTINUOUS
 62
     7
 10
666.56708
 20
-65.594772
 40
5
 50
207.32507
 51
273.57633
  0
ARC
  8
0
  6
CONTINUOUS
 62
     7
 10
713.68292
 20
-65.594772
 40
5
 50
266.42366
 51
332.67494
  0
ARC
  8
0
  6
CONTINUOUS
 62
     7
 10
666.56708
 20
-148.18515
 40
5
 50
86.423668
 51
152.67493
  0
ARC
  8
0
  6
CONTINUOUS
 62
     7
 10
713.68292
 20
-148.18515
 40
5
 50
27.325063
 51
93.576337
  0
CIRCLE
  8
0
  6
CONTINUOUS
 62
     7
 10
826.125
 20
-106.88996
 40
32.450001
  0
CIRCLE
  8
0
  6
CONTINUOUS
 62
     7
 10
826.125
 20
-106.88996
 40
32.985897
  0
CIRCLE
  8
0
  6
CONTINUOUS
 62
     7
 10
826.125
 20
-106.88996
 40
30.700001
  0
TEXT
  8
0
  6
CONTINUOUS
 62
     7
 10
-160.27829
 20
168.7756
 40
10
 41
1.0178573
  1
3/8
  0
TEXT
  8
0
  6
CONTINUOUS
 62
     7
 10
43.681419
 20
174.29335
 40
10
 41
1.0178573
  1
1/2
  0
TEXT
  8
0
  6
CONTINUOUS
 62
     7
 10
-60.221836
 20
65.600693
 40
10
 41
1.0178573
  1
3/4
  0
TEXT
  8
0
  6
CONTINUOUS
 62
     7
 10
-169.75953
 20
-39.923141
 40
10
 41
1.0714291
  1
1
  0
TEXT
  8
0
  6
CONTINUOUS
 62
     7
 10
76.880451
 20
-35.615021
 40
10
 41
1.0129871
  1
11/4
  0
TEXT
  8
0
  6
CONTINUOUS
 62
     7
 10
-189.68459
 20
-293.33203
 40
10
 41
1.0129871
  1
11/2
  0
TEXT
  8
0
  6
CONTINUOUS
 62
     7
 10
67.725689
 20
-290.10092
 40
10
 41
1.0714291
  1
2
  0
TEXT
  8
0
  6
CONTINUOUS
 62
     7
 10
-229.5347
 20
-463.50284
 40
10
 41
1.0129871
  1
21/2
  0
TEXT
  8
0
  6
CONTINUOUS
 62
     7
 10
59.109447
 20
-457.04065
 40
10
 41
1.0714291
  1
3
  0
TEXT
  8
0
  6
CONTINUOUS
 62
     7
 10
-292.96335
 20
218.53621
 40
15
 41
0.84633858
  1
ＬＡ　ソケット
  0
TEXT
  8
0
  6
CONTINUOUS
 62
     7
 10
510.7877
 20
-261.82394
 40
10
 41
1.0129871
  1
21/2
  0
TEXT
  8
0
  6
CONTINUOUS
 62
     7
 10
521.36351
 20
-462.76392
 40
10
 41
1.0714291
  1
3
  0
TEXT
  8
0
  6
CONTINUOUS
 62
     7
 10
367.86937
 20
172.66437
 40
10
 41
1.0178573
  1
3/8
  0
TEXT
  8
0
  6
CONTINUOUS
 62
     7
 10
563.2133
 20
180.29121
 40
10
 41
1.0178573
  1
1/2
  0
TEXT
  8
0
  6
CONTINUOUS
 62
     7
 10
755.2285
 20
189.12
 40
10
 41
1.0178573
  1
3/4
  0
TEXT
  8
0
  6
CONTINUOUS
 62
     7
 10
425.72807
 20
73.475746
 40
10
 41
1.0714291
  1
1
  0
TEXT
  8
0
  6
CONTINUOUS
 62
     7
 10
675.31669
 20
73.475746
 40
10
 41
1.0129871
  1
11/4
  0
TEXT
  8
0
  6
CONTINUOUS
 62
     7
 10
408.8068
 20
-55.548878
 40
10
 41
1.0129871
  1
11/2
  0
TEXT
  8
0
  6
CONTINUOUS
 62
     7
 10
689.06523
 20
-47.088245
 40
10
 41
1.0714291
  1
2
  0
TEXT
  8
0
  6
CONTINUOUS
 62
     7
 10
314.93402
 20
218.53621
 40
15
 41
0.84237086
  1
ＨＩ－ＬＡ（Ｐ－ＬＡ）　ソケット　（Ｓ）
  0
TEXT
  8
0
  6
CONTINUOUS
 62
     7
 10
653.08751
 20
215.27531
 40
10
 41
0.84195842
  1
ＨＩ－ＬＡとＰ－ＬＡの寸法は同じになっております。
  0
LINE
  8
0
  6
CONTINUOUS
 62
     7
 10
-150.31659
 20
133.4572
 11
-150.31659
 21
132.63547
  0
LINE
  8
0
  6
CONTINUOUS
 62
     7
 10
-150.91659
 20
133.4572
 11
-150.91659
 21
132.63547
  0
LINE
  8
0
  6
CONTINUOUS
 62
     7
 10
-150.91659
 20
128.27893
 11
-150.91659
 21
127.4572
  0
LINE
  8
0
  6
CONTINUOUS
 62
     7
 10
-150.31659
 20
128.27893
 11
-150.31659
 21
127.4572
  0
LINE
  8
0
  6
CONTINUOUS
 62
     7
 10
-150.91659
 20
132.03329
 11
-150.91659
 21
130.4572
  0
LINE
  8
0
  6
CONTINUOUS
 62
     7
 10
-150.31659
 20
132.03329
 11
-150.31659
 21
130.4572
  0
ARC
  8
0
  6
CONTINUOUS
 62
     7
 10
-149.41659
 20
130.4572
 40
1.2
 50
306.00832
 51
53.991676
  0
ARC
  8
0
  6
CONTINUOUS
 62
     7
 10
-149.41659
 20
130.4572
 40
1.8
 50
306.00832
 51
53.991676
  0
ARC
  8
0
  6
CONTINUOUS
 62
     7
 10
-151.81659
 20
130.4572
 40
1.2
 50
126.00833
 51
233.99168
  0
ARC
  8
0
  6
CONTINUOUS
 62
     7
 10
-151.81659
 20
130.4572
 40
1.8
 50
126.00833
 51
233.99168
  0
ARC
  8
0
  6
CONTINUOUS
 62
     7
 10
-150.61659
 20
128.80605
 40
3.8411539
 50
53.991676
 51
85.520553
  0
ARC
  8
0
  6
CONTINUOUS
 62
     7
 10
-150.61659
 20
128.80605
 40
3.241154
 50
53.991676
 51
84.689121
  0
ARC
  8
0
  6
CONTINUOUS
 62
     7
 10
-150.61659
 20
132.10835
 40
3.241154
 50
233.99167
 51
306.00832
  0
ARC
  8
0
  6
CONTINUOUS
 62
     7
 10
-150.61659
 20
132.10835
 40
3.8411539
 50
233.99167
 51
265.52055
  0
ARC
  8
0
  6
CONTINUOUS
 62
     7
 10
-150.61659
 20
133.2322
 40
0.375
 50
36.869897
 51
143.1301
  0
ARC
  8
0
  6
CONTINUOUS
 62
     7
 10
-150.61659
 20
130.6822
 40
0.375
 50
216.8699
 51
323.1301
  0
ARC
  8
0
  6
CONTINUOUS
 62
     7
 10
-150.61659
 20
127.6822
 40
0.375
 50
216.8699
 51
323.1301
  0
ARC
  8
0
  6
CONTINUOUS
 62
     7
 10
-150.61659
 20
132.10835
 40
3.8411539
 50
274.47945
 51
306.00832
  0
ARC
  8
0
  6
CONTINUOUS
 62
     7
 10
-150.61659
 20
128.80605
 40
3.241154
 50
95.310878
 51
126.00833
  0
ARC
  8
0
  6
CONTINUOUS
 62
     7
 10
-150.61659
 20
128.80605
 40
3.8411539
 50
94.479452
 51
126.00833
  0
LINE
  8
0
  6
CONTINUOUS
 62
     7
 10
56.562047
 20
135.92583
 11
56.562047
 21
135.10409
  0
LINE
  8
0
  6
CONTINUOUS
 62
     7
 10
55.962047
 20
135.92583
 11
55.962047
 21
135.10409
  0
LINE
  8
0
  6
CONTINUOUS
 62
     7
 10
55.962047
 20
130.74756
 11
55.962047
 21
129.92583
  0
LINE
  8
0
  6
CONTINUOUS
 62
     7
 10
56.562047
 20
130.74756
 11
56.562047
 21
129.92583
  0
LINE
  8
0
  6
CONTINUOUS
 62
     7
 10
55.962047
 20
134.50191
 11
55.962047
 21
132.92583
  0
LINE
  8
0
  6
CONTINUOUS
 62
     7
 10
56.562047
 20
134.50191
 11
56.562047
 21
132.92583
  0
ARC
  8
0
  6
CONTINUOUS
 62
     7
 10
57.462047
 20
132.92583
 40
1.2
 50
306.00832
 51
53.991676
  0
ARC
  8
0
  6
CONTINUOUS
 62
     7
 10
57.462047
 20
132.92583
 40
1.8
 50
306.00832
 51
53.991676
  0
ARC
  8
0
  6
CONTINUOUS
 62
     7
 10
55.062047
 20
132.92583
 40
1.2
 50
126.00833
 51
233.99168
  0
ARC
  8
0
  6
CONTINUOUS
 62
     7
 10
55.062047
 20
132.92583
 40
1.8
 50
126.00833
 51
233.99168
  0
ARC
  8
0
  6
CONTINUOUS
 62
     7
 10
56.262047
 20
131.27467
 40
3.8411539
 50
53.991676
 51
85.520553
  0
ARC
  8
0
  6
CONTINUOUS
 62
     7
 10
56.262047
 20
131.27467
 40
3.241154
 50
53.991676
 51
84.689121
  0
ARC
  8
0
  6
CONTINUOUS
 62
     7
 10
56.262047
 20
134.57698
 40
3.241154
 50
233.99167
 51
306.00832
  0
ARC
  8
0
  6
CONTINUOUS
 62
     7
 10
56.262047
 20
134.57698
 40
3.8411539
 50
233.99167
 51
265.52055
  0
ARC
  8
0
  6
CONTINUOUS
 62
     7
 10
56.262047
 20
135.70083
 40
0.375
 50
36.869897
 51
143.1301
  0
ARC
  8
0
  6
CONTINUOUS
 62
     7
 10
56.262047
 20
133.15083
 40
0.375
 50
216.8699
 51
323.1301
  0
ARC
  8
0
  6
CONTINUOUS
 62
     7
 10
56.262047
 20
130.15083
 40
0.375
 50
216.8699
 51
323.1301
  0
ARC
  8
0
  6
CONTINUOUS
 62
     7
 10
56.262047
 20
134.57698
 40
3.8411539
 50
274.47945
 51
306.00832
  0
ARC
  8
0
  6
CONTINUOUS
 62
     7
 10
56.262047
 20
131.27467
 40
3.241154
 50
95.310878
 51
126.00833
  0
ARC
  8
0
  6
CONTINUOUS
 62
     7
 10
56.262047
 20
131.27467
 40
3.8411539
 50
94.479452
 51
126.00833
  0
LINE
  8
0
  6
CONTINUOUS
 62
     7
 10
-48.972913
 20
25.330708
 11
-48.972913
 21
24.098108
  0
LINE
  8
0
  6
CONTINUOUS
 62
     7
 10
-49.872913
 20
25.330708
 11
-49.872913
 21
24.098108
  0
LINE
  8
0
  6
CONTINUOUS
 62
     7
 10
-49.872913
 20
17.563307
 11
-49.872913
 21
16.330708
  0
LINE
  8
0
  6
CONTINUOUS
 62
     7
 10
-48.972913
 20
17.563307
 11
-48.972913
 21
16.330708
  0
LINE
  8
0
  6
CONTINUOUS
 62
     7
 10
-49.872913
 20
23.194837
 11
-49.872913
 21
20.830708
  0
LINE
  8
0
  6
CONTINUOUS
 62
     7
 10
-48.972913
 20
23.194837
 11
-48.972913
 21
20.830708
  0
ARC
  8
0
  6
CONTINUOUS
 62
     7
 10
-47.622913
 20
20.830708
 40
1.8
 50
306.00832
 51
53.991676
  0
ARC
  8
0
  6
CONTINUOUS
 62
     7
 10
-47.622913
 20
20.830708
 40
2.7
 50
306.00832
 51
53.991676
  0
ARC
  8
0
  6
CONTINUOUS
 62
     7
 10
-51.222913
 20
20.830708
 40
1.8
 50
126.00833
 51
233.99168
  0
ARC
  8
0
  6
CONTINUOUS
 62
     7
 10
-51.222913
 20
20.830708
 40
2.7
 50
126.00833
 51
233.99168
  0
ARC
  8
0
  6
CONTINUOUS
 62
     7
 10
-49.422913
 20
18.353977
 40
5.7617307
 50
53.991676
 51
85.520553
  0
ARC
  8
0
  6
CONTINUOUS
 62
     7
 10
-49.422913
 20
18.353977
 40
4.8617306
 50
53.991676
 51
84.689121
  0
ARC
  8
0
  6
CONTINUOUS
 62
     7
 10
-49.422913
 20
23.307438
 40
4.8617306
 50
233.99167
 51
306.00832
  0
ARC
  8
0
  6
CONTINUOUS
 62
     7
 10
-49.422913
 20
23.307438
 40
5.7617307
 50
233.99167
 51
265.52055
  0
ARC
  8
0
  6
CONTINUOUS
 62
     7
 10
-49.422913
 20
24.993207
 40
0.5625
 50
36.869897
 51
143.1301
  0
ARC
  8
0
  6
CONTINUOUS
 62
     7
 10
-49.422913
 20
21.168208
 40
0.5625
 50
216.8699
 51
323.1301
  0
ARC
  8
0
  6
CONTINUOUS
 62
     7
 10
-49.422913
 20
16.668208
 40
0.5625
 50
216.8699
 51
323.1301
  0
ARC
  8
0
  6
CONTINUOUS
 62
     7
 10
-49.422913
 20
18.353977
 40
5.7617307
 50
94.479452
 51
126.00833
  0
ARC
  8
0
  6
CONTINUOUS
 62
     7
 10
-49.422913
 20
18.353977
 40
4.8617306
 50
95.310878
 51
126.00833
  0
ARC
  8
0
  6
CONTINUOUS
 62
     7
 10
-49.422913
 20
23.307438
 40
5.7617307
 50
274.47945
 51
306.00832
  0
LINE
  8
0
  6
CONTINUOUS
 62
     7
 10
-164.65059
 20
-82.120605
 11
-164.65059
 21
-83.353205
  0
LINE
  8
0
  6
CONTINUOUS
 62
     7
 10
-165.55059
 20
-82.120605
 11
-165.55059
 21
-83.353205
  0
LINE
  8
0
  6
CONTINUOUS
 62
     7
 10
-165.55059
 20
-89.888006
 11
-165.55059
 21
-91.120605
  0
LINE
  8
0
  6
CONTINUOUS
 62
     7
 10
-164.65059
 20
-89.888006
 11
-164.65059
 21
-91.120605
  0
LINE
  8
0
  6
CONTINUOUS
 62
     7
 10
-165.55059
 20
-84.256476
 11
-165.55059
 21
-86.620605
  0
LINE
  8
0
  6
CONTINUOUS
 62
     7
 10
-164.65059
 20
-84.256476
 11
-164.65059
 21
-86.620605
  0
ARC
  8
0
  6
CONTINUOUS
 62
     7
 10
-163.30059
 20
-86.620605
 40
1.8
 50
306.00832
 51
53.991676
  0
ARC
  8
0
  6
CONTINUOUS
 62
     7
 10
-163.30059
 20
-86.620605
 40
2.7
 50
306.00832
 51
53.991676
  0
ARC
  8
0
  6
CONTINUOUS
 62
     7
 10
-166.90059
 20
-86.620605
 40
1.8
 50
126.00833
 51
233.99168
  0
ARC
  8
0
  6
CONTINUOUS
 62
     7
 10
-166.90059
 20
-86.620605
 40
2.7
 50
126.00833
 51
233.99168
  0
ARC
  8
0
  6
CONTINUOUS
 62
     7
 10
-165.10059
 20
-89.097336
 40
5.7617307
 50
53.991676
 51
85.520553
  0
ARC
  8
0
  6
CONTINUOUS
 62
     7
 10
-165.10059
 20
-89.097336
 40
4.8617306
 50
53.991676
 51
84.689121
  0
ARC
  8
0
  6
CONTINUOUS
 62
     7
 10
-165.10059
 20
-84.143875
 40
4.8617306
 50
233.99167
 51
306.00832
  0
ARC
  8
0
  6
CONTINUOUS
 62
     7
 10
-165.10059
 20
-84.143875
 40
5.7617307
 50
233.99167
 51
265.52055
  0
ARC
  8
0
  6
CONTINUOUS
 62
     7
 10
-165.10059
 20
-82.458106
 40
0.5625
 50
36.869897
 51
143.1301
  0
ARC
  8
0
  6
CONTINUOUS
 62
     7
 10
-165.10059
 20
-86.283105
 40
0.5625
 50
216.8699
 51
323.1301
  0
ARC
  8
0
  6
CONTINUOUS
 62
     7
 10
-165.10059
 20
-90.783105
 40
0.5625
 50
216.8699
 51
323.1301
  0
ARC
  8
0
  6
CONTINUOUS
 62
     7
 10
-165.10059
 20
-89.097336
 40
5.7617307
 50
94.479452
 51
126.00833
  0
ARC
  8
0
  6
CONTINUOUS
 62
     7
 10
-165.10059
 20
-89.097336
 40
4.8617306
 50
95.310878
 51
126.00833
  0
ARC
  8
0
  6
CONTINUOUS
 62
     7
 10
-165.10059
 20
-84.143875
 40
5.7617307
 50
274.47945
 51
306.00832
  0
LINE
  8
0
  6
CONTINUOUS
 62
     7
 10
93.140772
 20
-83.851692
 11
93.140772
 21
-85.495159
  0
LINE
  8
0
  6
CONTINUOUS
 62
     7
 10
91.940771
 20
-83.851692
 11
91.940771
 21
-85.495159
  0
LINE
  8
0
  6
CONTINUOUS
 62
     7
 10
91.940771
 20
-94.208226
 11
91.940771
 21
-95.851692
  0
LINE
  8
0
  6
CONTINUOUS
 62
     7
 10
93.140772
 20
-94.208226
 11
93.140772
 21
-95.851692
  0
LINE
  8
0
  6
CONTINUOUS
 62
     7
 10
91.940771
 20
-86.69952
 11
91.940771
 21
-89.851692
  0
LINE
  8
0
  6
CONTINUOUS
 62
     7
 10
93.140772
 20
-86.69952
 11
93.140772
 21
-89.851692
  0
ARC
  8
0
  6
CONTINUOUS
 62
     7
 10
94.940772
 20
-89.851692
 40
2.4000001
 50
306.00832
 51
53.991676
  0
ARC
  8
0
  6
CONTINUOUS
 62
     7
 10
94.940772
 20
-89.851692
 40
3.5999999
 50
306.00832
 51
53.991676
  0
ARC
  8
0
  6
CONTINUOUS
 62
     7
 10
90.140771
 20
-89.851692
 40
2.4000001
 50
126.00833
 51
233.99168
  0
ARC
  8
0
  6
CONTINUOUS
 62
     7
 10
90.140771
 20
-89.851692
 40
3.5999999
 50
126.00833
 51
233.99168
  0
ARC
  8
0
  6
CONTINUOUS
 62
     7
 10
92.540771
 20
-93.154
 40
7.6823077
 50
53.991676
 51
85.520553
  0
ARC
  8
0
  6
CONTINUOUS
 62
     7
 10
92.540771
 20
-93.154
 40
6.4823079
 50
53.991676
 51
84.689121
  0
ARC
  8
0
  6
CONTINUOUS
 62
     7
 10
92.540771
 20
-86.549385
 40
6.4823079
 50
233.99167
 51
306.00832
  0
ARC
  8
0
  6
CONTINUOUS
 62
     7
 10
92.540771
 20
-86.549385
 40
7.6823077
 50
233.99167
 51
265.52055
  0
ARC
  8
0
  6
CONTINUOUS
 62
     7
 10
92.540771
 20
-84.301692
 40
0.75
 50
36.869897
 51
143.1301
  0
ARC
  8
0
  6
CONTINUOUS
 62
     7
 10
92.540771
 20
-89.401692
 40
0.75
 50
216.8699
 51
323.1301
  0
ARC
  8
0
  6
CONTINUOUS
 62
     7
 10
92.540771
 20
-95.401692
 40
0.75
 50
216.8699
 51
323.1301
  0
ARC
  8
0
  6
CONTINUOUS
 62
     7
 10
92.540771
 20
-93.154
 40
6.4823079
 50
95.310878
 51
126.00833
  0
ARC
  8
0
  6
CONTINUOUS
 62
     7
 10
92.540771
 20
-93.154
 40
7.6823077
 50
94.479452
 51
126.00833
  0
ARC
  8
0
  6
CONTINUOUS
 62
     7
 10
92.540771
 20
-86.549385
 40
7.6823077
 50
274.47945
 51
306.00832
  0
LINE
  8
0
  6
CONTINUOUS
 62
     7
 10
-171.59142
 20
-348.11679
 11
-171.59142
 21
-349.76026
  0
LINE
  8
0
  6
CONTINUOUS
 62
     7
 10
-172.79142
 20
-348.11679
 11
-172.79142
 21
-349.76026
  0
LINE
  8
0
  6
CONTINUOUS
 62
     7
 10
-172.79142
 20
-358.47332
 11
-172.79142
 21
-360.11679
  0
LINE
  8
0
  6
CONTINUOUS
 62
     7
 10
-171.59142
 20
-358.47332
 11
-171.59142
 21
-360.11679
  0
LINE
  8
0
  6
CONTINUOUS
 62
     7
 10
-172.79142
 20
-350.96462
 11
-172.79142
 21
-354.11679
  0
LINE
  8
0
  6
CONTINUOUS
 62
     7
 10
-171.59142
 20
-350.96462
 11
-171.59142
 21
-354.11679
  0
ARC
  8
0
  6
CONTINUOUS
 62
     7
 10
-169.79142
 20
-354.11679
 40
2.4000001
 50
306.00832
 51
53.991676
  0
ARC
  8
0
  6
CONTINUOUS
 62
     7
 10
-169.79142
 20
-354.11679
 40
3.5999999
 50
306.00832
 51
53.991676
  0
ARC
  8
0
  6
CONTINUOUS
 62
     7
 10
-174.59142
 20
-354.11679
 40
2.4000001
 50
126.00833
 51
233.99168
  0
ARC
  8
0
  6
CONTINUOUS
 62
     7
 10
-174.59142
 20
-354.11679
 40
3.5999999
 50
126.00833
 51
233.99168
  0
ARC
  8
0
  6
CONTINUOUS
 62
     7
 10
-172.19142
 20
-357.4191
 40
7.6823077
 50
53.991676
 51
85.520553
  0
ARC
  8
0
  6
CONTINUOUS
 62
     7
 10
-172.19142
 20
-357.4191
 40
6.4823079
 50
53.991676
 51
84.689121
  0
ARC
  8
0
  6
CONTINUOUS
 62
     7
 10
-172.19142
 20
-350.81448
 40
6.4823079
 50
233.99167
 51
306.00832
  0
ARC
  8
0
  6
CONTINUOUS
 62
     7
 10
-172.19142
 20
-350.81448
 40
7.6823077
 50
233.99167
 51
265.52055
  0
ARC
  8
0
  6
CONTINUOUS
 62
     7
 10
-172.19142
 20
-348.56679
 40
0.75
 50
36.869897
 51
143.1301
  0
ARC
  8
0
  6
CONTINUOUS
 62
     7
 10
-172.19142
 20
-353.66679
 40
0.75
 50
216.8699
 51
323.1301
  0
ARC
  8
0
  6
CONTINUOUS
 62
     7
 10
-172.19142
 20
-359.66679
 40
0.75
 50
216.8699
 51
323.1301
  0
ARC
  8
0
  6
CONTINUOUS
 62
     7
 10
-172.19142
 20
-357.4191
 40
6.4823079
 50
95.310878
 51
126.00833
  0
ARC
  8
0
  6
CONTINUOUS
 62
     7
 10
-172.19142
 20
-357.4191
 40
7.6823077
 50
94.479452
 51
126.00833
  0
ARC
  8
0
  6
CONTINUOUS
 62
     7
 10
-172.19142
 20
-350.81448
 40
7.6823077
 50
274.47945
 51
306.00832
  0
LINE
  8
0
  6
CONTINUOUS
 62
     7
 10
73.954797
 20
-349.42645
 11
73.954797
 21
-351.06992
  0
LINE
  8
0
  6
CONTINUOUS
 62
     7
 10
72.754797
 20
-349.42645
 11
72.754797
 21
-351.06992
  0
LINE
  8
0
  6
CONTINUOUS
 62
     7
 10
72.754797
 20
-359.78299
 11
72.754797
 21
-361.42645
  0
LINE
  8
0
  6
CONTINUOUS
 62
     7
 10
73.954797
 20
-359.78299
 11
73.954797
 21
-361.42645
  0
LINE
  8
0
  6
CONTINUOUS
 62
     7
 10
72.754797
 20
-352.27428
 11
72.754797
 21
-355.42645
  0
LINE
  8
0
  6
CONTINUOUS
 62
     7
 10
73.954797
 20
-352.27428
 11
73.954797
 21
-355.42645
  0
ARC
  8
0
  6
CONTINUOUS
 62
     7
 10
75.754797
 20
-355.42645
 40
2.4000001
 50
306.00832
 51
53.991676
  0
ARC
  8
0
  6
CONTINUOUS
 62
     7
 10
75.754797
 20
-355.42645
 40
3.5999999
 50
306.00832
 51
53.991676
  0
ARC
  8
0
  6
CONTINUOUS
 62
     7
 10
70.954797
 20
-355.42645
 40
2.4000001
 50
126.00833
 51
233.99168
  0
ARC
  8
0
  6
CONTINUOUS
 62
     7
 10
70.954797
 20
-355.42645
 40
3.5999999
 50
126.00833
 51
233.99168
  0
ARC
  8
0
  6
CONTINUOUS
 62
     7
 10
73.354797
 20
-358.72876
 40
7.6823077
 50
53.991676
 51
85.520553
  0
ARC
  8
0
  6
CONTINUOUS
 62
     7
 10
73.354797
 20
-358.72876
 40
6.4823079
 50
53.991676
 51
84.689121
  0
ARC
  8
0
  6
CONTINUOUS
 62
     7
 10
73.354797
 20
-352.12415
 40
6.4823079
 50
233.99167
 51
306.00832
  0
ARC
  8
0
  6
CONTINUOUS
 62
     7
 10
73.354797
 20
-352.12415
 40
7.6823077
 50
233.99167
 51
265.52055
  0
ARC
  8
0
  6
CONTINUOUS
 62
     7
 10
73.354797
 20
-349.87645
 40
0.75
 50
36.869897
 51
143.1301
  0
ARC
  8
0
  6
CONTINUOUS
 62
     7
 10
73.354797
 20
-354.97645
 40
0.75
 50
216.8699
 51
323.1301
  0
ARC
  8
0
  6
CONTINUOUS
 62
     7
 10
73.354797
 20
-360.97645
 40
0.75
 50
216.8699
 51
323.1301
  0
ARC
  8
0
  6
CONTINUOUS
 62
     7
 10
73.354797
 20
-358.72876
 40
6.4823079
 50
95.310878
 51
126.00833
  0
ARC
  8
0
  6
CONTINUOUS
 62
     7
 10
73.354797
 20
-358.72876
 40
7.6823077
 50
94.479452
 51
126.00833
  0
ARC
  8
0
  6
CONTINUOUS
 62
     7
 10
73.354797
 20
-352.12415
 40
7.6823077
 50
274.47945
 51
306.00832
  0
LINE
  8
0
  6
CONTINUOUS
 62
     7
 10
-217.27879
 20
-527.04309
 11
-217.27879
 21
-529.09742
  0
LINE
  8
0
  6
CONTINUOUS
 62
     7
 10
-218.77879
 20
-527.04309
 11
-218.77879
 21
-529.09742
  0
LINE
  8
0
  6
CONTINUOUS
 62
     7
 10
-218.77879
 20
-539.98876
 11
-218.77879
 21
-542.04309
  0
LINE
  8
0
  6
CONTINUOUS
 62
     7
 10
-217.27879
 20
-539.98876
 11
-217.27879
 21
-542.04309
  0
LINE
  8
0
  6
CONTINUOUS
 62
     7
 10
-218.77879
 20
-530.60288
 11
-218.77879
 21
-534.54309
  0
LINE
  8
0
  6
CONTINUOUS
 62
     7
 10
-217.27879
 20
-530.60288
 11
-217.27879
 21
-534.54309
  0
ARC
  8
0
  6
CONTINUOUS
 62
     7
 10
-215.02879
 20
-534.54309
 40
3
 50
306.00832
 51
53.991676
  0
ARC
  8
0
  6
CONTINUOUS
 62
     7
 10
-215.02879
 20
-534.54309
 40
4.5
 50
306.00832
 51
53.991676
  0
ARC
  8
0
  6
CONTINUOUS
 62
     7
 10
-221.02879
 20
-534.54309
 40
3
 50
126.00833
 51
233.99168
  0
ARC
  8
0
  6
CONTINUOUS
 62
     7
 10
-221.02879
 20
-534.54309
 40
4.5
 50
126.00833
 51
233.99168
  0
ARC
  8
0
  6
CONTINUOUS
 62
     7
 10
-218.02879
 20
-538.67098
 40
9.6028843
 50
53.991676
 51
85.520553
  0
ARC
  8
0
  6
CONTINUOUS
 62
     7
 10
-218.02879
 20
-538.67098
 40
8.1028843
 50
53.991676
 51
84.689121
  0
ARC
  8
0
  6
CONTINUOUS
 62
     7
 10
-218.02879
 20
-530.41521
 40
8.1028843
 50
233.99167
 51
306.00832
  0
ARC
  8
0
  6
CONTINUOUS
 62
     7
 10
-218.02879
 20
-530.41521
 40
9.6028843
 50
233.99167
 51
265.52055
  0
ARC
  8
0
  6
CONTINUOUS
 62
     7
 10
-218.02879
 20
-527.60559
 40
0.9375
 50
36.869897
 51
143.1301
  0
ARC
  8
0
  6
CONTINUOUS
 62
     7
 10
-218.02879
 20
-533.98059
 40
0.9375
 50
216.8699
 51
323.1301
  0
ARC
  8
0
  6
CONTINUOUS
 62
     7
 10
-218.02879
 20
-541.48059
 40
0.9375
 50
216.8699
 51
323.1301
  0
ARC
  8
0
  6
CONTINUOUS
 62
     7
 10
-218.02879
 20
-538.67098
 40
9.6028843
 50
94.479452
 51
126.00833
  0
ARC
  8
0
  6
CONTINUOUS
 62
     7
 10
-218.02879
 20
-538.67098
 40
8.1028843
 50
95.310878
 51
126.00833
  0
ARC
  8
0
  6
CONTINUOUS
 62
     7
 10
-218.02879
 20
-530.41521
 40
9.6028843
 50
274.47945
 51
306.00832
  0
LINE
  8
0
  6
CONTINUOUS
 62
     7
 10
67.476746
 20
-528.37976
 11
67.476746
 21
-530.43409
  0
LINE
  8
0
  6
CONTINUOUS
 62
     7
 10
65.976746
 20
-528.37976
 11
65.976746
 21
-530.43409
  0
LINE
  8
0
  6
CONTINUOUS
 62
     7
 10
65.976746
 20
-541.32543
 11
65.976746
 21
-543.37976
  0
LINE
  8
0
  6
CONTINUOUS
 62
     7
 10
67.476746
 20
-541.32543
 11
67.476746
 21
-543.37976
  0
LINE
  8
0
  6
CONTINUOUS
 62
     7
 10
65.976746
 20
-531.93955
 11
65.976746
 21
-535.87976
  0
LINE
  8
0
  6
CONTINUOUS
 62
     7
 10
67.476746
 20
-531.93955
 11
67.476746
 21
-535.87976
  0
ARC
  8
0
  6
CONTINUOUS
 62
     7
 10
69.726746
 20
-535.87976
 40
3
 50
306.00832
 51
53.991676
  0
ARC
  8
0
  6
CONTINUOUS
 62
     7
 10
69.726746
 20
-535.87976
 40
4.5
 50
306.00832
 51
53.991676
  0
ARC
  8
0
  6
CONTINUOUS
 62
     7
 10
63.726746
 20
-535.87976
 40
3
 50
126.00833
 51
233.99168
  0
ARC
  8
0
  6
CONTINUOUS
 62
     7
 10
63.726746
 20
-535.87976
 40
4.5
 50
126.00833
 51
233.99168
  0
ARC
  8
0
  6
CONTINUOUS
 62
     7
 10
66.726746
 20
-540.00765
 40
9.6028843
 50
53.991676
 51
85.520553
  0
ARC
  8
0
  6
CONTINUOUS
 62
     7
 10
66.726746
 20
-540.00765
 40
8.1028843
 50
53.991676
 51
84.689121
  0
ARC
  8
0
  6
CONTINUOUS
 62
     7
 10
66.726746
 20
-531.75188
 40
8.1028843
 50
233.99167
 51
306.00832
  0
ARC
  8
0
  6
CONTINUOUS
 62
     7
 10
66.726746
 20
-531.75188
 40
9.6028843
 50
233.99167
 51
265.52055
  0
ARC
  8
0
  6
CONTINUOUS
 62
     7
 10
66.726746
 20
-528.94226
 40
0.9375
 50
36.869897
 51
143.1301
  0
ARC
  8
0
  6
CONTINUOUS
 62
     7
 10
66.726746
 20
-535.31726
 40
0.9375
 50
216.8699
 51
323.1301
  0
ARC
  8
0
  6
CONTINUOUS
 62
     7
 10
66.726746
 20
-542.81726
 40
0.9375
 50
216.8699
 51
323.1301
  0
ARC
  8
0
  6
CONTINUOUS
 62
     7
 10
66.726746
 20
-540.00765
 40
9.6028843
 50
94.479452
 51
126.00833
  0
ARC
  8
0
  6
CONTINUOUS
 62
     7
 10
66.726746
 20
-540.00765
 40
8.1028843
 50
95.310878
 51
126.00833
  0
ARC
  8
0
  6
CONTINUOUS
 62
     7
 10
66.726746
 20
-531.75188
 40
9.6028843
 50
274.47945
 51
306.00832
  0
LINE
  8
0
  6
CONTINUOUS
 62
     7
 10
519.29999
 20
-329.5
 11
519.29999
 21
-331.55433
  0
LINE
  8
0
  6
CONTINUOUS
 62
     7
 10
517.79999
 20
-329.5
 11
517.79999
 21
-331.55433
  0
LINE
  8
0
  6
CONTINUOUS
 62
     7
 10
517.79999
 20
-342.44567
 11
517.79999
 21
-344.5
  0
LINE
  8
0
  6
CONTINUOUS
 62
     7
 10
519.29999
 20
-342.44567
 11
519.29999
 21
-344.5
  0
LINE
  8
0
  6
CONTINUOUS
 62
     7
 10
517.79999
 20
-333.05978
 11
517.79999
 21
-337
  0
LINE
  8
0
  6
CONTINUOUS
 62
     7
 10
519.29999
 20
-333.05978
 11
519.29999
 21
-337
  0
ARC
  8
0
  6
CONTINUOUS
 62
     7
 10
521.54999
 20
-337
 40
3
 50
306.00832
 51
53.991676
  0
ARC
  8
0
  6
CONTINUOUS
 62
     7
 10
521.54999
 20
-337
 40
4.5
 50
306.00832
 51
53.991676
  0
ARC
  8
0
  6
CONTINUOUS
 62
     7
 10
515.54999
 20
-337
 40
3
 50
126.00833
 51
233.99168
  0
ARC
  8
0
  6
CONTINUOUS
 62
     7
 10
515.54999
 20
-337
 40
4.5
 50
126.00833
 51
233.99168
  0
ARC
  8
0
  6
CONTINUOUS
 62
     7
 10
518.54999
 20
-341.12788
 40
9.6028843
 50
53.991676
 51
85.520553
  0
ARC
  8
0
  6
CONTINUOUS
 62
     7
 10
518.54999
 20
-341.12788
 40
8.1028843
 50
53.991676
 51
84.689121
  0
ARC
  8
0
  6
CONTINUOUS
 62
     7
 10
518.54999
 20
-332.87212
 40
8.1028843
 50
233.99167
 51
306.00832
  0
ARC
  8
0
  6
CONTINUOUS
 62
     7
 10
518.54999
 20
-332.87212
 40
9.6028843
 50
233.99167
 51
265.52055
  0
ARC
  8
0
  6
CONTINUOUS
 62
     7
 10
518.54999
 20
-330.0625
 40
0.9375
 50
36.869897
 51
143.1301
  0
ARC
  8
0
  6
CONTINUOUS
 62
     7
 10
518.54999
 20
-336.4375
 40
0.9375
 50
216.8699
 51
323.1301
  0
ARC
  8
0
  6
CONTINUOUS
 62
     7
 10
518.54999
 20
-343.9375
 40
0.9375
 50
216.8699
 51
323.1301
  0
ARC
  8
0
  6
CONTINUOUS
 62
     7
 10
518.54999
 20
-341.12788
 40
9.6028843
 50
94.479452
 51
126.00833
  0
ARC
  8
0
  6
CONTINUOUS
 62
     7
 10
518.54999
 20
-341.12788
 40
8.1028843
 50
95.310878
 51
126.00833
  0
ARC
  8
0
  6
CONTINUOUS
 62
     7
 10
518.54999
 20
-332.87212
 40
9.6028843
 50
274.47945
 51
306.00832
  0
LINE
  8
0
  6
CONTINUOUS
 62
     7
 10
526.45624
 20
-539.5
 11
526.45624
 21
-541.55433
  0
LINE
  8
0
  6
CONTINUOUS
 62
     7
 10
524.95624
 20
-539.5
 11
524.95624
 21
-541.55433
  0
LINE
  8
0
  6
CONTINUOUS
 62
     7
 10
524.95624
 20
-552.44567
 11
524.95624
 21
-554.5
  0
LINE
  8
0
  6
CONTINUOUS
 62
     7
 10
526.45624
 20
-552.44567
 11
526.45624
 21
-554.5
  0
LINE
  8
0
  6
CONTINUOUS
 62
     7
 10
524.95624
 20
-543.05978
 11
524.95624
 21
-547
  0
LINE
  8
0
  6
CONTINUOUS
 62
     7
 10
526.45624
 20
-543.05978
 11
526.45624
 21
-547
  0
ARC
  8
0
  6
CONTINUOUS
 62
     7
 10
528.70624
 20
-547
 40
3
 50
306.00832
 51
53.991676
  0
ARC
  8
0
  6
CONTINUOUS
 62
     7
 10
528.70624
 20
-547
 40
4.5
 50
306.00832
 51
53.991676
  0
ARC
  8
0
  6
CONTINUOUS
 62
     7
 10
522.70624
 20
-547
 40
3
 50
126.00833
 51
233.99168
  0
ARC
  8
0
  6
CONTINUOUS
 62
     7
 10
522.70624
 20
-547
 40
4.5
 50
126.00833
 51
233.99168
  0
ARC
  8
0
  6
CONTINUOUS
 62
     7
 10
525.70624
 20
-551.12788
 40
9.6028843
 50
53.991676
 51
85.520553
  0
ARC
  8
0
  6
CONTINUOUS
 62
     7
 10
525.70624
 20
-551.12788
 40
8.1028843
 50
53.991676
 51
84.689121
  0
ARC
  8
0
  6
CONTINUOUS
 62
     7
 10
525.70624
 20
-542.87212
 40
8.1028843
 50
233.99167
 51
306.00832
  0
ARC
  8
0
  6
CONTINUOUS
 62
     7
 10
525.70624
 20
-542.87212
 40
9.6028843
 50
233.99167
 51
265.52055
  0
ARC
  8
0
  6
CONTINUOUS
 62
     7
 10
525.70624
 20
-540.0625
 40
0.9375
 50
36.869897
 51
143.1301
  0
ARC
  8
0
  6
CONTINUOUS
 62
     7
 10
525.70624
 20
-546.4375
 40
0.9375
 50
216.8699
 51
323.1301
  0
ARC
  8
0
  6
CONTINUOUS
 62
     7
 10
525.70624
 20
-553.9375
 40
0.9375
 50
216.8699
 51
323.1301
  0
ARC
  8
0
  6
CONTINUOUS
 62
     7
 10
525.70624
 20
-551.12788
 40
9.6028843
 50
94.479452
 51
126.00833
  0
ARC
  8
0
  6
CONTINUOUS
 62
     7
 10
525.70624
 20
-551.12788
 40
8.1028843
 50
95.310878
 51
126.00833
  0
ARC
  8
0
  6
CONTINUOUS
 62
     7
 10
525.70624
 20
-542.87212
 40
9.6028843
 50
274.47945
 51
306.00832
  0
LINE
  8
0
  6
CONTINUOUS
 62
     7
 10
380.675
 20
147.35001
 11
380.675
 21
146.52827
  0
LINE
  8
0
  6
CONTINUOUS
 62
     7
 10
380.075
 20
147.35001
 11
380.075
 21
146.52827
  0
LINE
  8
0
  6
CONTINUOUS
 62
     7
 10
380.075
 20
142.17174
 11
380.075
 21
141.35001
  0
LINE
  8
0
  6
CONTINUOUS
 62
     7
 10
380.675
 20
142.17174
 11
380.675
 21
141.35001
  0
LINE
  8
0
  6
CONTINUOUS
 62
     7
 10
380.075
 20
145.92609
 11
380.075
 21
144.35001
  0
LINE
  8
0
  6
CONTINUOUS
 62
     7
 10
380.675
 20
145.92609
 11
380.675
 21
144.35001
  0
ARC
  8
0
  6
CONTINUOUS
 62
     7
 10
381.575
 20
144.35001
 40
1.2
 50
306.00832
 51
53.991676
  0
ARC
  8
0
  6
CONTINUOUS
 62
     7
 10
381.575
 20
144.35001
 40
1.8
 50
306.00832
 51
53.991676
  0
ARC
  8
0
  6
CONTINUOUS
 62
     7
 10
379.175
 20
144.35001
 40
1.2
 50
126.00833
 51
233.99168
  0
ARC
  8
0
  6
CONTINUOUS
 62
     7
 10
379.175
 20
144.35001
 40
1.8
 50
126.00833
 51
233.99168
  0
ARC
  8
0
  6
CONTINUOUS
 62
     7
 10
380.375
 20
142.69885
 40
3.8411539
 50
53.991676
 51
85.520553
  0
ARC
  8
0
  6
CONTINUOUS
 62
     7
 10
380.375
 20
142.69885
 40
3.241154
 50
53.991676
 51
84.689121
  0
ARC
  8
0
  6
CONTINUOUS
 62
     7
 10
380.375
 20
146.00116
 40
3.241154
 50
233.99167
 51
306.00832
  0
ARC
  8
0
  6
CONTINUOUS
 62
     7
 10
380.375
 20
146.00116
 40
3.8411539
 50
233.99167
 51
265.52055
  0
ARC
  8
0
  6
CONTINUOUS
 62
     7
 10
380.375
 20
147.12501
 40
0.375
 50
36.869897
 51
143.1301
  0
ARC
  8
0
  6
CONTINUOUS
 62
     7
 10
380.375
 20
144.57501
 40
0.375
 50
216.8699
 51
323.1301
  0
ARC
  8
0
  6
CONTINUOUS
 62
     7
 10
380.375
 20
141.57501
 40
0.375
 50
216.8699
 51
323.1301
  0
ARC
  8
0
  6
CONTINUOUS
 62
     7
 10
380.375
 20
146.00116
 40
3.8411539
 50
274.47945
 51
306.00832
  0
ARC
  8
0
  6
CONTINUOUS
 62
     7
 10
380.375
 20
142.69885
 40
3.241154
 50
95.310878
 51
126.00833
  0
ARC
  8
0
  6
CONTINUOUS
 62
     7
 10
380.375
 20
142.69885
 40
3.8411539
 50
94.479452
 51
126.00833
  0
LINE
  8
0
  6
CONTINUOUS
 62
     7
 10
568.0478
 20
147.35001
 11
568.0478
 21
146.52827
  0
LINE
  8
0
  6
CONTINUOUS
 62
     7
 10
567.4478
 20
147.35001
 11
567.4478
 21
146.52827
  0
LINE
  8
0
  6
CONTINUOUS
 62
     7
 10
567.4478
 20
142.17174
 11
567.4478
 21
141.35001
  0
LINE
  8
0
  6
CONTINUOUS
 62
     7
 10
568.0478
 20
142.17174
 11
568.0478
 21
141.35001
  0
LINE
  8
0
  6
CONTINUOUS
 62
     7
 10
567.4478
 20
145.92609
 11
567.4478
 21
144.35001
  0
LINE
  8
0
  6
CONTINUOUS
 62
     7
 10
568.0478
 20
145.92609
 11
568.0478
 21
144.35001
  0
ARC
  8
0
  6
CONTINUOUS
 62
     7
 10
568.9478
 20
144.35001
 40
1.2
 50
306.00832
 51
53.991676
  0
ARC
  8
0
  6
CONTINUOUS
 62
     7
 10
568.9478
 20
144.35001
 40
1.8
 50
306.00832
 51
53.991676
  0
ARC
  8
0
  6
CONTINUOUS
 62
     7
 10
566.5478
 20
144.35001
 40
1.2
 50
126.00833
 51
233.99168
  0
ARC
  8
0
  6
CONTINUOUS
 62
     7
 10
566.5478
 20
144.35001
 40
1.8
 50
126.00833
 51
233.99168
  0
ARC
  8
0
  6
CONTINUOUS
 62
     7
 10
567.7478
 20
142.69885
 40
3.8411539
 50
53.991676
 51
85.520553
  0
ARC
  8
0
  6
CONTINUOUS
 62
     7
 10
567.7478
 20
142.69885
 40
3.241154
 50
53.991676
 51
84.689121
  0
ARC
  8
0
  6
CONTINUOUS
 62
     7
 10
567.7478
 20
146.00116
 40
3.241154
 50
233.99167
 51
306.00832
  0
ARC
  8
0
  6
CONTINUOUS
 62
     7
 10
567.7478
 20
146.00116
 40
3.8411539
 50
233.99167
 51
265.52055
  0
ARC
  8
0
  6
CONTINUOUS
 62
     7
 10
567.7478
 20
147.12501
 40
0.375
 50
36.869897
 51
143.1301
  0
ARC
  8
0
  6
CONTINUOUS
 62
     7
 10
567.7478
 20
144.57501
 40
0.375
 50
216.8699
 51
323.1301
  0
ARC
  8
0
  6
CONTINUOUS
 62
     7
 10
567.7478
 20
141.57501
 40
0.375
 50
216.8699
 51
323.1301
  0
ARC
  8
0
  6
CONTINUOUS
 62
     7
 10
567.7478
 20
146.00116
 40
3.8411539
 50
274.47945
 51
306.00832
  0
ARC
  8
0
  6
CONTINUOUS
 62
     7
 10
567.7478
 20
142.69885
 40
3.241154
 50
95.310878
 51
126.00833
  0
ARC
  8
0
  6
CONTINUOUS
 62
     7
 10
567.7478
 20
142.69885
 40
3.8411539
 50
94.479452
 51
126.00833
  0
LINE
  8
0
  6
CONTINUOUS
 62
     7
 10
766.4774
 20
148.85001
 11
766.4774
 21
147.61741
  0
LINE
  8
0
  6
CONTINUOUS
 62
     7
 10
765.5774
 20
148.85001
 11
765.5774
 21
147.61741
  0
LINE
  8
0
  6
CONTINUOUS
 62
     7
 10
765.5774
 20
141.08261
 11
765.5774
 21
139.85001
  0
LINE
  8
0
  6
CONTINUOUS
 62
     7
 10
766.4774
 20
141.08261
 11
766.4774
 21
139.85001
  0
LINE
  8
0
  6
CONTINUOUS
 62
     7
 10
765.5774
 20
146.71414
 11
765.5774
 21
144.35001
  0
LINE
  8
0
  6
CONTINUOUS
 62
     7
 10
766.4774
 20
146.71414
 11
766.4774
 21
144.35001
  0
ARC
  8
0
  6
CONTINUOUS
 62
     7
 10
767.8274
 20
144.35001
 40
1.8
 50
306.00832
 51
53.991676
  0
ARC
  8
0
  6
CONTINUOUS
 62
     7
 10
767.8274
 20
144.35001
 40
2.7
 50
306.00832
 51
53.991676
  0
ARC
  8
0
  6
CONTINUOUS
 62
     7
 10
764.2274
 20
144.35001
 40
1.8
 50
126.00833
 51
233.99168
  0
ARC
  8
0
  6
CONTINUOUS
 62
     7
 10
764.2274
 20
144.35001
 40
2.7
 50
126.00833
 51
233.99168
  0
ARC
  8
0
  6
CONTINUOUS
 62
     7
 10
766.0274
 20
141.87328
 40
5.7617307
 50
53.991676
 51
85.520553
  0
ARC
  8
0
  6
CONTINUOUS
 62
     7
 10
766.0274
 20
141.87328
 40
4.8617306
 50
53.991676
 51
84.689121
  0
ARC
  8
0
  6
CONTINUOUS
 62
     7
 10
766.0274
 20
146.82674
 40
4.8617306
 50
233.99167
 51
306.00832
  0
ARC
  8
0
  6
CONTINUOUS
 62
     7
 10
766.0274
 20
146.82674
 40
5.7617307
 50
233.99167
 51
265.52055
  0
ARC
  8
0
  6
CONTINUOUS
 62
     7
 10
766.0274
 20
148.51251
 40
0.5625
 50
36.869897
 51
143.1301
  0
ARC
  8
0
  6
CONTINUOUS
 62
     7
 10
766.0274
 20
144.68751
 40
0.5625
 50
216.8699
 51
323.1301
  0
ARC
  8
0
  6
CONTINUOUS
 62
     7
 10
766.0274
 20
140.18751
 40
0.5625
 50
216.8699
 51
323.1301
  0
ARC
  8
0
  6
CONTINUOUS
 62
     7
 10
766.0274
 20
141.87328
 40
5.7617307
 50
94.479452
 51
126.00833
  0
ARC
  8
0
  6
CONTINUOUS
 62
     7
 10
766.0274
 20
141.87328
 40
4.8617306
 50
95.310878
 51
126.00833
  0
ARC
  8
0
  6
CONTINUOUS
 62
     7
 10
766.0274
 20
146.82674
 40
5.7617307
 50
274.47945
 51
306.00832
  0
LINE
  8
0
  6
CONTINUOUS
 62
     7
 10
430.825
 20
31.364449
 11
430.825
 21
30.131849
  0
LINE
  8
0
  6
CONTINUOUS
 62
     7
 10
429.925
 20
31.364449
 11
429.925
 21
30.131849
  0
LINE
  8
0
  6
CONTINUOUS
 62
     7
 10
429.925
 20
23.597048
 11
429.925
 21
22.364449
  0
LINE
  8
0
  6
CONTINUOUS
 62
     7
 10
430.825
 20
23.597048
 11
430.825
 21
22.364449
  0
LINE
  8
0
  6
CONTINUOUS
 62
     7
 10
429.925
 20
29.228578
 11
429.925
 21
26.864449
  0
LINE
  8
0
  6
CONTINUOUS
 62
     7
 10
430.825
 20
29.228578
 11
430.825
 21
26.864449
  0
ARC
  8
0
  6
CONTINUOUS
 62
     7
 10
432.175
 20
26.864449
 40
1.8
 50
306.00832
 51
53.991676
  0
ARC
  8
0
  6
CONTINUOUS
 62
     7
 10
432.175
 20
26.864449
 40
2.7
 50
306.00832
 51
53.991676
  0
ARC
  8
0
  6
CONTINUOUS
 62
     7
 10
428.575
 20
26.864449
 40
1.8
 50
126.00833
 51
233.99168
  0
ARC
  8
0
  6
CONTINUOUS
 62
     7
 10
428.575
 20
26.864449
 40
2.7
 50
126.00833
 51
233.99168
  0
ARC
  8
0
  6
CONTINUOUS
 62
     7
 10
430.375
 20
24.387718
 40
5.7617307
 50
53.991676
 51
85.520553
  0
ARC
  8
0
  6
CONTINUOUS
 62
     7
 10
430.375
 20
24.387718
 40
4.8617306
 50
53.991676
 51
84.689121
  0
ARC
  8
0
  6
CONTINUOUS
 62
     7
 10
430.375
 20
29.341179
 40
4.8617306
 50
233.99167
 51
306.00832
  0
ARC
  8
0
  6
CONTINUOUS
 62
     7
 10
430.375
 20
29.341179
 40
5.7617307
 50
233.99167
 51
265.52055
  0
ARC
  8
0
  6
CONTINUOUS
 62
     7
 10
430.375
 20
31.026948
 40
0.5625
 50
36.869897
 51
143.1301
  0
ARC
  8
0
  6
CONTINUOUS
 62
     7
 10
430.375
 20
27.201949
 40
0.5625
 50
216.8699
 51
323.1301
  0
ARC
  8
0
  6
CONTINUOUS
 62
     7
 10
430.375
 20
22.701949
 40
0.5625
 50
216.8699
 51
323.1301
  0
ARC
  8
0
  6
CONTINUOUS
 62
     7
 10
430.375
 20
24.387718
 40
5.7617307
 50
94.479452
 51
126.00833
  0
ARC
  8
0
  6
CONTINUOUS
 62
     7
 10
430.375
 20
24.387718
 40
4.8617306
 50
95.310878
 51
126.00833
  0
ARC
  8
0
  6
CONTINUOUS
 62
     7
 10
430.375
 20
29.341179
 40
5.7617307
 50
274.47945
 51
306.00832
  0
LINE
  8
0
  6
CONTINUOUS
 62
     7
 10
682.86025
 20
32.864449
 11
682.86025
 21
31.220982
  0
LINE
  8
0
  6
CONTINUOUS
 62
     7
 10
681.66025
 20
32.864449
 11
681.66025
 21
31.220982
  0
LINE
  8
0
  6
CONTINUOUS
 62
     7
 10
681.66025
 20
22.507915
 11
681.66025
 21
20.864449
  0
LINE
  8
0
  6
CONTINUOUS
 62
     7
 10
682.86025
 20
22.507915
 11
682.86025
 21
20.864449
  0
LINE
  8
0
  6
CONTINUOUS
 62
     7
 10
681.66025
 20
30.016621
 11
681.66025
 21
26.864449
  0
LINE
  8
0
  6
CONTINUOUS
 62
     7
 10
682.86025
 20
30.016621
 11
682.86025
 21
26.864449
  0
ARC
  8
0
  6
CONTINUOUS
 62
     7
 10
684.66025
 20
26.864449
 40
2.4000001
 50
306.00832
 51
53.991676
  0
ARC
  8
0
  6
CONTINUOUS
 62
     7
 10
684.66025
 20
26.864449
 40
3.5999999
 50
306.00832
 51
53.991676
  0
ARC
  8
0
  6
CONTINUOUS
 62
     7
 10
679.86025
 20
26.864449
 40
2.4000001
 50
126.00833
 51
233.99168
  0
ARC
  8
0
  6
CONTINUOUS
 62
     7
 10
679.86025
 20
26.864449
 40
3.5999999
 50
126.00833
 51
233.99168
  0
ARC
  8
0
  6
CONTINUOUS
 62
     7
 10
682.26025
 20
23.562141
 40
7.6823077
 50
53.991676
 51
85.520553
  0
ARC
  8
0
  6
CONTINUOUS
 62
     7
 10
682.26025
 20
23.562141
 40
6.4823079
 50
53.991676
 51
84.689121
  0
ARC
  8
0
  6
CONTINUOUS
 62
     7
 10
682.26025
 20
30.166756
 40
6.4823079
 50
233.99167
 51
306.00832
  0
ARC
  8
0
  6
CONTINUOUS
 62
     7
 10
682.26025
 20
30.166756
 40
7.6823077
 50
233.99167
 51
265.52055
  0
ARC
  8
0
  6
CONTINUOUS
 62
     7
 10
682.26025
 20
32.414449
 40
0.75
 50
36.869897
 51
143.1301
  0
ARC
  8
0
  6
CONTINUOUS
 62
     7
 10
682.26025
 20
27.314449
 40
0.75
 50
216.8699
 51
323.1301
  0
ARC
  8
0
  6
CONTINUOUS
 62
     7
 10
682.26025
 20
21.314448
 40
0.75
 50
216.8699
 51
323.1301
  0
ARC
  8
0
  6
CONTINUOUS
 62
     7
 10
682.26025
 20
23.562141
 40
6.4823079
 50
95.310878
 51
126.00833
  0
ARC
  8
0
  6
CONTINUOUS
 62
     7
 10
682.26025
 20
23.562141
 40
7.6823077
 50
94.479452
 51
126.00833
  0
ARC
  8
0
  6
CONTINUOUS
 62
     7
 10
682.26025
 20
30.166756
 40
7.6823077
 50
274.47945
 51
306.00832
  0
LINE
  8
0
  6
CONTINUOUS
 62
     7
 10
410.975
 20
-100.88996
 11
410.975
 21
-102.53343
  0
LINE
  8
0
  6
CONTINUOUS
 62
     7
 10
409.775
 20
-100.88996
 11
409.775
 21
-102.53343
  0
LINE
  8
0
  6
CONTINUOUS
 62
     7
 10
409.775
 20
-111.24649
 11
409.775
 21
-112.88996
  0
LINE
  8
0
  6
CONTINUOUS
 62
     7
 10
410.975
 20
-111.24649
 11
410.975
 21
-112.88996
  0
LINE
  8
0
  6
CONTINUOUS
 62
     7
 10
409.775
 20
-103.73779
 11
409.775
 21
-106.88996
  0
LINE
  8
0
  6
CONTINUOUS
 62
     7
 10
410.975
 20
-103.73779
 11
410.975
 21
-106.88996
  0
ARC
  8
0
  6
CONTINUOUS
 62
     7
 10
412.775
 20
-106.88996
 40
2.4000001
 50
306.00832
 51
53.991676
  0
ARC
  8
0
  6
CONTINUOUS
 62
     7
 10
412.775
 20
-106.88996
 40
3.5999999
 50
306.00832
 51
53.991676
  0
ARC
  8
0
  6
CONTINUOUS
 62
     7
 10
407.975
 20
-106.88996
 40
2.4000001
 50
126.00833
 51
233.99168
  0
ARC
  8
0
  6
CONTINUOUS
 62
     7
 10
407.975
 20
-106.88996
 40
3.5999999
 50
126.00833
 51
233.99168
  0
ARC
  8
0
  6
CONTINUOUS
 62
     7
 10
410.375
 20
-110.19227
 40
7.6823077
 50
53.991676
 51
85.520553
  0
ARC
  8
0
  6
CONTINUOUS
 62
     7
 10
410.375
 20
-110.19227
 40
6.4823079
 50
53.991676
 51
84.689121
  0
ARC
  8
0
  6
CONTINUOUS
 62
     7
 10
410.375
 20
-103.58765
 40
6.4823079
 50
233.99167
 51
306.00832
  0
ARC
  8
0
  6
CONTINUOUS
 62
     7
 10
410.375
 20
-103.58765
 40
7.6823077
 50
233.99167
 51
265.52055
  0
ARC
  8
0
  6
CONTINUOUS
 62
     7
 10
410.375
 20
-101.33996
 40
0.75
 50
36.869897
 51
143.1301
  0
ARC
  8
0
  6
CONTINUOUS
 62
     7
 10
410.375
 20
-106.43996
 40
0.75
 50
216.8699
 51
323.1301
  0
ARC
  8
0
  6
CONTINUOUS
 62
     7
 10
410.375
 20
-112.43996
 40
0.75
 50
216.8699
 51
323.1301
  0
ARC
  8
0
  6
CONTINUOUS
 62
     7
 10
410.375
 20
-110.19227
 40
6.4823079
 50
95.310878
 51
126.00833
  0
ARC
  8
0
  6
CONTINUOUS
 62
     7
 10
410.375
 20
-110.19227
 40
7.6823077
 50
94.479452
 51
126.00833
  0
ARC
  8
0
  6
CONTINUOUS
 62
     7
 10
410.375
 20
-103.58765
 40
7.6823077
 50
274.47945
 51
306.00832
  0
LINE
  8
0
  6
CONTINUOUS
 62
     7
 10
690.725
 20
-100.88996
 11
690.725
 21
-102.53343
  0
LINE
  8
0
  6
CONTINUOUS
 62
     7
 10
689.525
 20
-100.88996
 11
689.525
 21
-102.53343
  0
LINE
  8
0
  6
CONTINUOUS
 62
     7
 10
689.525
 20
-111.24649
 11
689.525
 21
-112.88996
  0
LINE
  8
0
  6
CONTINUOUS
 62
     7
 10
690.725
 20
-111.24649
 11
690.725
 21
-112.88996
  0
LINE
  8
0
  6
CONTINUOUS
 62
     7
 10
689.525
 20
-103.73779
 11
689.525
 21
-106.88996
  0
LINE
  8
0
  6
CONTINUOUS
 62
     7
 10
690.725
 20
-103.73779
 11
690.725
 21
-106.88996
  0
ARC
  8
0
  6
CONTINUOUS
 62
     7
 10
692.525
 20
-106.88996
 40
2.4000001
 50
306.00832
 51
53.991676
  0
ARC
  8
0
  6
CONTINUOUS
 62
     7
 10
692.525
 20
-106.88996
 40
3.5999999
 50
306.00832
 51
53.991676
  0
ARC
  8
0
  6
CONTINUOUS
 62
     7
 10
687.725
 20
-106.88996
 40
2.4000001
 50
126.00833
 51
233.99168
  0
ARC
  8
0
  6
CONTINUOUS
 62
     7
 10
687.725
 20
-106.88996
 40
3.5999999
 50
126.00833
 51
233.99168
  0
ARC
  8
0
  6
CONTINUOUS
 62
     7
 10
690.125
 20
-110.19227
 40
7.6823077
 50
53.991676
 51
85.520553
  0
ARC
  8
0
  6
CONTINUOUS
 62
     7
 10
690.125
 20
-110.19227
 40
6.4823079
 50
53.991676
 51
84.689121
  0
ARC
  8
0
  6
CONTINUOUS
 62
     7
 10
690.125
 20
-103.58765
 40
6.4823079
 50
233.99167
 51
306.00832
  0
ARC
  8
0
  6
CONTINUOUS
 62
     7
 10
690.125
 20
-103.58765
 40
7.6823077
 50
233.99167
 51
265.52055
  0
ARC
  8
0
  6
CONTINUOUS
 62
     7
 10
690.125
 20
-101.33996
 40
0.75
 50
36.869897
 51
143.1301
  0
ARC
  8
0
  6
CONTINUOUS
 62
     7
 10
690.125
 20
-106.43996
 40
0.75
 50
216.8699
 51
323.1301
  0
ARC
  8
0
  6
CONTINUOUS
 62
     7
 10
690.125
 20
-112.43996
 40
0.75
 50
216.8699
 51
323.1301
  0
ARC
  8
0
  6
CONTINUOUS
 62
     7
 10
690.125
 20
-110.19227
 40
6.4823079
 50
95.310878
 51
126.00833
  0
ARC
  8
0
  6
CONTINUOUS
 62
     7
 10
690.125
 20
-110.19227
 40
7.6823077
 50
94.479452
 51
126.00833
  0
ARC
  8
0
  6
CONTINUOUS
 62
     7
 10
690.125
 20
-103.58765
 40
7.6823077
 50
274.47945
 51
306.00832
  0
ENDSEC
  0
EOF
