  0
SECTION
  2
HEADER
  9
$EXTMAX
 10
297
 20
210
  9
$EXTMIN
 10
-297
 20
-210
  0
ENDSEC
  0
SECTION
  2
TABLES
  0
TABLE
  2
LTYPE
 70
    22
  0
LTYPE
  2
CONTINUOUS
 70
    64
  3
Solid line
 72
    65
 73
     0
 40
0.000000
  0
LTYPE
  2
DASHED
 70
    64
  3
__ __ __ __ __ __ __ __ __ __ __ __ __ __ __
 72
    65
 73
     2
 40
3.500000
 49
2.000000
 49
-1.500000
  0
LTYPE
  2
CENTER
 70
    64
  3
____ _ ____ _ ____ _ ____ _ ____ _ ____ _ ____
 72
    65
 73
     4
 40
17.500000
 49
13.000000
 49
-1.500000
 49
1.500000
 49
-1.500000
  0
LTYPE
  2
PHANTOM
 70
    64
  3
_____ _ _ _____ _ _ _____ _ _ _____ _ _ ____  
 72
    65
 73
     6
 40
15.500000
 49
8.000000
 49
-1.500000
 49
1.500000
 49
-1.500000
 49
1.500000
 49
-1.500000
  0
LTYPE
  2
DOT
 70
    64
  3
. . . . . . . . . . . . . . . . . . . . . . . .
 72
    65
 73
     2
 40
0.25
 49
0.0
 49
-0.25
  0
ENDTAB
  0
TABLE
  2
LAYER
 70
     1
  0
LAYER
  2
0
 70
     0
 62
     7
  6
CONTINUOUS
  0
ENDTAB
  0
TABLE
  2
STYLE
 70
     1
  0
STYLE
  2
STANDARD
 70
     0
 40
0.000000
 41
1.000000
 50
0.000000
 71
     0
 42
0.200000
  3
txt
  4
BIGFONT
  0
ENDTAB
  0
TABLE
  2
VIEW
 70
     0
  0
ENDTAB
  0
ENDSEC
  0
SECTION
  2
BLOCKS
  0
ENDSEC
  0
SECTION
  2
ENTITIES
  0
POINT
  8
0
  6
CONTINUOUS
 62
     7
 10
-165.92896
 20
141.63797
  0
POINT
  8
0
  6
CONTINUOUS
 62
     7
 10
-65.92894
 20
141.63797
  0
POINT
  8
0
  6
CONTINUOUS
 62
     7
 10
53.688404
 20
133.85397
  0
POINT
  8
0
  6
CONTINUOUS
 62
     7
 10
163.6884
 20
133.85397
  0
POINT
  8
0
  6
CONTINUOUS
 62
     7
 10
97.226273
 20
13.908968
  0
POINT
  8
0
  6
CONTINUOUS
 62
     7
 10
217.22629
 20
13.908968
  0
POINT
  8
0
  6
CONTINUOUS
 62
     7
 10
-59.487183
 20
15.412845
  0
POINT
  8
0
  6
CONTINUOUS
 62
     7
 10
-179.48717
 20
15.412845
  0
POINT
  8
0
  6
CONTINUOUS
 62
     7
 10
-180.2581
 20
-121.44
  0
POINT
  8
0
  6
CONTINUOUS
 62
     7
 10
-60.258106
 20
-121.44
  0
POINT
  8
0
  6
CONTINUOUS
 62
     7
 10
67.675865
 20
-119.93613
  0
POINT
  8
0
  6
CONTINUOUS
 62
     7
 10
197.67587
 20
-119.93613
  0
POINT
  8
0
  6
CONTINUOUS
 62
     7
 10
-201.85378
 20
-318.50641
  0
POINT
  8
0
  6
CONTINUOUS
 62
     7
 10
-61.853779
 20
-318.50641
  0
POINT
  8
0
  6
CONTINUOUS
 62
     7
 10
62.828659
 20
-317.00253
  0
POINT
  8
0
  6
CONTINUOUS
 62
     7
 10
202.82866
 20
-317.00253
  0
POINT
  8
0
  6
CONTINUOUS
 62
     7
 10
-201.85378
 20
-509.49884
  0
POINT
  8
0
  6
CONTINUOUS
 62
     7
 10
-61.853779
 20
-509.49884
  0
POINT
  8
0
  6
CONTINUOUS
 62
     7
 10
83.882942
 20
-514.0105
  0
POINT
  8
0
  6
CONTINUOUS
 62
     7
 10
223.88295
 20
-514.0105
  0
POINT
  8
0
  6
CONTINUOUS
 62
     7
 10
-213.90311
 20
-773.29041
  0
POINT
  8
0
  6
CONTINUOUS
 62
     7
 10
-73.903137
 20
-773.29041
  0
POINT
  8
0
  6
CONTINUOUS
 62
     7
 10
83.230469
 20
-773.29041
  0
POINT
  8
0
  6
CONTINUOUS
 62
     7
 10
223.23047
 20
-773.29041
  0
POINT
  8
0
  6
CONTINUOUS
 62
     7
 10
85.586365
 20
-969.7074
  0
POINT
  8
0
  6
CONTINUOUS
 62
     7
 10
235.58636
 20
-969.7074
  0
POINT
  8
0
  6
CONTINUOUS
 62
     7
 10
-70.503113
 20
-968.09039
  0
POINT
  8
0
  6
CONTINUOUS
 62
     7
 10
-210.50308
 20
-968.09039
  0
POINT
  8
0
  6
CONTINUOUS
 62
     7
 10
-70.893517
 20
-1211.4082
  0
POINT
  8
0
  6
CONTINUOUS
 62
     7
 10
69.106483
 20
-1211.4082
  0
POINT
  8
0
  6
CONTINUOUS
 62
     7
 10
-83.61615
 20
-1399.8516
  0
POINT
  8
0
  6
CONTINUOUS
 62
     7
 10
116.38385
 20
-1399.8516
  0
POINT
  8
0
  6
CONTINUOUS
 62
     7
 10
-81.880257
 20
-1759.6444
  0
POINT
  8
0
  6
CONTINUOUS
 62
     7
 10
118.11974
 20
-1759.6444
  0
POINT
  8
0
  6
CONTINUOUS
 62
     7
 10
701.81787
 20
-336.8736
  0
POINT
  8
0
  6
CONTINUOUS
 62
     7
 10
418.79239
 20
-522.12769
  0
POINT
  8
0
  6
CONTINUOUS
 62
     7
 10
703.47418
 20
-515.08673
  0
POINT
  8
0
  6
CONTINUOUS
 62
     7
 10
402.84839
 20
-771.15771
  0
POINT
  8
0
  6
CONTINUOUS
 62
     7
 10
692.11804
 20
-769.63928
  0
POINT
  8
0
  6
CONTINUOUS
 62
     7
 10
709.28033
 20
-980.7074
  0
POINT
  8
0
  6
CONTINUOUS
 62
     7
 10
421.82932
 20
-980.7074
  0
POINT
  8
0
  6
CONTINUOUS
 62
     7
 10
529.64111
 20
-1209.9973
  0
POINT
  8
0
  6
CONTINUOUS
 62
     7
 10
529.64111
 20
-1407.3992
  0
POINT
  8
0
  6
CONTINUOUS
 62
     7
 10
527.3634
 20
-1752.0933
  0
POINT
  8
0
  6
CONTINUOUS
 62
     7
 10
442.86188
 20
135.39999
  0
POINT
  8
0
  6
CONTINUOUS
 62
     7
 10
707.43689
 20
135.39999
  0
POINT
  8
0
  6
CONTINUOUS
 62
     7
 10
411.31265
 20
10.600776
  0
POINT
  8
0
  6
CONTINUOUS
 62
     7
 10
706.93549
 20
1.9230301
  0
POINT
  8
0
  6
CONTINUOUS
 62
     7
 10
422.78363
 20
-338.31729
  0
POINT
  8
0
  6
CONTINUOUS
 62
     7
 10
696.52216
 20
-129.9787
  0
POINT
  8
0
  6
CONTINUOUS
 62
     7
 10
416.52216
 20
-129.9787
  0
POINT
  8
0
  6
CONTINUOUS
 62
     7
 10
562.86188
 20
135.39999
  0
POINT
  8
0
  6
CONTINUOUS
 62
     7
 10
531.31268
 20
10.600776
  0
POINT
  8
0
  6
CONTINUOUS
 62
     7
 10
836.52216
 20
-129.9787
  0
POINT
  8
0
  6
CONTINUOUS
 62
     7
 10
843.47418
 20
-515.08673
  0
POINT
  8
0
  6
CONTINUOUS
 62
     7
 10
679.64111
 20
-1209.9973
  0
POINT
  8
0
  6
CONTINUOUS
 62
     7
 10
729.64111
 20
-1407.3992
  0
POINT
  8
0
  6
CONTINUOUS
 62
     7
 10
747.3634
 20
-1752.0933
  0
POINT
  8
0
  6
CONTINUOUS
 62
     7
 10
849.28033
 20
-980.7074
  0
POINT
  8
0
  6
CONTINUOUS
 62
     7
 10
561.82935
 20
-980.7074
  0
POINT
  8
0
  6
CONTINUOUS
 62
     7
 10
832.1181
 20
-769.63928
  0
POINT
  8
0
  6
CONTINUOUS
 62
     7
 10
542.84839
 20
-771.15771
  0
POINT
  8
0
  6
CONTINUOUS
 62
     7
 10
558.79236
 20
-522.12769
  0
POINT
  8
0
  6
CONTINUOUS
 62
     7
 10
831.81787
 20
-336.8736
  0
POINT
  8
0
  6
CONTINUOUS
 62
     7
 10
562.78363
 20
-338.31729
  0
POINT
  8
0
  6
CONTINUOUS
 62
     7
 10
556.52216
 20
-129.9787
  0
POINT
  8
0
  6
CONTINUOUS
 62
     7
 10
846.93549
 20
1.9230301
  0
POINT
  8
0
  6
CONTINUOUS
 62
     7
 10
827.43689
 20
135.39999
  0
POINT
  8
0
  6
CONTINUOUS
 62
     7
 10
-148.00308
 20
-968.09039
  0
POINT
  8
0
  6
CONTINUOUS
 62
     7
 10
-140.39352
 20
-1211.4082
  0
POINT
  8
0
  6
CONTINUOUS
 62
     7
 10
-1.3935165
 20
-1211.4082
  0
POINT
  8
0
  6
CONTINUOUS
 62
     7
 10
-1.3935165
 20
-1211.4082
  0
POINT
  8
0
  6
CONTINUOUS
 62
     7
 10
-140.39352
 20
-1211.4082
  0
POINT
  8
0
  6
CONTINUOUS
 62
     7
 10
392.86188
 20
135.39999
  0
POINT
  8
0
  6
CONTINUOUS
 62
     7
 10
392.86188
 20
135.39999
  0
POINT
  8
0
  6
CONTINUOUS
 62
     7
 10
492.86188
 20
135.39999
  0
POINT
  8
0
  6
CONTINUOUS
 62
     7
 10
492.86188
 20
135.39999
  0
POINT
  8
0
  6
CONTINUOUS
 62
     7
 10
654.93689
 20
135.39999
  0
POINT
  8
0
  6
CONTINUOUS
 62
     7
 10
759.93689
 20
135.39999
  0
POINT
  8
0
  6
CONTINUOUS
 62
     7
 10
654.93689
 20
135.39999
  0
POINT
  8
0
  6
CONTINUOUS
 62
     7
 10
759.93689
 20
135.39999
  0
POINT
  8
0
  6
CONTINUOUS
 62
     7
 10
355.81265
 20
10.600776
  0
POINT
  8
0
  6
CONTINUOUS
 62
     7
 10
466.81265
 20
10.600776
  0
POINT
  8
0
  6
CONTINUOUS
 62
     7
 10
355.81265
 20
10.600776
  0
POINT
  8
0
  6
CONTINUOUS
 62
     7
 10
466.81265
 20
10.600776
  0
POINT
  8
0
  6
CONTINUOUS
 62
     7
 10
651.43549
 20
1.9230301
  0
POINT
  8
0
  6
CONTINUOUS
 62
     7
 10
762.43549
 20
1.9230301
  0
POINT
  8
0
  6
CONTINUOUS
 62
     7
 10
651.43549
 20
1.9230301
  0
POINT
  8
0
  6
CONTINUOUS
 62
     7
 10
762.43549
 20
1.9230301
  0
POINT
  8
0
  6
CONTINUOUS
 62
     7
 10
358.02216
 20
-129.9787
  0
POINT
  8
0
  6
CONTINUOUS
 62
     7
 10
475.02216
 20
-129.9787
  0
POINT
  8
0
  6
CONTINUOUS
 62
     7
 10
358.02216
 20
-129.9787
  0
POINT
  8
0
  6
CONTINUOUS
 62
     7
 10
475.02216
 20
-129.9787
  0
POINT
  8
0
  6
CONTINUOUS
 62
     7
 10
635.02216
 20
-129.9787
  0
POINT
  8
0
  6
CONTINUOUS
 62
     7
 10
758.02216
 20
-129.9787
  0
POINT
  8
0
  6
CONTINUOUS
 62
     7
 10
758.02216
 20
-129.9787
  0
POINT
  8
0
  6
CONTINUOUS
 62
     7
 10
635.02216
 20
-129.9787
  0
POINT
  8
0
  6
CONTINUOUS
 62
     7
 10
364.28363
 20
-338.31729
  0
POINT
  8
0
  6
CONTINUOUS
 62
     7
 10
364.28363
 20
-338.31729
  0
POINT
  8
0
  6
CONTINUOUS
 62
     7
 10
481.28363
 20
-338.31729
  0
POINT
  8
0
  6
CONTINUOUS
 62
     7
 10
481.28363
 20
-338.31729
  0
POINT
  8
0
  6
CONTINUOUS
 62
     7
 10
640.31787
 20
-336.8736
  0
POINT
  8
0
  6
CONTINUOUS
 62
     7
 10
640.31787
 20
-336.8736
  0
POINT
  8
0
  6
CONTINUOUS
 62
     7
 10
640.31787
 20
-336.8736
  0
POINT
  8
0
  6
CONTINUOUS
 62
     7
 10
763.31787
 20
-336.8736
  0
POINT
  8
0
  6
CONTINUOUS
 62
     7
 10
763.31787
 20
-336.8736
  0
POINT
  8
0
  6
CONTINUOUS
 62
     7
 10
354.29239
 20
-522.12769
  0
POINT
  8
0
  6
CONTINUOUS
 62
     7
 10
354.29239
 20
-522.12769
  0
POINT
  8
0
  6
CONTINUOUS
 62
     7
 10
483.29239
 20
-522.12769
  0
POINT
  8
0
  6
CONTINUOUS
 62
     7
 10
483.29239
 20
-522.12769
  0
POINT
  8
0
  6
CONTINUOUS
 62
     7
 10
634.97418
 20
-515.08673
  0
POINT
  8
0
  6
CONTINUOUS
 62
     7
 10
634.97418
 20
-515.08673
  0
POINT
  8
0
  6
CONTINUOUS
 62
     7
 10
771.97418
 20
-515.08673
  0
POINT
  8
0
  6
CONTINUOUS
 62
     7
 10
771.97418
 20
-515.08673
  0
POINT
  8
0
  6
CONTINUOUS
 62
     7
 10
340.84839
 20
-771.15771
  0
POINT
  8
0
  6
CONTINUOUS
 62
     7
 10
340.84839
 20
-771.15771
  0
POINT
  8
0
  6
CONTINUOUS
 62
     7
 10
464.84839
 20
-771.15771
  0
POINT
  8
0
  6
CONTINUOUS
 62
     7
 10
464.84839
 20
-771.15771
  0
POINT
  8
0
  6
CONTINUOUS
 62
     7
 10
627.11804
 20
-769.63928
  0
POINT
  8
0
  6
CONTINUOUS
 62
     7
 10
627.11804
 20
-769.63928
  0
POINT
  8
0
  6
CONTINUOUS
 62
     7
 10
757.11804
 20
-769.63928
  0
POINT
  8
0
  6
CONTINUOUS
 62
     7
 10
757.11804
 20
-769.63928
  0
POINT
  8
0
  6
CONTINUOUS
 62
     7
 10
353.82932
 20
-980.7074
  0
POINT
  8
0
  6
CONTINUOUS
 62
     7
 10
353.82932
 20
-980.7074
  0
POINT
  8
0
  6
CONTINUOUS
 62
     7
 10
489.82932
 20
-980.7074
  0
POINT
  8
0
  6
CONTINUOUS
 62
     7
 10
491.82932
 20
-980.7074
  0
POINT
  8
0
  6
CONTINUOUS
 62
     7
 10
637.28033
 20
-980.7074
  0
POINT
  8
0
  6
CONTINUOUS
 62
     7
 10
781.28033
 20
-980.7074
  0
POINT
  8
0
  6
CONTINUOUS
 62
     7
 10
781.28033
 20
-980.7074
  0
POINT
  8
0
  6
CONTINUOUS
 62
     7
 10
637.28033
 20
-980.7074
  0
POINT
  8
0
  6
CONTINUOUS
 62
     7
 10
454.64111
 20
-1209.9973
  0
POINT
  8
0
  6
CONTINUOUS
 62
     7
 10
454.64111
 20
-1209.9973
  0
POINT
  8
0
  6
CONTINUOUS
 62
     7
 10
604.64111
 20
-1209.9973
  0
POINT
  8
0
  6
CONTINUOUS
 62
     7
 10
604.64111
 20
-1209.9973
  0
LINE
  8
0
  6
CENTER
 62
     7
 10
62.828659
 20
-283.22754
 11
62.828659
 21
-366.52753
  0
LINE
  8
0
  6
CENTER
 62
     7
 10
0.4523775
 20
-317.00253
 11
130.19115
 21
-317.00253
  0
LINE
  8
0
  6
CONTINUOUS
 62
     7
 10
30.658798
 20
-287.00253
 11
94.99852
 21
-287.00253
  0
LINE
  8
0
  6
CONTINUOUS
 62
     7
 10
85.328659
 20
-347.00253
 11
94.99852
 21
-347.00253
  0
LINE
  8
0
  6
CONTINUOUS
 62
     7
 10
40.328659
 20
-347.00253
 11
30.658798
 21
-347.00253
  0
LINE
  8
0
  6
CONTINUOUS
 62
     7
 10
46.328659
 20
-362.50253
 11
79.328659
 21
-362.50253
  0
LINE
  8
0
  6
CONTINUOUS
 62
     7
 10
79.328659
 20
-353.00253
 11
79.328659
 21
-362.50253
  0
LINE
  8
0
  6
CONTINUOUS
 62
     7
 10
46.328659
 20
-353.00253
 11
46.328659
 21
-362.50253
  0
LINE
  8
0
  6
CONTINUOUS
 62
     7
 10
119.07866
 20
-282.50253
 11
119.07866
 21
-351.50253
  0
LINE
  8
0
  6
CONTINUOUS
 62
     7
 10
98.078659
 20
-317.00253
 11
118.07866
 21
-317.00253
  0
LINE
  8
0
  6
CONTINUOUS
 62
     7
 10
97.078659
 20
-282.50253
 11
97.078659
 21
-351.50253
  0
LINE
  8
0
  6
CONTINUOUS
 62
     7
 10
99.078659
 20
-280.50253
 11
117.07866
 21
-280.50253
  0
LINE
  8
0
  6
CONTINUOUS
 62
     7
 10
99.078659
 20
-353.50253
 11
117.07866
 21
-353.50253
  0
LINE
  8
0
  6
CONTINUOUS
 62
     7
 10
98.078659
 20
-294.44431
 11
118.07866
 21
-294.44431
  0
LINE
  8
0
  6
CONTINUOUS
 62
     7
 10
98.078659
 20
-339.56079
 11
118.07866
 21
-339.56079
  0
LINE
  8
0
  6
CONTINUOUS
 62
     7
 10
97.078651
 20
-282.5025
 11
99.078651
 21
-280.5025
  0
LINE
  8
0
  6
CONTINUOUS
 62
     7
 10
117.07864
 20
-280.50253
 11
119.07865
 21
-282.50253
  0
LINE
  8
0
  6
CONTINUOUS
 62
     7
 10
97.078667
 20
-351.50253
 11
99.078667
 21
-353.50253
  0
LINE
  8
0
  6
CONTINUOUS
 62
     7
 10
119.07867
 20
-351.50253
 11
117.07867
 21
-353.50253
  0
LINE
  8
0
  6
CONTINUOUS
 62
     7
 10
26.578659
 20
-353.50253
 11
8.5786591
 21
-353.50253
  0
LINE
  8
0
  6
CONTINUOUS
 62
     7
 10
6.5786591
 20
-282.50253
 11
6.5786591
 21
-351.50253
  0
LINE
  8
0
  6
CONTINUOUS
 62
     7
 10
27.578659
 20
-317.00253
 11
7.5786591
 21
-317.00253
  0
LINE
  8
0
  6
CONTINUOUS
 62
     7
 10
28.578659
 20
-282.50253
 11
28.578659
 21
-351.50253
  0
LINE
  8
0
  6
CONTINUOUS
 62
     7
 10
26.578659
 20
-280.50253
 11
8.5786591
 21
-280.50253
  0
LINE
  8
0
  6
CONTINUOUS
 62
     7
 10
27.578659
 20
-294.44431
 11
7.5786591
 21
-294.44431
  0
LINE
  8
0
  6
CONTINUOUS
 62
     7
 10
27.578659
 20
-339.56079
 11
7.5786591
 21
-339.56079
  0
LINE
  8
0
  6
CONTINUOUS
 62
     7
 10
28.578655
 20
-282.50253
 11
26.578653
 21
-280.50253
  0
LINE
  8
0
  6
CONTINUOUS
 62
     7
 10
8.5786448
 20
-280.50253
 11
6.5786428
 21
-282.50253
  0
LINE
  8
0
  6
CONTINUOUS
 62
     7
 10
28.578651
 20
-351.50253
 11
26.578648
 21
-353.50253
  0
LINE
  8
0
  6
CONTINUOUS
 62
     7
 10
6.5786457
 20
-351.5025
 11
8.5786476
 21
-353.5025
  0
LINE
  8
0
  6
CENTER
 62
     7
 10
-272.91629
 20
-509.49884
 11
-139.28004
 21
-509.49884
  0
LINE
  8
0
  6
CENTER
 62
     7
 10
-201.85378
 20
-475.72385
 11
-201.85378
 21
-560.42383
  0
LINE
  8
0
  6
CONTINUOUS
 62
     7
 10
-237.02364
 20
-479.49884
 11
-166.68391
 21
-479.49884
  0
LINE
  8
0
  6
CONTINUOUS
 62
     7
 10
-237.02364
 20
-539.49884
 11
-228.35378
 21
-539.49884
  0
LINE
  8
0
  6
CONTINUOUS
 62
     7
 10
-175.35378
 20
-539.49884
 11
-166.68391
 21
-539.49884
  0
LINE
  8
0
  6
CONTINUOUS
 62
     7
 10
-222.35378
 20
-556.99884
 11
-181.35378
 21
-556.99884
  0
LINE
  8
0
  6
CONTINUOUS
 62
     7
 10
-181.35378
 20
-545.49884
 11
-181.35378
 21
-556.99884
  0
LINE
  8
0
  6
CONTINUOUS
 62
     7
 10
-222.35378
 20
-545.49884
 11
-222.35378
 21
-556.99884
  0
LINE
  8
0
  6
CONTINUOUS
 62
     7
 10
-142.60378
 20
-474.99884
 11
-142.60378
 21
-543.99884
  0
LINE
  8
0
  6
CONTINUOUS
 62
     7
 10
-163.60378
 20
-509.49884
 11
-143.60378
 21
-509.49884
  0
LINE
  8
0
  6
CONTINUOUS
 62
     7
 10
-164.60378
 20
-474.99884
 11
-164.60378
 21
-543.99884
  0
LINE
  8
0
  6
CONTINUOUS
 62
     7
 10
-162.60378
 20
-472.99884
 11
-144.60378
 21
-472.99884
  0
LINE
  8
0
  6
CONTINUOUS
 62
     7
 10
-162.60378
 20
-545.99884
 11
-144.60378
 21
-545.99884
  0
LINE
  8
0
  6
CONTINUOUS
 62
     7
 10
-163.60378
 20
-486.94061
 11
-143.60378
 21
-486.94061
  0
LINE
  8
0
  6
CONTINUOUS
 62
     7
 10
-163.60378
 20
-532.05707
 11
-143.60378
 21
-532.05707
  0
LINE
  8
0
  6
CONTINUOUS
 62
     7
 10
-164.60381
 20
-474.99884
 11
-162.60381
 21
-472.99884
  0
LINE
  8
0
  6
CONTINUOUS
 62
     7
 10
-144.60376
 20
-472.99881
 11
-142.60379
 21
-474.99881
  0
LINE
  8
0
  6
CONTINUOUS
 62
     7
 10
-164.60381
 20
-543.99884
 11
-162.60381
 21
-545.99884
  0
LINE
  8
0
  6
CONTINUOUS
 62
     7
 10
-142.60379
 20
-543.99884
 11
-144.60379
 21
-545.99884
  0
LINE
  8
0
  6
CONTINUOUS
 62
     7
 10
-261.10379
 20
-474.99884
 11
-261.10379
 21
-543.99884
  0
LINE
  8
0
  6
CONTINUOUS
 62
     7
 10
-240.10378
 20
-509.49884
 11
-260.10379
 21
-509.49884
  0
LINE
  8
0
  6
CONTINUOUS
 62
     7
 10
-239.10378
 20
-474.99884
 11
-239.10378
 21
-543.99884
  0
LINE
  8
0
  6
CONTINUOUS
 62
     7
 10
-241.10378
 20
-472.99884
 11
-259.10379
 21
-472.99884
  0
LINE
  8
0
  6
CONTINUOUS
 62
     7
 10
-241.10378
 20
-545.99884
 11
-259.10379
 21
-545.99884
  0
LINE
  8
0
  6
CONTINUOUS
 62
     7
 10
-240.10378
 20
-486.94061
 11
-260.10379
 21
-486.94061
  0
LINE
  8
0
  6
CONTINUOUS
 62
     7
 10
-240.10378
 20
-532.05707
 11
-260.10379
 21
-532.05707
  0
LINE
  8
0
  6
CONTINUOUS
 62
     7
 10
-239.10384
 20
-474.99887
 11
-241.10384
 21
-472.99887
  0
LINE
  8
0
  6
CONTINUOUS
 62
     7
 10
-259.10379
 20
-472.99884
 11
-261.10379
 21
-474.99884
  0
LINE
  8
0
  6
CONTINUOUS
 62
     7
 10
-239.10379
 20
-543.99884
 11
-241.10381
 21
-545.99884
  0
LINE
  8
0
  6
CONTINUOUS
 62
     7
 10
-261.10379
 20
-543.99884
 11
-259.10379
 21
-545.99884
  0
LINE
  8
0
  6
CENTER
 62
     7
 10
83.882942
 20
-479.88547
 11
83.882942
 21
-565.31049
  0
LINE
  8
0
  6
CENTER
 62
     7
 10
14.169138
 20
-514.0105
 11
149.79414
 21
-514.0105
  0
LINE
  8
0
  6
CONTINUOUS
 62
     7
 10
44.713081
 20
-484.01047
 11
123.0528
 21
-484.01047
  0
LINE
  8
0
  6
CONTINUOUS
 62
     7
 10
114.88294
 20
-544.0105
 11
123.0528
 21
-544.0105
  0
LINE
  8
0
  6
CONTINUOUS
 62
     7
 10
52.882942
 20
-544.0105
 11
44.713081
 21
-544.0105
  0
LINE
  8
0
  6
CONTINUOUS
 62
     7
 10
58.882942
 20
-564.0105
 11
108.88294
 21
-564.0105
  0
LINE
  8
0
  6
CONTINUOUS
 62
     7
 10
108.88294
 20
-550.0105
 11
108.88294
 21
-564.0105
  0
LINE
  8
0
  6
CONTINUOUS
 62
     7
 10
58.882942
 20
-550.0105
 11
58.882942
 21
-564.0105
  0
LINE
  8
0
  6
CONTINUOUS
 62
     7
 10
147.38295
 20
-479.51047
 11
147.38295
 21
-548.5105
  0
LINE
  8
0
  6
CONTINUOUS
 62
     7
 10
126.38294
 20
-514.0105
 11
146.38295
 21
-514.0105
  0
LINE
  8
0
  6
CONTINUOUS
 62
     7
 10
125.38294
 20
-479.51047
 11
125.38294
 21
-548.5105
  0
LINE
  8
0
  6
CONTINUOUS
 62
     7
 10
127.38294
 20
-477.51047
 11
145.38295
 21
-477.51047
  0
LINE
  8
0
  6
CONTINUOUS
 62
     7
 10
127.38294
 20
-550.5105
 11
145.38295
 21
-550.5105
  0
LINE
  8
0
  6
CONTINUOUS
 62
     7
 10
126.38294
 20
-491.45224
 11
146.38295
 21
-491.45224
  0
LINE
  8
0
  6
CONTINUOUS
 62
     7
 10
126.38294
 20
-536.56873
 11
146.38295
 21
-536.56873
  0
LINE
  8
0
  6
CONTINUOUS
 62
     7
 10
125.38295
 20
-479.5105
 11
127.38295
 21
-477.5105
  0
LINE
  8
0
  6
CONTINUOUS
 62
     7
 10
145.38293
 20
-477.5105
 11
147.38293
 21
-479.5105
  0
LINE
  8
0
  6
CONTINUOUS
 62
     7
 10
125.38291
 20
-548.51044
 11
127.38291
 21
-550.51044
  0
LINE
  8
0
  6
CONTINUOUS
 62
     7
 10
147.38293
 20
-548.5105
 11
145.38292
 21
-550.5105
  0
LINE
  8
0
  6
CONTINUOUS
 62
     7
 10
20.382944
 20
-479.51047
 11
20.382944
 21
-548.5105
  0
LINE
  8
0
  6
CONTINUOUS
 62
     7
 10
41.382942
 20
-514.0105
 11
21.382944
 21
-514.0105
  0
LINE
  8
0
  6
CONTINUOUS
 62
     7
 10
42.382942
 20
-479.51047
 11
42.382942
 21
-548.5105
  0
LINE
  8
0
  6
CONTINUOUS
 62
     7
 10
40.382942
 20
-477.51047
 11
22.382944
 21
-477.51047
  0
LINE
  8
0
  6
CONTINUOUS
 62
     7
 10
40.382942
 20
-550.5105
 11
22.382944
 21
-550.5105
  0
LINE
  8
0
  6
CONTINUOUS
 62
     7
 10
41.382942
 20
-491.45224
 11
21.382944
 21
-491.45224
  0
LINE
  8
0
  6
CONTINUOUS
 62
     7
 10
41.382942
 20
-536.56873
 11
21.382944
 21
-536.56873
  0
LINE
  8
0
  6
CONTINUOUS
 62
     7
 10
42.382923
 20
-479.51047
 11
40.382919
 21
-477.51044
  0
LINE
  8
0
  6
CONTINUOUS
 62
     7
 10
22.382923
 20
-477.51053
 11
20.382965
 21
-479.51047
  0
LINE
  8
0
  6
CONTINUOUS
 62
     7
 10
42.382946
 20
-548.5105
 11
40.382942
 21
-550.5105
  0
LINE
  8
0
  6
CONTINUOUS
 62
     7
 10
20.382925
 20
-548.5105
 11
22.382904
 21
-550.51044
  0
LINE
  8
0
  6
CENTER
 62
     7
 10
-283.02808
 20
-773.29041
 11
-151.90909
 21
-773.29041
  0
LINE
  8
0
  6
CENTER
 62
     7
 10
-213.90311
 20
-733.39038
 11
-213.90311
 21
-828.94037
  0
LINE
  8
0
  6
CONTINUOUS
 62
     7
 10
-246.90314
 20
-736.79041
 11
-180.90311
 21
-736.79041
  0
LINE
  8
0
  6
CONTINUOUS
 62
     7
 10
-194.40311
 20
-809.79041
 11
-180.90311
 21
-809.79041
  0
LINE
  8
0
  6
CONTINUOUS
 62
     7
 10
-233.40311
 20
-809.79041
 11
-246.90314
 21
-809.79041
  0
LINE
  8
0
  6
CONTINUOUS
 62
     7
 10
-227.40311
 20
-823.29041
 11
-200.40311
 21
-823.29041
  0
LINE
  8
0
  6
CONTINUOUS
 62
     7
 10
-200.40311
 20
-815.79041
 11
-200.40311
 21
-823.29041
  0
LINE
  8
0
  6
CONTINUOUS
 62
     7
 10
-227.40311
 20
-815.79041
 11
-227.40311
 21
-823.29041
  0
LINE
  8
0
  6
CONTINUOUS
 62
     7
 10
-157.40311
 20
-731.79041
 11
-157.40311
 21
-814.79041
  0
LINE
  8
0
  6
CONTINUOUS
 62
     7
 10
-179.90311
 20
-773.29041
 11
-158.40311
 21
-773.29041
  0
LINE
  8
0
  6
CONTINUOUS
 62
     7
 10
-180.90311
 20
-731.79041
 11
-180.90311
 21
-814.79041
  0
LINE
  8
0
  6
CONTINUOUS
 62
     7
 10
-178.90311
 20
-729.79041
 11
-159.40311
 21
-729.79041
  0
LINE
  8
0
  6
CONTINUOUS
 62
     7
 10
-178.90311
 20
-816.79041
 11
-159.40311
 21
-816.79041
  0
LINE
  8
0
  6
CONTINUOUS
 62
     7
 10
-180.90312
 20
-731.79041
 11
-178.90312
 21
-729.79041
  0
LINE
  8
0
  6
CONTINUOUS
 62
     7
 10
-159.40311
 20
-729.79041
 11
-157.40312
 21
-731.79041
  0
LINE
  8
0
  6
CONTINUOUS
 62
     7
 10
-180.90309
 20
-814.79041
 11
-178.90309
 21
-816.79041
  0
LINE
  8
0
  6
CONTINUOUS
 62
     7
 10
-159.40311
 20
-816.79041
 11
-157.40311
 21
-814.79041
  0
LINE
  8
0
  6
CONTINUOUS
 62
     7
 10
-158.40311
 20
-746.40588
 11
-179.90311
 21
-746.40588
  0
LINE
  8
0
  6
CONTINUOUS
 62
     7
 10
-158.40311
 20
-800.17487
 11
-179.90311
 21
-800.17487
  0
LINE
  8
0
  6
CONTINUOUS
 62
     7
 10
-270.40311
 20
-731.79041
 11
-270.40311
 21
-814.79041
  0
LINE
  8
0
  6
CONTINUOUS
 62
     7
 10
-247.90314
 20
-773.29041
 11
-269.40311
 21
-773.29041
  0
LINE
  8
0
  6
CONTINUOUS
 62
     7
 10
-246.90314
 20
-731.79041
 11
-246.90314
 21
-814.79041
  0
LINE
  8
0
  6
CONTINUOUS
 62
     7
 10
-248.90314
 20
-729.79041
 11
-268.40311
 21
-729.79041
  0
LINE
  8
0
  6
CONTINUOUS
 62
     7
 10
-248.90314
 20
-816.79041
 11
-268.40311
 21
-816.79041
  0
LINE
  8
0
  6
CONTINUOUS
 62
     7
 10
-246.90312
 20
-731.79041
 11
-248.90314
 21
-729.79041
  0
LINE
  8
0
  6
CONTINUOUS
 62
     7
 10
-268.40311
 20
-729.79041
 11
-270.40314
 21
-731.79041
  0
LINE
  8
0
  6
CONTINUOUS
 62
     7
 10
-246.90314
 20
-814.79034
 11
-248.90314
 21
-816.79034
  0
LINE
  8
0
  6
CONTINUOUS
 62
     7
 10
-268.40311
 20
-816.79034
 11
-270.40314
 21
-814.79034
  0
LINE
  8
0
  6
CONTINUOUS
 62
     7
 10
-269.40311
 20
-746.40588
 11
-247.90314
 21
-746.40588
  0
LINE
  8
0
  6
CONTINUOUS
 62
     7
 10
-269.40311
 20
-800.17487
 11
-247.90314
 21
-800.17487
  0
LINE
  8
0
  6
CENTER
 62
     7
 10
83.230469
 20
-732.34039
 11
83.230469
 21
-831.94037
  0
LINE
  8
0
  6
CENTER
 62
     7
 10
5.8804932
 20
-773.29041
 11
163.38049
 21
-773.29041
  0
LINE
  8
0
  6
CONTINUOUS
 62
     7
 10
47.230469
 20
-736.79041
 11
119.23047
 21
-736.79041
  0
LINE
  8
0
  6
CONTINUOUS
 62
     7
 10
105.73047
 20
-809.79041
 11
119.23047
 21
-809.79041
  0
LINE
  8
0
  6
CONTINUOUS
 62
     7
 10
60.730469
 20
-809.79041
 11
47.230469
 21
-809.79041
  0
LINE
  8
0
  6
CONTINUOUS
 62
     7
 10
66.730469
 20
-825.29041
 11
99.730469
 21
-825.29041
  0
LINE
  8
0
  6
CONTINUOUS
 62
     7
 10
99.730469
 20
-815.79041
 11
99.730469
 21
-825.29041
  0
LINE
  8
0
  6
CONTINUOUS
 62
     7
 10
66.730469
 20
-815.79041
 11
66.730469
 21
-825.29041
  0
LINE
  8
0
  6
CONTINUOUS
 62
     7
 10
142.73047
 20
-731.79041
 11
142.73047
 21
-814.79041
  0
LINE
  8
0
  6
CONTINUOUS
 62
     7
 10
120.23047
 20
-773.29041
 11
141.73047
 21
-773.29041
  0
LINE
  8
0
  6
CONTINUOUS
 62
     7
 10
119.23047
 20
-731.79041
 11
119.23047
 21
-814.79041
  0
LINE
  8
0
  6
CONTINUOUS
 62
     7
 10
121.23047
 20
-729.79041
 11
140.73047
 21
-729.79041
  0
LINE
  8
0
  6
CONTINUOUS
 62
     7
 10
121.23047
 20
-816.79041
 11
140.73047
 21
-816.79041
  0
LINE
  8
0
  6
CONTINUOUS
 62
     7
 10
119.23052
 20
-731.79041
 11
121.23052
 21
-729.79041
  0
LINE
  8
0
  6
CONTINUOUS
 62
     7
 10
140.73051
 20
-729.79041
 11
142.73051
 21
-731.79041
  0
LINE
  8
0
  6
CONTINUOUS
 62
     7
 10
119.23055
 20
-814.79041
 11
121.2305
 21
-816.79034
  0
LINE
  8
0
  6
CONTINUOUS
 62
     7
 10
140.73053
 20
-816.79041
 11
142.73053
 21
-814.79041
  0
LINE
  8
0
  6
CONTINUOUS
 62
     7
 10
141.73047
 20
-746.40588
 11
120.23047
 21
-746.40588
  0
LINE
  8
0
  6
CONTINUOUS
 62
     7
 10
141.73047
 20
-800.17487
 11
120.23047
 21
-800.17487
  0
LINE
  8
0
  6
CONTINUOUS
 62
     7
 10
23.730469
 20
-731.79041
 11
23.730469
 21
-814.79041
  0
LINE
  8
0
  6
CONTINUOUS
 62
     7
 10
46.230469
 20
-773.29041
 11
24.730469
 21
-773.29041
  0
LINE
  8
0
  6
CONTINUOUS
 62
     7
 10
47.230469
 20
-731.79041
 11
47.230469
 21
-814.79041
  0
LINE
  8
0
  6
CONTINUOUS
 62
     7
 10
45.230469
 20
-729.79041
 11
25.730469
 21
-729.79041
  0
LINE
  8
0
  6
CONTINUOUS
 62
     7
 10
45.230469
 20
-816.79041
 11
25.730469
 21
-816.79041
  0
LINE
  8
0
  6
CONTINUOUS
 62
     7
 10
47.230503
 20
-731.79034
 11
45.230503
 21
-729.79034
  0
LINE
  8
0
  6
CONTINUOUS
 62
     7
 10
25.730471
 20
-729.79034
 11
23.730469
 21
-731.79034
  0
LINE
  8
0
  6
CONTINUOUS
 62
     7
 10
47.230503
 20
-814.79041
 11
45.230503
 21
-816.79041
  0
LINE
  8
0
  6
CONTINUOUS
 62
     7
 10
25.730513
 20
-816.79041
 11
23.730511
 21
-814.79041
  0
LINE
  8
0
  6
CONTINUOUS
 62
     7
 10
24.730469
 20
-746.40588
 11
46.230469
 21
-746.40588
  0
LINE
  8
0
  6
CONTINUOUS
 62
     7
 10
24.730469
 20
-800.17487
 11
46.230469
 21
-800.17487
  0
LINE
  8
0
  6
CENTER
 62
     7
 10
-277.09659
 20
-968.09039
 11
-143.74661
 21
-968.09039
  0
LINE
  8
0
  6
CENTER
 62
     7
 10
-210.50308
 20
-927.49042
 11
-210.50308
 21
-1029.3403
  0
LINE
  8
0
  6
CONTINUOUS
 62
     7
 10
-248.17294
 20
-931.59039
 11
-172.83322
 21
-931.59039
  0
LINE
  8
0
  6
CONTINUOUS
 62
     7
 10
-184.00308
 20
-1004.5904
 11
-172.83322
 21
-1004.5904
  0
LINE
  8
0
  6
CONTINUOUS
 62
     7
 10
-237.00308
 20
-1004.5904
 11
-248.17294
 21
-1004.5904
  0
LINE
  8
0
  6
CONTINUOUS
 62
     7
 10
-231.00308
 20
-1022.0904
 11
-190.00308
 21
-1022.0904
  0
LINE
  8
0
  6
CONTINUOUS
 62
     7
 10
-190.00308
 20
-1010.5904
 11
-190.00308
 21
-1022.0904
  0
LINE
  8
0
  6
CONTINUOUS
 62
     7
 10
-231.00308
 20
-1010.5904
 11
-231.00308
 21
-1022.0904
  0
LINE
  8
0
  6
CONTINUOUS
 62
     7
 10
-148.00308
 20
-926.59039
 11
-148.00308
 21
-1009.5904
  0
LINE
  8
0
  6
CONTINUOUS
 62
     7
 10
-170.50308
 20
-968.09039
 11
-149.00308
 21
-968.09039
  0
LINE
  8
0
  6
CONTINUOUS
 62
     7
 10
-171.50308
 20
-926.59039
 11
-171.50308
 21
-1009.5904
  0
LINE
  8
0
  6
CONTINUOUS
 62
     7
 10
-169.50308
 20
-924.59039
 11
-150.00308
 21
-924.59039
  0
LINE
  8
0
  6
CONTINUOUS
 62
     7
 10
-169.50308
 20
-1011.5904
 11
-150.00308
 21
-1011.5904
  0
LINE
  8
0
  6
CONTINUOUS
 62
     7
 10
-171.50304
 20
-926.59039
 11
-169.50304
 21
-924.59039
  0
LINE
  8
0
  6
CONTINUOUS
 62
     7
 10
-150.00305
 20
-924.59039
 11
-148.00305
 21
-926.59039
  0
LINE
  8
0
  6
CONTINUOUS
 62
     7
 10
-171.50305
 20
-1009.5903
 11
-169.50308
 21
-1011.5903
  0
LINE
  8
0
  6
CONTINUOUS
 62
     7
 10
-150.00305
 20
-1011.5903
 11
-148.00305
 21
-1009.5903
  0
LINE
  8
0
  6
CONTINUOUS
 62
     7
 10
-149.00308
 20
-941.20593
 11
-170.50308
 21
-941.20593
  0
LINE
  8
0
  6
CONTINUOUS
 62
     7
 10
-149.00308
 20
-994.97485
 11
-170.50308
 21
-994.97485
  0
LINE
  8
0
  6
CONTINUOUS
 62
     7
 10
-273.00308
 20
-926.59039
 11
-273.00308
 21
-1009.5904
  0
LINE
  8
0
  6
CONTINUOUS
 62
     7
 10
-250.50308
 20
-968.09039
 11
-272.00308
 21
-968.09039
  0
LINE
  8
0
  6
CONTINUOUS
 62
     7
 10
-249.50308
 20
-926.59039
 11
-249.50308
 21
-1009.5904
  0
LINE
  8
0
  6
CONTINUOUS
 62
     7
 10
-251.50308
 20
-924.59039
 11
-271.00308
 21
-924.59039
  0
LINE
  8
0
  6
CONTINUOUS
 62
     7
 10
-251.50308
 20
-1011.5904
 11
-271.00308
 21
-1011.5904
  0
LINE
  8
0
  6
CONTINUOUS
 62
     7
 10
-249.50308
 20
-926.59039
 11
-251.5031
 21
-924.59039
  0
LINE
  8
0
  6
CONTINUOUS
 62
     7
 10
-271.00308
 20
-924.59039
 11
-273.00308
 21
-926.59045
  0
LINE
  8
0
  6
CONTINUOUS
 62
     7
 10
-249.50313
 20
-1009.5904
 11
-251.50313
 21
-1011.5904
  0
LINE
  8
0
  6
CONTINUOUS
 62
     7
 10
-271.00311
 20
-1011.5904
 11
-273.00311
 21
-1009.5904
  0
LINE
  8
0
  6
CONTINUOUS
 62
     7
 10
-272.00308
 20
-941.20593
 11
-250.50308
 21
-941.20593
  0
LINE
  8
0
  6
CONTINUOUS
 62
     7
 10
-272.00308
 20
-994.97485
 11
-250.50308
 21
-994.97485
  0
LINE
  8
0
  6
CENTER
 62
     7
 10
85.586365
 20
-929.4574
 11
85.586365
 21
-1032.7074
  0
LINE
  8
0
  6
CENTER
 62
     7
 10
2.6363525
 20
-969.7074
 11
165.38635
 21
-969.7074
  0
LINE
  8
0
  6
CONTINUOUS
 62
     7
 10
43.916504
 20
-933.2074
 11
127.25623
 21
-933.2074
  0
LINE
  8
0
  6
CONTINUOUS
 62
     7
 10
43.916504
 20
-1006.2074
 11
54.586365
 21
-1006.2074
  0
LINE
  8
0
  6
CONTINUOUS
 62
     7
 10
60.586365
 20
-1026.2074
 11
110.58636
 21
-1026.2074
  0
LINE
  8
0
  6
CONTINUOUS
 62
     7
 10
60.586365
 20
-1012.2074
 11
60.586365
 21
-1026.2074
  0
LINE
  8
0
  6
CONTINUOUS
 62
     7
 10
110.58636
 20
-1012.2074
 11
110.58636
 21
-1026.2074
  0
LINE
  8
0
  6
CONTINUOUS
 62
     7
 10
116.58636
 20
-1006.2074
 11
127.25623
 21
-1006.2074
  0
LINE
  8
0
  6
CONTINUOUS
 62
     7
 10
151.83636
 20
-928.2074
 11
151.83636
 21
-1011.2074
  0
LINE
  8
0
  6
CONTINUOUS
 62
     7
 10
129.33636
 20
-969.7074
 11
150.83636
 21
-969.7074
  0
LINE
  8
0
  6
CONTINUOUS
 62
     7
 10
128.33636
 20
-928.2074
 11
128.33636
 21
-1011.2074
  0
LINE
  8
0
  6
CONTINUOUS
 62
     7
 10
130.33636
 20
-926.2074
 11
149.83636
 21
-926.2074
  0
LINE
  8
0
  6
CONTINUOUS
 62
     7
 10
130.33636
 20
-1013.2074
 11
149.83636
 21
-1013.2074
  0
LINE
  8
0
  6
CONTINUOUS
 62
     7
 10
128.33643
 20
-928.20746
 11
130.33644
 21
-926.20746
  0
LINE
  8
0
  6
CONTINUOUS
 62
     7
 10
149.83643
 20
-926.20746
 11
151.83643
 21
-928.20746
  0
LINE
  8
0
  6
CONTINUOUS
 62
     7
 10
128.33638
 20
-1011.2074
 11
130.33638
 21
-1013.2074
  0
LINE
  8
0
  6
CONTINUOUS
 62
     7
 10
149.83638
 20
-1013.2074
 11
151.83638
 21
-1011.2074
  0
LINE
  8
0
  6
CONTINUOUS
 62
     7
 10
150.83636
 20
-942.82294
 11
129.33636
 21
-942.82294
  0
LINE
  8
0
  6
CONTINUOUS
 62
     7
 10
150.83636
 20
-996.59186
 11
129.33636
 21
-996.59186
  0
LINE
  8
0
  6
CONTINUOUS
 62
     7
 10
19.336365
 20
-928.2074
 11
19.336365
 21
-1011.2074
  0
LINE
  8
0
  6
CONTINUOUS
 62
     7
 10
41.836365
 20
-969.7074
 11
20.336365
 21
-969.7074
  0
LINE
  8
0
  6
CONTINUOUS
 62
     7
 10
42.836365
 20
-928.2074
 11
42.836365
 21
-1011.2074
  0
LINE
  8
0
  6
CONTINUOUS
 62
     7
 10
40.836365
 20
-926.2074
 11
21.336365
 21
-926.2074
  0
LINE
  8
0
  6
CONTINUOUS
 62
     7
 10
40.836365
 20
-1013.2074
 11
21.336365
 21
-1013.2074
  0
LINE
  8
0
  6
CONTINUOUS
 62
     7
 10
42.836365
 20
-928.2074
 11
40.836361
 21
-926.2074
  0
LINE
  8
0
  6
CONTINUOUS
 62
     7
 10
21.336372
 20
-926.2074
 11
19.33637
 21
-928.2074
  0
LINE
  8
0
  6
CONTINUOUS
 62
     7
 10
42.836411
 20
-1011.2075
 11
40.836411
 21
-1013.2075
  0
LINE
  8
0
  6
CONTINUOUS
 62
     7
 10
21.336422
 20
-1013.2075
 11
19.336418
 21
-1011.2075
  0
LINE
  8
0
  6
CONTINUOUS
 62
     7
 10
20.336365
 20
-942.82294
 11
41.836365
 21
-942.82294
  0
LINE
  8
0
  6
CONTINUOUS
 62
     7
 10
20.336365
 20
-996.59186
 11
41.836365
 21
-996.59186
  0
LINE
  8
0
  6
CONTINUOUS
 62
     7
 10
-297
 20
-650
 11
-297
 21
-230
  0
LINE
  8
0
  6
CONTINUOUS
 62
     7
 10
-297
 20
-230
 11
297
 21
-230
  0
LINE
  8
0
  6
CONTINUOUS
 62
     7
 10
297
 20
-650
 11
-297
 21
-650
  0
LINE
  8
0
  6
CONTINUOUS
 62
     7
 10
297
 20
-230
 11
297
 21
-650
  0
LINE
  8
0
  6
CENTER
 62
     7
 10
-149.83801
 20
-1211.4082
 11
3.1337626
 21
-1211.4082
  0
LINE
  8
0
  6
CENTER
 62
     7
 10
-70.893517
 20
-1170.4581
 11
-70.893517
 21
-1273.3582
  0
LINE
  8
0
  6
CONTINUOUS
 62
     7
 10
-116.89351
 20
-1174.9082
 11
-24.893517
 21
-1174.9082
  0
LINE
  8
0
  6
CONTINUOUS
 62
     7
 10
-36.89352
 20
-1247.9082
 11
-24.893517
 21
-1247.9082
  0
LINE
  8
0
  6
CONTINUOUS
 62
     7
 10
-104.89352
 20
-1247.9082
 11
-116.89351
 21
-1247.9082
  0
LINE
  8
0
  6
CONTINUOUS
 62
     7
 10
-98.893517
 20
-1268.9082
 11
-42.89352
 21
-1268.9082
  0
LINE
  8
0
  6
CONTINUOUS
 62
     7
 10
-42.89352
 20
-1253.9082
 11
-42.89352
 21
-1268.9082
  0
LINE
  8
0
  6
CONTINUOUS
 62
     7
 10
-98.893517
 20
-1253.9082
 11
-98.893517
 21
-1268.9082
  0
LINE
  8
0
  6
CONTINUOUS
 62
     7
 10
-1.3935165
 20
-1169.9082
 11
-1.3935165
 21
-1252.9082
  0
LINE
  8
0
  6
CONTINUOUS
 62
     7
 10
-23.893517
 20
-1211.4082
 11
-2.3935165
 21
-1211.4082
  0
LINE
  8
0
  6
CONTINUOUS
 62
     7
 10
-24.893517
 20
-1169.9082
 11
-24.893517
 21
-1252.9082
  0
LINE
  8
0
  6
CONTINUOUS
 62
     7
 10
-22.893517
 20
-1167.9082
 11
-3.3935165
 21
-1167.9082
  0
LINE
  8
0
  6
CONTINUOUS
 62
     7
 10
-22.893517
 20
-1254.9082
 11
-3.3935165
 21
-1254.9082
  0
LINE
  8
0
  6
CONTINUOUS
 62
     7
 10
-24.893583
 20
-1169.9082
 11
-22.893538
 21
-1167.9082
  0
LINE
  8
0
  6
CONTINUOUS
 62
     7
 10
-3.393549
 20
-1167.9082
 11
-1.3935468
 21
-1169.9082
  0
LINE
  8
0
  6
CONTINUOUS
 62
     7
 10
-24.893524
 20
-1252.9082
 11
-22.893522
 21
-1254.9082
  0
LINE
  8
0
  6
CONTINUOUS
 62
     7
 10
-3.3935332
 20
-1254.9082
 11
-1.3935311
 21
-1252.9082
  0
LINE
  8
0
  6
CONTINUOUS
 62
     7
 10
-2.3935165
 20
-1184.5237
 11
-23.893517
 21
-1184.5237
  0
LINE
  8
0
  6
CONTINUOUS
 62
     7
 10
-2.3935165
 20
-1238.2926
 11
-23.893517
 21
-1238.2926
  0
LINE
  8
0
  6
CONTINUOUS
 62
     7
 10
-118.89351
 20
-1254.9082
 11
-138.39352
 21
-1254.9082
  0
LINE
  8
0
  6
CONTINUOUS
 62
     7
 10
-140.39352
 20
-1169.9082
 11
-140.39352
 21
-1252.9082
  0
LINE
  8
0
  6
CONTINUOUS
 62
     7
 10
-117.89351
 20
-1211.4082
 11
-139.39352
 21
-1211.4082
  0
LINE
  8
0
  6
CONTINUOUS
 62
     7
 10
-116.89351
 20
-1169.9082
 11
-116.89351
 21
-1252.9082
  0
LINE
  8
0
  6
CONTINUOUS
 62
     7
 10
-118.89351
 20
-1167.9082
 11
-138.39352
 21
-1167.9082
  0
LINE
  8
0
  6
CONTINUOUS
 62
     7
 10
-116.89354
 20
-1169.9082
 11
-118.89354
 21
-1167.9082
  0
LINE
  8
0
  6
CONTINUOUS
 62
     7
 10
-138.39352
 20
-1167.9082
 11
-140.39354
 21
-1169.9082
  0
LINE
  8
0
  6
CONTINUOUS
 62
     7
 10
-116.89355
 20
-1252.9082
 11
-118.89355
 21
-1254.9082
  0
LINE
  8
0
  6
CONTINUOUS
 62
     7
 10
-138.39355
 20
-1254.9082
 11
-140.39351
 21
-1252.9082
  0
LINE
  8
0
  6
CONTINUOUS
 62
     7
 10
-139.39352
 20
-1184.5237
 11
-117.89351
 21
-1184.5237
  0
LINE
  8
0
  6
CONTINUOUS
 62
     7
 10
-139.39352
 20
-1238.2926
 11
-117.89351
 21
-1238.2926
  0
LINE
  8
0
  6
CENTER
 62
     7
 10
-83.61615
 20
-1351.9016
 11
-83.61615
 21
-1478.9517
  0
LINE
  8
0
  6
CENTER
 62
     7
 10
-194.42618
 20
-1399.8516
 11
25.093811
 21
-1399.8516
  0
LINE
  8
0
  6
CONTINUOUS
 62
     7
 10
-146.77481
 20
-1354.6016
 11
-20.457458
 21
-1354.6016
  0
LINE
  8
0
  6
CONTINUOUS
 62
     7
 10
-41.11615
 20
-1445.1016
 11
-20.457458
 21
-1445.1016
  0
LINE
  8
0
  6
CONTINUOUS
 62
     7
 10
-126.11612
 20
-1445.1016
 11
-146.77481
 21
-1445.1016
  0
LINE
  8
0
  6
CONTINUOUS
 62
     7
 10
-118.11612
 20
-1469.8516
 11
-49.11615
 21
-1469.8516
  0
LINE
  8
0
  6
CONTINUOUS
 62
     7
 10
-118.11612
 20
-1453.1016
 11
-118.11612
 21
-1469.8516
  0
LINE
  8
0
  6
CONTINUOUS
 62
     7
 10
-49.11615
 20
-1453.1016
 11
-49.11615
 21
-1469.8516
  0
LINE
  8
0
  6
CONTINUOUS
 62
     7
 10
11.38385
 20
-1347.8516
 11
11.38385
 21
-1451.8516
  0
LINE
  8
0
  6
CONTINUOUS
 62
     7
 10
-16.61615
 20
-1399.8516
 11
10.38385
 21
-1399.8516
  0
LINE
  8
0
  6
CONTINUOUS
 62
     7
 10
-17.61615
 20
-1347.8516
 11
-17.61615
 21
-1451.8516
  0
LINE
  8
0
  6
CONTINUOUS
 62
     7
 10
-15.61615
 20
-1345.8516
 11
9.3838501
 21
-1345.8516
  0
LINE
  8
0
  6
CONTINUOUS
 62
     7
 10
-15.61615
 20
-1453.8516
 11
9.3838501
 21
-1453.8516
  0
LINE
  8
0
  6
CONTINUOUS
 62
     7
 10
-17.616182
 20
-1347.8516
 11
-15.616223
 21
-1345.8517
  0
LINE
  8
0
  6
CONTINUOUS
 62
     7
 10
9.3838253
 20
-1345.8516
 11
11.383784
 21
-1347.8516
  0
LINE
  8
0
  6
CONTINUOUS
 62
     7
 10
-17.61615
 20
-1451.8517
 11
-15.616192
 21
-1453.8516
  0
LINE
  8
0
  6
CONTINUOUS
 62
     7
 10
9.3839436
 20
-1453.8516
 11
11.383902
 21
-1451.8516
  0
LINE
  8
0
  6
CONTINUOUS
 62
     7
 10
-178.61615
 20
-1347.8516
 11
-178.61615
 21
-1451.8516
  0
LINE
  8
0
  6
CONTINUOUS
 62
     7
 10
-150.61615
 20
-1399.8516
 11
-177.61615
 21
-1399.8516
  0
LINE
  8
0
  6
CONTINUOUS
 62
     7
 10
-149.61615
 20
-1347.8516
 11
-149.61615
 21
-1451.8516
  0
LINE
  8
0
  6
CONTINUOUS
 62
     7
 10
-151.61615
 20
-1345.8516
 11
-176.61615
 21
-1345.8516
  0
LINE
  8
0
  6
CONTINUOUS
 62
     7
 10
-151.61615
 20
-1453.8516
 11
-176.61615
 21
-1453.8516
  0
LINE
  8
0
  6
CONTINUOUS
 62
     7
 10
-149.61617
 20
-1347.8516
 11
-151.61617
 21
-1345.8516
  0
LINE
  8
0
  6
CONTINUOUS
 62
     7
 10
-176.61613
 20
-1345.8516
 11
-178.61618
 21
-1347.8516
  0
LINE
  8
0
  6
CONTINUOUS
 62
     7
 10
-149.61615
 20
-1451.8517
 11
-151.6162
 21
-1453.8517
  0
LINE
  8
0
  6
CONTINUOUS
 62
     7
 10
-176.61617
 20
-1453.8517
 11
-178.61617
 21
-1451.8517
  0
LINE
  8
0
  6
CENTER
 62
     7
 10
-198.25519
 20
-1759.6444
 11
33.094845
 21
-1759.6444
  0
LINE
  8
0
  6
CENTER
 62
     7
 10
-81.880257
 20
-1701.1945
 11
-81.880257
 21
-1850.9944
  0
LINE
  8
0
  6
CONTINUOUS
 62
     7
 10
-150.03888
 20
-1707.3944
 11
-13.72144
 21
-1707.3944
  0
LINE
  8
0
  6
CONTINUOUS
 62
     7
 10
-37.380253
 20
-1811.8944
 11
-13.72144
 21
-1811.8944
  0
LINE
  8
0
  6
CONTINUOUS
 62
     7
 10
-126.38026
 20
-1811.8944
 11
-150.03888
 21
-1811.8944
  0
LINE
  8
0
  6
CONTINUOUS
 62
     7
 10
-116.38026
 20
-1836.6444
 11
-47.380253
 21
-1836.6444
  0
LINE
  8
0
  6
CONTINUOUS
 62
     7
 10
-116.38026
 20
-1821.8944
 11
-116.38026
 21
-1836.6444
  0
LINE
  8
0
  6
CONTINUOUS
 62
     7
 10
-47.380253
 20
-1821.8944
 11
-47.380253
 21
-1836.6444
  0
LINE
  8
0
  6
CONTINUOUS
 62
     7
 10
-9.8802576
 20
-1759.6444
 11
17.119743
 21
-1759.6444
  0
LINE
  8
0
  6
CONTINUOUS
 62
     7
 10
18.119743
 20
-1700.1444
 11
18.119743
 21
-1819.1444
  0
LINE
  8
0
  6
CONTINUOUS
 62
     7
 10
-10.880258
 20
-1700.1444
 11
-10.880258
 21
-1819.1444
  0
LINE
  8
0
  6
CONTINUOUS
 62
     7
 10
-8.8802576
 20
-1821.1444
 11
16.119743
 21
-1821.1444
  0
LINE
  8
0
  6
CONTINUOUS
 62
     7
 10
-8.8802576
 20
-1698.1444
 11
16.119743
 21
-1698.1444
  0
LINE
  8
0
  6
CONTINUOUS
 62
     7
 10
-8.8801956
 20
-1698.1444
 11
-10.88024
 21
-1700.1444
  0
LINE
  8
0
  6
CONTINUOUS
 62
     7
 10
-10.880149
 20
-1819.1444
 11
-8.8801899
 21
-1821.1444
  0
LINE
  8
0
  6
CONTINUOUS
 62
     7
 10
16.119816
 20
-1821.1444
 11
18.11986
 21
-1819.1444
  0
LINE
  8
0
  6
CONTINUOUS
 62
     7
 10
16.119839
 20
-1698.1445
 11
18.119799
 21
-1700.1444
  0
LINE
  8
0
  6
CONTINUOUS
 62
     7
 10
-9.8802576
 20
-1721.6353
 11
17.119743
 21
-1721.6353
  0
LINE
  8
0
  6
CONTINUOUS
 62
     7
 10
-9.8802576
 20
-1797.6534
 11
17.119743
 21
-1797.6534
  0
LINE
  8
0
  6
CONTINUOUS
 62
     7
 10
-153.88025
 20
-1797.6534
 11
-180.88025
 21
-1797.6534
  0
LINE
  8
0
  6
CONTINUOUS
 62
     7
 10
-153.88025
 20
-1759.6444
 11
-180.88025
 21
-1759.6444
  0
LINE
  8
0
  6
CONTINUOUS
 62
     7
 10
-181.88025
 20
-1700.1444
 11
-181.88025
 21
-1819.1444
  0
LINE
  8
0
  6
CONTINUOUS
 62
     7
 10
-152.88025
 20
-1700.1444
 11
-152.88025
 21
-1819.1444
  0
LINE
  8
0
  6
CONTINUOUS
 62
     7
 10
-154.88025
 20
-1821.1444
 11
-179.88025
 21
-1821.1444
  0
LINE
  8
0
  6
CONTINUOUS
 62
     7
 10
-154.88025
 20
-1698.1444
 11
-179.88025
 21
-1698.1444
  0
LINE
  8
0
  6
CONTINUOUS
 62
     7
 10
-154.88019
 20
-1698.1444
 11
-152.88023
 21
-1700.1444
  0
LINE
  8
0
  6
CONTINUOUS
 62
     7
 10
-152.88016
 20
-1819.1444
 11
-154.8802
 21
-1821.1444
  0
LINE
  8
0
  6
CONTINUOUS
 62
     7
 10
-179.8802
 20
-1821.1444
 11
-181.88016
 21
-1819.1444
  0
LINE
  8
0
  6
CONTINUOUS
 62
     7
 10
-179.88023
 20
-1698.1444
 11
-181.88019
 21
-1700.1444
  0
LINE
  8
0
  6
CONTINUOUS
 62
     7
 10
-153.88025
 20
-1721.6353
 11
-180.88025
 21
-1721.6353
  0
LINE
  8
0
  6
CENTER
 62
     7
 10
-217.90395
 20
141.63797
 11
-112.03742
 21
141.63797
  0
LINE
  8
0
  6
CENTER
 62
     7
 10
-165.92896
 20
166.83798
 11
-165.92896
 21
105.37798
  0
LINE
  8
0
  6
CONTINUOUS
 62
     7
 10
-189.46382
 20
159.88797
 11
-142.3941
 21
159.88797
  0
LINE
  8
0
  6
CONTINUOUS
 62
     7
 10
-148.42896
 20
123.38797
 11
-142.3941
 21
123.38797
  0
LINE
  8
0
  6
CONTINUOUS
 62
     7
 10
-179.42896
 20
109.63798
 11
-152.42896
 21
109.63798
  0
LINE
  8
0
  6
CONTINUOUS
 62
     7
 10
-152.42896
 20
119.38797
 11
-152.42896
 21
109.63798
  0
LINE
  8
0
  6
CONTINUOUS
 62
     7
 10
-183.42896
 20
123.38797
 11
-189.46382
 21
123.38797
  0
LINE
  8
0
  6
CONTINUOUS
 62
     7
 10
-179.42896
 20
119.38797
 11
-179.42896
 21
109.63798
  0
LINE
  8
0
  6
CONTINUOUS
 62
     7
 10
-120.67895
 20
164.13797
 11
-120.67895
 21
119.13797
  0
LINE
  8
0
  6
CONTINUOUS
 62
     7
 10
-139.17896
 20
164.13797
 11
-139.17896
 21
119.13797
  0
LINE
  8
0
  6
CONTINUOUS
 62
     7
 10
-137.17896
 20
166.13797
 11
-122.67895
 21
166.13797
  0
LINE
  8
0
  6
CONTINUOUS
 62
     7
 10
-137.17896
 20
117.13797
 11
-122.67895
 21
117.13797
  0
LINE
  8
0
  6
CONTINUOUS
 62
     7
 10
-139.17897
 20
164.13799
 11
-137.17897
 21
166.138
  0
LINE
  8
0
  6
CONTINUOUS
 62
     7
 10
-137.17896
 20
117.13798
 11
-139.17896
 21
119.13798
  0
LINE
  8
0
  6
CONTINUOUS
 62
     7
 10
-122.67895
 20
166.13799
 11
-120.67896
 21
164.13799
  0
LINE
  8
0
  6
CONTINUOUS
 62
     7
 10
-120.67896
 20
119.13799
 11
-122.67896
 21
117.13799
  0
LINE
  8
0
  6
CONTINUOUS
 62
     7
 10
-138.17896
 20
151.77908
 11
-121.67895
 21
151.77908
  0
LINE
  8
0
  6
CONTINUOUS
 62
     7
 10
-138.17896
 20
131.49687
 11
-121.67895
 21
131.49687
  0
LINE
  8
0
  6
CONTINUOUS
 62
     7
 10
-211.17897
 20
164.13797
 11
-211.17897
 21
119.13797
  0
LINE
  8
0
  6
CONTINUOUS
 62
     7
 10
-192.67896
 20
164.13797
 11
-192.67896
 21
119.13797
  0
LINE
  8
0
  6
CONTINUOUS
 62
     7
 10
-194.67897
 20
166.13797
 11
-209.17897
 21
166.13797
  0
LINE
  8
0
  6
CONTINUOUS
 62
     7
 10
-194.67897
 20
117.13797
 11
-209.17897
 21
117.13797
  0
LINE
  8
0
  6
CONTINUOUS
 62
     7
 10
-192.67894
 20
164.13797
 11
-194.67894
 21
166.13797
  0
LINE
  8
0
  6
CONTINUOUS
 62
     7
 10
-194.67896
 20
117.13798
 11
-192.67896
 21
119.13798
  0
LINE
  8
0
  6
CONTINUOUS
 62
     7
 10
-209.17896
 20
166.13799
 11
-211.17896
 21
164.13799
  0
LINE
  8
0
  6
CONTINUOUS
 62
     7
 10
-211.17892
 20
119.13795
 11
-209.17894
 21
117.13797
  0
LINE
  8
0
  6
CONTINUOUS
 62
     7
 10
-193.67896
 20
151.77908
 11
-210.17897
 21
151.77908
  0
LINE
  8
0
  6
CONTINUOUS
 62
     7
 10
-193.67896
 20
131.49687
 11
-210.17897
 21
131.49687
  0
LINE
  8
0
  6
CENTER
 62
     7
 10
53.688404
 20
159.75398
 11
53.688404
 21
93.078979
  0
LINE
  8
0
  6
CENTER
 62
     7
 10
0.57700849
 20
133.85397
 11
112.59341
 21
133.85397
  0
LINE
  8
0
  6
CONTINUOUS
 62
     7
 10
27.653547
 20
156.10397
 11
79.723267
 21
156.10397
  0
LINE
  8
0
  6
CONTINUOUS
 62
     7
 10
72.188408
 20
111.60397
 11
79.723267
 21
111.60397
  0
LINE
  8
0
  6
CONTINUOUS
 62
     7
 10
40.188404
 20
97.853981
 11
67.188408
 21
97.853981
  0
LINE
  8
0
  6
CONTINUOUS
 62
     7
 10
67.188408
 20
106.60397
 11
67.188408
 21
97.853981
  0
LINE
  8
0
  6
CONTINUOUS
 62
     7
 10
40.188404
 20
106.60397
 11
40.188404
 21
97.853981
  0
LINE
  8
0
  6
CONTINUOUS
 62
     7
 10
35.188404
 20
111.60397
 11
27.653547
 21
111.60397
  0
LINE
  8
0
  6
CONTINUOUS
 62
     7
 10
98.938408
 20
160.85397
 11
98.938408
 21
106.85397
  0
LINE
  8
0
  6
CONTINUOUS
 62
     7
 10
80.438408
 20
160.85397
 11
80.438408
 21
106.85397
  0
LINE
  8
0
  6
CONTINUOUS
 62
     7
 10
82.438408
 20
104.85398
 11
96.938408
 21
104.85398
  0
LINE
  8
0
  6
CONTINUOUS
 62
     7
 10
82.438408
 20
162.85397
 11
96.938408
 21
162.85397
  0
LINE
  8
0
  6
CONTINUOUS
 62
     7
 10
80.438408
 20
160.85397
 11
82.438408
 21
162.85397
  0
LINE
  8
0
  6
CONTINUOUS
 62
     7
 10
96.938416
 20
162.85397
 11
98.938416
 21
160.85397
  0
LINE
  8
0
  6
CONTINUOUS
 62
     7
 10
80.438416
 20
106.85397
 11
82.4384
 21
104.85398
  0
LINE
  8
0
  6
CONTINUOUS
 62
     7
 10
96.938408
 20
104.85398
 11
98.938408
 21
106.85398
  0
LINE
  8
0
  6
CONTINUOUS
 62
     7
 10
81.438408
 20
145.86618
 11
97.938408
 21
145.86618
  0
LINE
  8
0
  6
CONTINUOUS
 62
     7
 10
81.438408
 20
121.84178
 11
97.938408
 21
121.84178
  0
LINE
  8
0
  6
CONTINUOUS
 62
     7
 10
8.438405
 20
160.85397
 11
8.438405
 21
106.85397
  0
LINE
  8
0
  6
CONTINUOUS
 62
     7
 10
26.938406
 20
160.85397
 11
26.938406
 21
106.85397
  0
LINE
  8
0
  6
CONTINUOUS
 62
     7
 10
24.938406
 20
104.85398
 11
10.438405
 21
104.85398
  0
LINE
  8
0
  6
CONTINUOUS
 62
     7
 10
24.938406
 20
162.85397
 11
10.438405
 21
162.85397
  0
LINE
  8
0
  6
CONTINUOUS
 62
     7
 10
26.938402
 20
160.85399
 11
24.9384
 21
162.85399
  0
LINE
  8
0
  6
CONTINUOUS
 62
     7
 10
10.438396
 20
162.85399
 11
8.4383936
 21
160.85399
  0
LINE
  8
0
  6
CONTINUOUS
 62
     7
 10
26.9384
 20
106.85398
 11
24.938404
 21
104.85399
  0
LINE
  8
0
  6
CONTINUOUS
 62
     7
 10
10.438402
 20
104.85398
 11
8.4384108
 21
106.85397
  0
LINE
  8
0
  6
CONTINUOUS
 62
     7
 10
25.938406
 20
145.86618
 11
9.438405
 21
145.86618
  0
LINE
  8
0
  6
CONTINUOUS
 62
     7
 10
25.938406
 20
121.84178
 11
9.438405
 21
121.84178
  0
LINE
  8
0
  6
CENTER
 62
     7
 10
-179.48717
 20
41.837849
 11
-179.48717
 21
-27.812155
  0
LINE
  8
0
  6
CENTER
 62
     7
 10
-242.09967
 20
15.412845
 11
-116.27467
 21
15.412845
  0
LINE
  8
0
  6
CONTINUOUS
 62
     7
 10
-208.52202
 20
37.662846
 11
-150.45232
 21
37.662846
  0
LINE
  8
0
  6
CONTINUOUS
 62
     7
 10
-195.98717
 20
-22.587156
 11
-162.98717
 21
-22.587156
  0
LINE
  8
0
  6
CONTINUOUS
 62
     7
 10
-162.98717
 20
-11.837154
 11
-162.98717
 21
-22.587156
  0
LINE
  8
0
  6
CONTINUOUS
 62
     7
 10
-157.98717
 20
-6.8371549
 11
-150.45232
 21
-6.8371549
  0
LINE
  8
0
  6
CONTINUOUS
 62
     7
 10
-200.98717
 20
-6.8371549
 11
-208.52202
 21
-6.8371549
  0
LINE
  8
0
  6
CONTINUOUS
 62
     7
 10
-195.98717
 20
-11.837154
 11
-195.98717
 21
-22.587156
  0
LINE
  8
0
  6
CONTINUOUS
 62
     7
 10
-128.48718
 20
42.412846
 11
-128.48718
 21
-11.587154
  0
LINE
  8
0
  6
CONTINUOUS
 62
     7
 10
-146.98718
 20
42.412846
 11
-146.98718
 21
-11.587154
  0
LINE
  8
0
  6
CONTINUOUS
 62
     7
 10
-144.98718
 20
-13.587154
 11
-130.48718
 21
-13.587154
  0
LINE
  8
0
  6
CONTINUOUS
 62
     7
 10
-144.98718
 20
44.412846
 11
-130.48718
 21
44.412846
  0
LINE
  8
0
  6
CONTINUOUS
 62
     7
 10
-146.98717
 20
42.412857
 11
-144.98717
 21
44.412857
  0
LINE
  8
0
  6
CONTINUOUS
 62
     7
 10
-130.48718
 20
44.412834
 11
-128.48718
 21
42.41283
  0
LINE
  8
0
  6
CONTINUOUS
 62
     7
 10
-146.98718
 20
-11.587155
 11
-144.98718
 21
-13.587157
  0
LINE
  8
0
  6
CONTINUOUS
 62
     7
 10
-130.48718
 20
-13.587168
 11
-128.48718
 21
-11.587166
  0
LINE
  8
0
  6
CONTINUOUS
 62
     7
 10
-145.98718
 20
27.425035
 11
-129.48718
 21
27.425035
  0
LINE
  8
0
  6
CONTINUOUS
 62
     7
 10
-145.98718
 20
3.4006536
 11
-129.48718
 21
3.4006536
  0
LINE
  8
0
  6
CONTINUOUS
 62
     7
 10
-230.48717
 20
42.412846
 11
-230.48717
 21
-11.587154
  0
LINE
  8
0
  6
CONTINUOUS
 62
     7
 10
-211.98717
 20
42.412846
 11
-211.98717
 21
-11.587154
  0
LINE
  8
0
  6
CONTINUOUS
 62
     7
 10
-213.98717
 20
-13.587154
 11
-228.48717
 21
-13.587154
  0
LINE
  8
0
  6
CONTINUOUS
 62
     7
 10
-213.98717
 20
44.412846
 11
-228.48717
 21
44.412846
  0
LINE
  8
0
  6
CONTINUOUS
 62
     7
 10
-211.98718
 20
42.412846
 11
-213.98718
 21
44.412849
  0
LINE
  8
0
  6
CONTINUOUS
 62
     7
 10
-228.48718
 20
44.412849
 11
-230.48718
 21
42.412846
  0
LINE
  8
0
  6
CONTINUOUS
 62
     7
 10
-211.98718
 20
-11.58714
 11
-213.98718
 21
-13.587132
  0
LINE
  8
0
  6
CONTINUOUS
 62
     7
 10
-228.48717
 20
-13.587142
 11
-230.48717
 21
-11.587139
  0
LINE
  8
0
  6
CONTINUOUS
 62
     7
 10
-212.98717
 20
27.425035
 11
-229.48717
 21
27.425035
  0
LINE
  8
0
  6
CONTINUOUS
 62
     7
 10
-212.98717
 20
3.4006536
 11
-229.48717
 21
3.4006536
  0
LINE
  8
0
  6
CENTER
 62
     7
 10
34.576279
 20
13.908968
 11
163.02629
 21
13.908968
  0
LINE
  8
0
  6
CENTER
 62
     7
 10
97.226273
 20
45.758976
 11
97.226273
 21
-31.591034
  0
LINE
  8
0
  6
CONTINUOUS
 62
     7
 10
68.556396
 20
40.40897
 11
125.89616
 21
40.40897
  0
LINE
  8
0
  6
CONTINUOUS
 62
     7
 10
68.556396
 20
-12.591032
 11
77.726273
 21
-12.591032
  0
LINE
  8
0
  6
CONTINUOUS
 62
     7
 10
83.726273
 20
-26.091034
 11
110.72628
 21
-26.091034
  0
LINE
  8
0
  6
CONTINUOUS
 62
     7
 10
83.726273
 20
-18.591034
 11
83.726273
 21
-26.091034
  0
LINE
  8
0
  6
CONTINUOUS
 62
     7
 10
110.72628
 20
-18.591034
 11
110.72628
 21
-26.091034
  0
LINE
  8
0
  6
CONTINUOUS
 62
     7
 10
116.72628
 20
-12.591032
 11
125.89616
 21
-12.591032
  0
LINE
  8
0
  6
CONTINUOUS
 62
     7
 10
147.7263
 20
44.90897
 11
147.7263
 21
-17.091032
  0
LINE
  8
0
  6
CONTINUOUS
 62
     7
 10
128.72629
 20
44.90897
 11
128.72629
 21
-17.091032
  0
LINE
  8
0
  6
CONTINUOUS
 62
     7
 10
130.72629
 20
46.90897
 11
145.7263
 21
46.90897
  0
LINE
  8
0
  6
CONTINUOUS
 62
     7
 10
130.72629
 20
-19.091034
 11
145.7263
 21
-19.091034
  0
LINE
  8
0
  6
CONTINUOUS
 62
     7
 10
128.72627
 20
44.90897
 11
130.72629
 21
46.90897
  0
LINE
  8
0
  6
CONTINUOUS
 62
     7
 10
145.72629
 20
46.90897
 11
147.72629
 21
44.908974
  0
LINE
  8
0
  6
CONTINUOUS
 62
     7
 10
147.72627
 20
-17.091045
 11
145.72626
 21
-19.091047
  0
LINE
  8
0
  6
CONTINUOUS
 62
     7
 10
128.72629
 20
-17.09104
 11
130.72629
 21
-19.091042
  0
LINE
  8
0
  6
CONTINUOUS
 62
     7
 10
129.72629
 20
27.578018
 11
146.7263
 21
27.578018
  0
LINE
  8
0
  6
CONTINUOUS
 62
     7
 10
129.72629
 20
0.23991546
 11
146.7263
 21
0.23991546
  0
LINE
  8
0
  6
CONTINUOUS
 62
     7
 10
46.726273
 20
44.90897
 11
46.726273
 21
-17.091032
  0
LINE
  8
0
  6
CONTINUOUS
 62
     7
 10
65.726273
 20
44.90897
 11
65.726273
 21
-17.091032
  0
LINE
  8
0
  6
CONTINUOUS
 62
     7
 10
63.726273
 20
46.90897
 11
48.726273
 21
46.90897
  0
LINE
  8
0
  6
CONTINUOUS
 62
     7
 10
63.726273
 20
-19.091034
 11
48.726273
 21
-19.091034
  0
LINE
  8
0
  6
CONTINUOUS
 62
     7
 10
65.726273
 20
44.90897
 11
63.726276
 21
46.908958
  0
LINE
  8
0
  6
CONTINUOUS
 62
     7
 10
48.726273
 20
46.90897
 11
46.726269
 21
44.90897
  0
LINE
  8
0
  6
CONTINUOUS
 62
     7
 10
46.726276
 20
-17.091034
 11
48.726276
 21
-19.091036
  0
LINE
  8
0
  6
CONTINUOUS
 62
     7
 10
65.726273
 20
-17.091042
 11
63.726273
 21
-19.091043
  0
LINE
  8
0
  6
CONTINUOUS
 62
     7
 10
64.726273
 20
27.578018
 11
47.726273
 21
27.578018
  0
LINE
  8
0
  6
CONTINUOUS
 62
     7
 10
64.726273
 20
0.23991546
 11
47.726273
 21
0.23991546
  0
LINE
  8
0
  6
CENTER
 62
     7
 10
-246.4081
 20
-121.44
 11
-112.53312
 21
-121.44
  0
LINE
  8
0
  6
CENTER
 62
     7
 10
-180.2581
 20
-90.815002
 11
-180.2581
 21
-167.465
  0
LINE
  8
0
  6
CONTINUOUS
 62
     7
 10
-211.92798
 20
-94.940002
 11
-148.58824
 21
-94.940002
  0
LINE
  8
0
  6
CONTINUOUS
 62
     7
 10
-211.92798
 20
-147.94
 11
-202.7581
 21
-147.94
  0
LINE
  8
0
  6
CONTINUOUS
 62
     7
 10
-157.7581
 20
-147.94
 11
-148.58824
 21
-147.94
  0
LINE
  8
0
  6
CONTINUOUS
 62
     7
 10
-196.7581
 20
-163.44
 11
-163.7581
 21
-163.44
  0
LINE
  8
0
  6
CONTINUOUS
 62
     7
 10
-196.7581
 20
-153.94
 11
-196.7581
 21
-163.44
  0
LINE
  8
0
  6
CONTINUOUS
 62
     7
 10
-163.7581
 20
-153.94
 11
-163.7581
 21
-163.44
  0
LINE
  8
0
  6
CONTINUOUS
 62
     7
 10
-126.50811
 20
-90.440002
 11
-126.50811
 21
-152.44
  0
LINE
  8
0
  6
CONTINUOUS
 62
     7
 10
-145.5081
 20
-90.440002
 11
-145.5081
 21
-152.44
  0
LINE
  8
0
  6
CONTINUOUS
 62
     7
 10
-143.5081
 20
-88.440002
 11
-128.5081
 21
-88.440002
  0
LINE
  8
0
  6
CONTINUOUS
 62
     7
 10
-143.5081
 20
-154.44
 11
-128.5081
 21
-154.44
  0
LINE
  8
0
  6
CONTINUOUS
 62
     7
 10
-145.5081
 20
-90.439995
 11
-143.50812
 21
-88.440002
  0
LINE
  8
0
  6
CONTINUOUS
 62
     7
 10
-128.5081
 20
-88.439987
 11
-126.5081
 21
-90.439995
  0
LINE
  8
0
  6
CONTINUOUS
 62
     7
 10
-126.50811
 20
-152.43999
 11
-128.50812
 21
-154.43999
  0
LINE
  8
0
  6
CONTINUOUS
 62
     7
 10
-145.5081
 20
-152.44
 11
-143.5081
 21
-154.44
  0
LINE
  8
0
  6
CONTINUOUS
 62
     7
 10
-144.5081
 20
-107.77095
 11
-127.50811
 21
-107.77095
  0
LINE
  8
0
  6
CONTINUOUS
 62
     7
 10
-144.5081
 20
-135.10905
 11
-127.50811
 21
-135.10905
  0
LINE
  8
0
  6
CONTINUOUS
 62
     7
 10
-234.0081
 20
-90.440002
 11
-234.0081
 21
-152.44
  0
LINE
  8
0
  6
CONTINUOUS
 62
     7
 10
-215.0081
 20
-90.440002
 11
-215.0081
 21
-152.44
  0
LINE
  8
0
  6
CONTINUOUS
 62
     7
 10
-217.0081
 20
-88.440002
 11
-232.0081
 21
-88.440002
  0
LINE
  8
0
  6
CONTINUOUS
 62
     7
 10
-217.0081
 20
-154.44
 11
-232.0081
 21
-154.44
  0
LINE
  8
0
  6
CONTINUOUS
 62
     7
 10
-215.0081
 20
-90.440002
 11
-217.0081
 21
-88.440002
  0
LINE
  8
0
  6
CONTINUOUS
 62
     7
 10
-232.0081
 20
-88.439995
 11
-234.0081
 21
-90.439995
  0
LINE
  8
0
  6
CONTINUOUS
 62
     7
 10
-234.0081
 20
-152.43999
 11
-232.0081
 21
-154.43999
  0
LINE
  8
0
  6
CONTINUOUS
 62
     7
 10
-215.0081
 20
-152.43999
 11
-217.0081
 21
-154.43999
  0
LINE
  8
0
  6
CONTINUOUS
 62
     7
 10
-216.0081
 20
-107.77095
 11
-233.0081
 21
-107.77095
  0
LINE
  8
0
  6
CONTINUOUS
 62
     7
 10
-216.0081
 20
-135.10905
 11
-233.0081
 21
-135.10905
  0
LINE
  8
0
  6
CENTER
 62
     7
 10
67.675865
 20
-90.536133
 11
67.675865
 21
-168.23613
  0
LINE
  8
0
  6
CENTER
 62
     7
 10
1.0008643
 20
-119.93613
 11
141.70087
 21
-119.93613
  0
LINE
  8
0
  6
CONTINUOUS
 62
     7
 10
33.005989
 20
-93.436134
 11
102.34573
 21
-93.436134
  0
LINE
  8
0
  6
CONTINUOUS
 62
     7
 10
94.175865
 20
-146.43613
 11
102.34573
 21
-146.43613
  0
LINE
  8
0
  6
CONTINUOUS
 62
     7
 10
41.175865
 20
-146.43613
 11
33.005989
 21
-146.43613
  0
LINE
  8
0
  6
CONTINUOUS
 62
     7
 10
47.175865
 20
-163.93613
 11
88.175865
 21
-163.93613
  0
LINE
  8
0
  6
CONTINUOUS
 62
     7
 10
47.175865
 20
-152.43613
 11
47.175865
 21
-163.93613
  0
LINE
  8
0
  6
CONTINUOUS
 62
     7
 10
88.175865
 20
-152.43613
 11
88.175865
 21
-163.93613
  0
LINE
  8
0
  6
CONTINUOUS
 62
     7
 10
124.42587
 20
-88.936134
 11
124.42587
 21
-150.93613
  0
LINE
  8
0
  6
CONTINUOUS
 62
     7
 10
105.42587
 20
-88.936134
 11
105.42587
 21
-150.93613
  0
LINE
  8
0
  6
CONTINUOUS
 62
     7
 10
107.42587
 20
-86.936134
 11
122.42587
 21
-86.936134
  0
LINE
  8
0
  6
CONTINUOUS
 62
     7
 10
107.42587
 20
-152.93613
 11
122.42587
 21
-152.93613
  0
LINE
  8
0
  6
CONTINUOUS
 62
     7
 10
105.42586
 20
-88.936127
 11
107.42586
 21
-86.936127
  0
LINE
  8
0
  6
CONTINUOUS
 62
     7
 10
122.42587
 20
-86.936134
 11
124.42586
 21
-88.936127
  0
LINE
  8
0
  6
CONTINUOUS
 62
     7
 10
124.42585
 20
-150.93613
 11
122.42585
 21
-152.93613
  0
LINE
  8
0
  6
CONTINUOUS
 62
     7
 10
105.42586
 20
-150.93613
 11
107.42586
 21
-152.93613
  0
LINE
  8
0
  6
CONTINUOUS
 62
     7
 10
106.42587
 20
-106.26708
 11
123.42587
 21
-106.26708
  0
LINE
  8
0
  6
CONTINUOUS
 62
     7
 10
106.42587
 20
-133.60518
 11
123.42587
 21
-133.60518
  0
LINE
  8
0
  6
CONTINUOUS
 62
     7
 10
10.925865
 20
-88.936134
 11
10.925865
 21
-150.93613
  0
LINE
  8
0
  6
CONTINUOUS
 62
     7
 10
29.925865
 20
-88.936134
 11
29.925865
 21
-150.93613
  0
LINE
  8
0
  6
CONTINUOUS
 62
     7
 10
27.925865
 20
-86.936134
 11
12.925865
 21
-86.936134
  0
LINE
  8
0
  6
CONTINUOUS
 62
     7
 10
27.925865
 20
-152.93613
 11
12.925865
 21
-152.93613
  0
LINE
  8
0
  6
CONTINUOUS
 62
     7
 10
29.925856
 20
-88.936134
 11
27.925863
 21
-86.936142
  0
LINE
  8
0
  6
CONTINUOUS
 62
     7
 10
12.92586
 20
-86.936134
 11
10.925858
 21
-88.936134
  0
LINE
  8
0
  6
CONTINUOUS
 62
     7
 10
10.925856
 20
-150.93614
 11
12.925858
 21
-152.93614
  0
LINE
  8
0
  6
CONTINUOUS
 62
     7
 10
29.925863
 20
-150.93614
 11
27.925873
 21
-152.93614
  0
LINE
  8
0
  6
CONTINUOUS
 62
     7
 10
28.925865
 20
-106.26708
 11
11.925865
 21
-106.26708
  0
LINE
  8
0
  6
CONTINUOUS
 62
     7
 10
28.925865
 20
-133.60518
 11
11.925865
 21
-133.60518
  0
LINE
  8
0
  6
CENTER
 62
     7
 10
-261.99127
 20
-318.50641
 11
-130.04128
 21
-318.50641
  0
LINE
  8
0
  6
CENTER
 62
     7
 10
-201.85378
 20
-282.70639
 11
-201.85378
 21
-367.75641
  0
LINE
  8
0
  6
CONTINUOUS
 62
     7
 10
-231.02365
 20
-288.50641
 11
-172.6839
 21
-288.50641
  0
LINE
  8
0
  6
CONTINUOUS
 62
     7
 10
-231.02365
 20
-348.50641
 11
-221.35378
 21
-348.50641
  0
LINE
  8
0
  6
CONTINUOUS
 62
     7
 10
-172.6839
 20
-348.50641
 11
-182.35378
 21
-348.50641
  0
LINE
  8
0
  6
CONTINUOUS
 62
     7
 10
-215.35378
 20
-362.00641
 11
-188.35378
 21
-362.00641
  0
LINE
  8
0
  6
CONTINUOUS
 62
     7
 10
-188.35378
 20
-354.50641
 11
-188.35378
 21
-362.00641
  0
LINE
  8
0
  6
CONTINUOUS
 62
     7
 10
-215.35378
 20
-354.50641
 11
-215.35378
 21
-362.00641
  0
LINE
  8
0
  6
CONTINUOUS
 62
     7
 10
-148.35378
 20
-284.00641
 11
-148.35378
 21
-353.00641
  0
LINE
  8
0
  6
CONTINUOUS
 62
     7
 10
-169.35378
 20
-318.50641
 11
-149.35378
 21
-318.50641
  0
LINE
  8
0
  6
CONTINUOUS
 62
     7
 10
-170.35378
 20
-284.00641
 11
-170.35378
 21
-353.00641
  0
LINE
  8
0
  6
CONTINUOUS
 62
     7
 10
-168.35378
 20
-282.00641
 11
-150.35378
 21
-282.00641
  0
LINE
  8
0
  6
CONTINUOUS
 62
     7
 10
-168.35378
 20
-355.00641
 11
-150.35378
 21
-355.00641
  0
LINE
  8
0
  6
CONTINUOUS
 62
     7
 10
-169.35378
 20
-295.94815
 11
-149.35378
 21
-295.94815
  0
LINE
  8
0
  6
CONTINUOUS
 62
     7
 10
-169.35378
 20
-341.06464
 11
-149.35378
 21
-341.06464
  0
LINE
  8
0
  6
CONTINUOUS
 62
     7
 10
-170.35378
 20
-284.00641
 11
-168.35378
 21
-282.00641
  0
LINE
  8
0
  6
CONTINUOUS
 62
     7
 10
-150.35379
 20
-282.00641
 11
-148.35379
 21
-284.00641
  0
LINE
  8
0
  6
CONTINUOUS
 62
     7
 10
-170.35378
 20
-353.00641
 11
-168.35378
 21
-355.00641
  0
LINE
  8
0
  6
CONTINUOUS
 62
     7
 10
-148.35378
 20
-353.00638
 11
-150.35379
 21
-355.00638
  0
LINE
  8
0
  6
CONTINUOUS
 62
     7
 10
-255.35378
 20
-284.00641
 11
-255.35378
 21
-353.00641
  0
LINE
  8
0
  6
CONTINUOUS
 62
     7
 10
-234.35378
 20
-318.50641
 11
-254.35378
 21
-318.50641
  0
LINE
  8
0
  6
CONTINUOUS
 62
     7
 10
-233.35378
 20
-284.00641
 11
-233.35378
 21
-353.00641
  0
LINE
  8
0
  6
CONTINUOUS
 62
     7
 10
-235.35378
 20
-282.00641
 11
-253.35378
 21
-282.00641
  0
LINE
  8
0
  6
CONTINUOUS
 62
     7
 10
-235.35378
 20
-355.00641
 11
-253.35378
 21
-355.00641
  0
LINE
  8
0
  6
CONTINUOUS
 62
     7
 10
-234.35378
 20
-295.94815
 11
-254.35378
 21
-295.94815
  0
LINE
  8
0
  6
CONTINUOUS
 62
     7
 10
-234.35378
 20
-341.06464
 11
-254.35378
 21
-341.06464
  0
LINE
  8
0
  6
CONTINUOUS
 62
     7
 10
-233.35378
 20
-284.00641
 11
-235.35378
 21
-282.00641
  0
LINE
  8
0
  6
CONTINUOUS
 62
     7
 10
-253.35379
 20
-282.00641
 11
-255.35376
 21
-284.00638
  0
LINE
  8
0
  6
CONTINUOUS
 62
     7
 10
-233.35376
 20
-353.00638
 11
-235.35376
 21
-355.00638
  0
LINE
  8
0
  6
CONTINUOUS
 62
     7
 10
-255.35376
 20
-353.00641
 11
-253.35376
 21
-355.00641
  0
LINE
  8
0
  6
CONTINUOUS
 62
     7
 10
-297
 20
-210
 11
-297
 21
210
  0
LINE
  8
0
  6
CONTINUOUS
 62
     7
 10
-297
 20
210
 11
297
 21
210
  0
LINE
  8
0
  6
CONTINUOUS
 62
     7
 10
297
 20
-210
 11
-297
 21
-210
  0
LINE
  8
0
  6
CONTINUOUS
 62
     7
 10
297.93689
 20
210.25716
 11
297.93689
 21
-209.74284
  0
LINE
  8
0
  6
CONTINUOUS
 62
     7
 10
80.438408
 20
160.85397
 11
80.438408
 21
106.85397
  0
LINE
  8
0
  6
CONTINUOUS
 62
     7
 10
-41.446133
 20
151.77908
 11
-55.787834
 21
166.12077
  0
LINE
  8
0
  6
CONTINUOUS
 62
     7
 10
-55.78783
 20
166.12077
 11
-76.070053
 21
166.12077
  0
LINE
  8
0
  6
CONTINUOUS
 62
     7
 10
-90.411758
 20
151.77907
 11
-76.070061
 21
166.12077
  0
LINE
  8
0
  6
CONTINUOUS
 62
     7
 10
-90.411751
 20
131.49686
 11
-90.411751
 21
151.77907
  0
LINE
  8
0
  6
CONTINUOUS
 62
     7
 10
-76.070068
 20
117.15514
 11
-90.411766
 21
131.49684
  0
LINE
  8
0
  6
CONTINUOUS
 62
     7
 10
-55.78783
 20
117.15515
 11
-76.070053
 21
117.15515
  0
LINE
  8
0
  6
CONTINUOUS
 62
     7
 10
-41.446144
 20
131.49686
 11
-55.787846
 21
117.15516
  0
LINE
  8
0
  6
CONTINUOUS
 62
     7
 10
-41.446125
 20
151.77907
 11
-41.446125
 21
131.49686
  0
LINE
  8
0
  6
CENTER
 62
     7
 10
-65.92894
 20
167.67386
 11
-65.92894
 21
115.60207
  0
LINE
  8
0
  6
CONTINUOUS
 62
     7
 10
-30.487173
 20
27.425035
 11
-47.474987
 21
44.412849
  0
LINE
  8
0
  6
CONTINUOUS
 62
     7
 10
-47.474991
 20
44.412849
 11
-71.499374
 21
44.412849
  0
LINE
  8
0
  6
CONTINUOUS
 62
     7
 10
-88.487183
 20
27.425041
 11
-71.499374
 21
44.412849
  0
LINE
  8
0
  6
CONTINUOUS
 62
     7
 10
-88.487183
 20
3.400646
 11
-88.487183
 21
27.425035
  0
LINE
  8
0
  6
CONTINUOUS
 62
     7
 10
-71.499367
 20
-13.587159
 11
-88.487183
 21
3.4006531
  0
LINE
  8
0
  6
CONTINUOUS
 62
     7
 10
-47.474991
 20
-13.587155
 11
-71.499374
 21
-13.587155
  0
LINE
  8
0
  6
CONTINUOUS
 62
     7
 10
-30.487173
 20
3.4006464
 11
-47.474979
 21
-13.587159
  0
LINE
  8
0
  6
CONTINUOUS
 62
     7
 10
-30.487183
 20
27.425035
 11
-30.487183
 21
3.400646
  0
LINE
  8
0
  6
CENTER
 62
     7
 10
-59.487183
 20
50.521729
 11
-59.487183
 21
-18.715452
  0
LINE
  8
0
  6
CONTINUOUS
 62
     7
 10
250.22629
 20
27.578028
 11
230.89532
 21
46.908985
  0
LINE
  8
0
  6
CONTINUOUS
 62
     7
 10
230.89534
 20
46.90897
 11
203.55724
 21
46.90897
  0
LINE
  8
0
  6
CONTINUOUS
 62
     7
 10
184.22629
 20
27.578022
 11
203.55725
 21
46.908981
  0
LINE
  8
0
  6
CONTINUOUS
 62
     7
 10
184.22629
 20
0.23991546
 11
184.22629
 21
27.578011
  0
LINE
  8
0
  6
CONTINUOUS
 62
     7
 10
203.55724
 20
-19.091021
 11
184.22629
 21
0.23993897
  0
LINE
  8
0
  6
CONTINUOUS
 62
     7
 10
230.89534
 20
-19.091034
 11
203.55724
 21
-19.091034
  0
LINE
  8
0
  6
CONTINUOUS
 62
     7
 10
250.22629
 20
0.23993897
 11
230.89532
 21
-19.091021
  0
LINE
  8
0
  6
CONTINUOUS
 62
     7
 10
250.22629
 20
27.578011
 11
250.22629
 21
0.23991546
  0
LINE
  8
0
  6
CENTER
 62
     7
 10
217.22629
 20
47.794865
 11
217.22629
 21
-19.976929
  0
LINE
  8
0
  6
CONTINUOUS
 62
     7
 10
114.8451
 20
-1211.4081
 11
106.10983
 21
-1184.5237
  0
LINE
  8
0
  6
CONTINUOUS
 62
     7
 10
106.1098
 20
-1184.5237
 11
83.240501
 21
-1167.9081
  0
LINE
  8
0
  6
CONTINUOUS
 62
     7
 10
54.972507
 20
-1167.9082
 11
83.240517
 21
-1167.9082
  0
LINE
  8
0
  6
CONTINUOUS
 62
     7
 10
32.103138
 20
-1184.5237
 11
54.972485
 21
-1167.9081
  0
LINE
  8
0
  6
CONTINUOUS
 62
     7
 10
23.367893
 20
-1211.4082
 11
32.103207
 21
-1184.5237
  0
LINE
  8
0
  6
CONTINUOUS
 62
     7
 10
32.103184
 20
-1238.2926
 11
23.367908
 21
-1211.4082
  0
LINE
  8
0
  6
CONTINUOUS
 62
     7
 10
54.972481
 20
-1254.9081
 11
32.103184
 21
-1238.2926
  0
LINE
  8
0
  6
CONTINUOUS
 62
     7
 10
83.240517
 20
-1254.9082
 11
54.972507
 21
-1254.9082
  0
LINE
  8
0
  6
CONTINUOUS
 62
     7
 10
106.1098
 20
-1238.2926
 11
83.240456
 21
-1254.9082
  0
LINE
  8
0
  6
CONTINUOUS
 62
     7
 10
114.84512
 20
-1211.4082
 11
106.10981
 21
-1238.2927
  0
LINE
  8
0
  6
CENTER
 62
     7
 10
69.106483
 20
-1158.2081
 11
69.106483
 21
-1262.5082
  0
LINE
  8
0
  6
CENTER
 62
     7
 10
116.38385
 20
-1343.0367
 11
116.38385
 21
-1457.3882
  0
LINE
  8
0
  6
CENTER
 62
     7
 10
118.11974
 20
-1698.1444
 11
118.11974
 21
-1821.1444
  0
LINE
  8
0
  6
CONTINUOUS
 62
     7
 10
182.78471
 20
-1759.6444
 11
170.43478
 21
-1721.6353
  0
LINE
  8
0
  6
CONTINUOUS
 62
     7
 10
170.43484
 20
-1721.6354
 11
138.1024
 21
-1698.1445
  0
LINE
  8
0
  6
CONTINUOUS
 62
     7
 10
98.137199
 20
-1698.1444
 11
138.10242
 21
-1698.1444
  0
LINE
  8
0
  6
CONTINUOUS
 62
     7
 10
65.804787
 20
-1721.6354
 11
98.137222
 21
-1698.1444
  0
LINE
  8
0
  6
CONTINUOUS
 62
     7
 10
53.454876
 20
-1759.6444
 11
65.804764
 21
-1721.6354
  0
LINE
  8
0
  6
CONTINUOUS
 62
     7
 10
65.804756
 20
-1797.6536
 11
53.454826
 21
-1759.6443
  0
LINE
  8
0
  6
CONTINUOUS
 62
     7
 10
98.13726
 20
-1821.1444
 11
65.804825
 21
-1797.6536
  0
LINE
  8
0
  6
CONTINUOUS
 62
     7
 10
138.10242
 20
-1821.1444
 11
98.137199
 21
-1821.1444
  0
LINE
  8
0
  6
CONTINUOUS
 62
     7
 10
170.43481
 20
-1797.6536
 11
138.10237
 21
-1821.1444
  0
LINE
  8
0
  6
CONTINUOUS
 62
     7
 10
182.78471
 20
-1759.6444
 11
170.43483
 21
-1797.6534
  0
LINE
  8
0
  6
CENTER
 62
     7
 10
54.129028
 20
-1399.8516
 11
177.67902
 21
-1399.8516
  0
LINE
  8
0
  6
CENTER
 62
     7
 10
50.952999
 20
-1759.6444
 11
186.96985
 21
-1759.6444
  0
LINE
  8
0
  6
CENTER
 62
     7
 10
18.81345
 20
-1211.4082
 11
120.73618
 21
-1211.4082
  0
LINE
  8
0
  6
CENTER
 62
     7
 10
175.22211
 20
13.908968
 11
258.73874
 21
13.908968
  0
LINE
  8
0
  6
CENTER
 62
     7
 10
-95.029175
 20
15.412845
 11
-22.868149
 21
15.412845
  0
LINE
  8
0
  6
CENTER
 62
     7
 10
-95.994576
 20
141.63797
 11
-35.769154
 21
141.63797
  0
LINE
  8
0
  6
CONTINUOUS
 62
     7
 10
192.68842
 20
145.86617
 11
175.70061
 21
162.85397
  0
LINE
  8
0
  6
CONTINUOUS
 62
     7
 10
175.70059
 20
162.85397
 11
151.67621
 21
162.85397
  0
LINE
  8
0
  6
CONTINUOUS
 62
     7
 10
134.68842
 20
145.86618
 11
151.67621
 21
162.85397
  0
LINE
  8
0
  6
CONTINUOUS
 62
     7
 10
134.6884
 20
121.84177
 11
134.6884
 21
145.86617
  0
LINE
  8
0
  6
CONTINUOUS
 62
     7
 10
151.67622
 20
104.85397
 11
134.68842
 21
121.84179
  0
LINE
  8
0
  6
CONTINUOUS
 62
     7
 10
175.70059
 20
104.85397
 11
151.67621
 21
104.85397
  0
LINE
  8
0
  6
CONTINUOUS
 62
     7
 10
192.68842
 20
121.84178
 11
175.70061
 21
104.85397
  0
LINE
  8
0
  6
CONTINUOUS
 62
     7
 10
192.6884
 20
145.86617
 11
192.6884
 21
121.84177
  0
LINE
  8
0
  6
CENTER
 62
     7
 10
163.6884
 20
168.96286
 11
163.6884
 21
99.725677
  0
LINE
  8
0
  6
CENTER
 62
     7
 10
128.14641
 20
133.85397
 11
200.30743
 21
133.85397
  0
LINE
  8
0
  6
CONTINUOUS
 62
     7
 10
-27.258097
 20
-107.77097
 11
-46.589054
 21
-88.44001
  0
LINE
  8
0
  6
CONTINUOUS
 62
     7
 10
-46.589054
 20
-88.440002
 11
-73.927155
 21
-88.440002
  0
LINE
  8
0
  6
CONTINUOUS
 62
     7
 10
-93.258095
 20
-107.77095
 11
-73.927139
 21
-88.439995
  0
LINE
  8
0
  6
CONTINUOUS
 62
     7
 10
-93.25811
 20
-135.10905
 11
-93.25811
 21
-107.77096
  0
LINE
  8
0
  6
CONTINUOUS
 62
     7
 10
-73.927132
 20
-154.44
 11
-93.258095
 21
-135.10904
  0
LINE
  8
0
  6
CONTINUOUS
 62
     7
 10
-46.589054
 20
-154.44
 11
-73.927155
 21
-154.44
  0
LINE
  8
0
  6
CONTINUOUS
 62
     7
 10
-27.258089
 20
-135.10905
 11
-46.589043
 21
-154.44
  0
LINE
  8
0
  6
CONTINUOUS
 62
     7
 10
-27.258108
 20
-107.77096
 11
-27.258108
 21
-135.10905
  0
LINE
  8
0
  6
CENTER
 62
     7
 10
-60.258106
 20
-87.554108
 11
-60.258106
 21
-155.3259
  0
LINE
  8
0
  6
CENTER
 62
     7
 10
-102.26229
 20
-121.44
 11
-18.745657
 21
-121.44
  0
LINE
  8
0
  6
CONTINUOUS
 62
     7
 10
230.67587
 20
-106.26709
 11
211.34492
 21
-86.936127
  0
LINE
  8
0
  6
CONTINUOUS
 62
     7
 10
211.34492
 20
-86.936127
 11
184.00682
 21
-86.936127
  0
LINE
  8
0
  6
CONTINUOUS
 62
     7
 10
164.67586
 20
-106.26707
 11
184.00682
 21
-86.936111
  0
LINE
  8
0
  6
CONTINUOUS
 62
     7
 10
164.67587
 20
-133.60518
 11
164.67587
 21
-106.26708
  0
LINE
  8
0
  6
CONTINUOUS
 62
     7
 10
184.00684
 20
-152.93613
 11
164.67587
 21
-133.60516
  0
LINE
  8
0
  6
CONTINUOUS
 62
     7
 10
211.34492
 20
-152.93613
 11
184.00682
 21
-152.93613
  0
LINE
  8
0
  6
CONTINUOUS
 62
     7
 10
230.67589
 20
-133.60516
 11
211.34492
 21
-152.93613
  0
LINE
  8
0
  6
CONTINUOUS
 62
     7
 10
230.67587
 20
-106.26708
 11
230.67587
 21
-133.60518
  0
LINE
  8
0
  6
CENTER
 62
     7
 10
197.67587
 20
-86.050232
 11
197.67587
 21
-153.82202
  0
LINE
  8
0
  6
CENTER
 62
     7
 10
155.67169
 20
-119.93613
 11
239.18832
 21
-119.93613
  0
LINE
  8
0
  6
CENTER
 62
     7
 10
223.88295
 20
-472.18546
 11
223.88295
 21
-556.53546
  0
LINE
  8
0
  6
CONTINUOUS
 62
     7
 10
262.26129
 20
-514.01044
 11
254.93169
 21
-491.45221
  0
LINE
  8
0
  6
CONTINUOUS
 62
     7
 10
254.93172
 20
-491.45224
 11
235.74252
 21
-477.51047
  0
LINE
  8
0
  6
CONTINUOUS
 62
     7
 10
212.02338
 20
-477.51047
 11
235.74251
 21
-477.51047
  0
LINE
  8
0
  6
CONTINUOUS
 62
     7
 10
192.8342
 20
-491.45221
 11
212.02338
 21
-477.51047
  0
LINE
  8
0
  6
CONTINUOUS
 62
     7
 10
185.50458
 20
-514.01044
 11
192.8342
 21
-491.45221
  0
LINE
  8
0
  6
CONTINUOUS
 62
     7
 10
192.83418
 20
-536.56866
 11
185.50456
 21
-514.01044
  0
LINE
  8
0
  6
CONTINUOUS
 62
     7
 10
212.02339
 20
-550.5105
 11
192.8342
 21
-536.56873
  0
LINE
  8
0
  6
CONTINUOUS
 62
     7
 10
235.74251
 20
-550.51044
 11
212.02338
 21
-550.51044
  0
LINE
  8
0
  6
CONTINUOUS
 62
     7
 10
254.9317
 20
-536.56873
 11
235.74252
 21
-550.51044
  0
LINE
  8
0
  6
CONTINUOUS
 62
     7
 10
262.26132
 20
-514.01044
 11
254.9317
 21
-536.56873
  0
LINE
  8
0
  6
CENTER
 62
     7
 10
181.04906
 20
-514.0105
 11
266.73834
 21
-514.0105
  0
LINE
  8
0
  6
CENTER
 62
     7
 10
-61.853779
 20
-276.6814
 11
-61.853779
 21
-361.03137
  0
LINE
  8
0
  6
CONTINUOUS
 62
     7
 10
-23.475412
 20
-318.50638
 11
-30.805021
 21
-295.94815
  0
LINE
  8
0
  6
CONTINUOUS
 62
     7
 10
-30.805019
 20
-295.94815
 11
-49.994205
 21
-282.00638
  0
LINE
  8
0
  6
CONTINUOUS
 62
     7
 10
-73.713348
 20
-282.00641
 11
-49.994213
 21
-282.00641
  0
LINE
  8
0
  6
CONTINUOUS
 62
     7
 10
-92.902519
 20
-295.94815
 11
-73.713341
 21
-282.00641
  0
LINE
  8
0
  6
CONTINUOUS
 62
     7
 10
-100.23215
 20
-318.50641
 11
-92.902534
 21
-295.94815
  0
LINE
  8
0
  6
CONTINUOUS
 62
     7
 10
-92.902542
 20
-341.06464
 11
-100.23215
 21
-318.50641
  0
LINE
  8
0
  6
CONTINUOUS
 62
     7
 10
-73.713341
 20
-355.00638
 11
-92.902527
 21
-341.06464
  0
LINE
  8
0
  6
CONTINUOUS
 62
     7
 10
-49.994213
 20
-355.00638
 11
-73.713341
 21
-355.00638
  0
LINE
  8
0
  6
CONTINUOUS
 62
     7
 10
-30.80501
 20
-341.06467
 11
-49.99419
 21
-355.00641
  0
LINE
  8
0
  6
CONTINUOUS
 62
     7
 10
-23.475397
 20
-318.50638
 11
-30.805017
 21
-341.06464
  0
LINE
  8
0
  6
CENTER
 62
     7
 10
-104.68767
 20
-318.50641
 11
-18.998384
 21
-318.50641
  0
LINE
  8
0
  6
CENTER
 62
     7
 10
202.82866
 20
-275.17752
 11
202.82866
 21
-359.5275
  0
LINE
  8
0
  6
CONTINUOUS
 62
     7
 10
241.20703
 20
-317.00253
 11
233.87743
 21
-294.44431
  0
LINE
  8
0
  6
CONTINUOUS
 62
     7
 10
233.87741
 20
-294.44427
 11
214.68822
 21
-280.5025
  0
LINE
  8
0
  6
CONTINUOUS
 62
     7
 10
190.96909
 20
-280.50253
 11
214.68823
 21
-280.50253
  0
LINE
  8
0
  6
CONTINUOUS
 62
     7
 10
171.77991
 20
-294.44427
 11
190.9691
 21
-280.5025
  0
LINE
  8
0
  6
CONTINUOUS
 62
     7
 10
164.45027
 20
-317.0025
 11
171.77989
 21
-294.44427
  0
LINE
  8
0
  6
CONTINUOUS
 62
     7
 10
171.77991
 20
-339.56076
 11
164.45029
 21
-317.00253
  0
LINE
  8
0
  6
CONTINUOUS
 62
     7
 10
190.96909
 20
-353.5025
 11
171.77989
 21
-339.56073
  0
LINE
  8
0
  6
CONTINUOUS
 62
     7
 10
214.68823
 20
-353.5025
 11
190.9691
 21
-353.5025
  0
LINE
  8
0
  6
CONTINUOUS
 62
     7
 10
233.87744
 20
-339.56076
 11
214.68825
 21
-353.50253
  0
LINE
  8
0
  6
CONTINUOUS
 62
     7
 10
241.20703
 20
-317.0025
 11
233.87743
 21
-339.56076
  0
LINE
  8
0
  6
CENTER
 62
     7
 10
159.99477
 20
-317.00253
 11
245.68405
 21
-317.00253
  0
LINE
  8
0
  6
CENTER
 62
     7
 10
-61.853779
 20
-467.67383
 11
-61.853779
 21
-552.0238
  0
LINE
  8
0
  6
CONTINUOUS
 62
     7
 10
-23.475401
 20
-509.49884
 11
-30.805012
 21
-486.94061
  0
LINE
  8
0
  6
CONTINUOUS
 62
     7
 10
-30.805023
 20
-486.94058
 11
-49.994217
 21
-472.99884
  0
LINE
  8
0
  6
CONTINUOUS
 62
     7
 10
-73.713348
 20
-472.99884
 11
-49.994213
 21
-472.99884
  0
LINE
  8
0
  6
CONTINUOUS
 62
     7
 10
-92.902527
 20
-486.94058
 11
-73.713333
 21
-472.99884
  0
LINE
  8
0
  6
CONTINUOUS
 62
     7
 10
-100.23216
 20
-509.49884
 11
-92.902534
 21
-486.94058
  0
LINE
  8
0
  6
CONTINUOUS
 62
     7
 10
-92.902542
 20
-532.05707
 11
-100.23215
 21
-509.49887
  0
LINE
  8
0
  6
CONTINUOUS
 62
     7
 10
-73.713348
 20
-545.99884
 11
-92.902542
 21
-532.05707
  0
LINE
  8
0
  6
CONTINUOUS
 62
     7
 10
-49.994213
 20
-545.99884
 11
-73.713341
 21
-545.99884
  0
LINE
  8
0
  6
CONTINUOUS
 62
     7
 10
-30.805012
 20
-532.05707
 11
-49.994205
 21
-545.99884
  0
LINE
  8
0
  6
CONTINUOUS
 62
     7
 10
-23.475391
 20
-509.49881
 11
-30.805019
 21
-532.05707
  0
LINE
  8
0
  6
CENTER
 62
     7
 10
-104.68767
 20
-509.49884
 11
-18.998384
 21
-509.49884
  0
LINE
  8
0
  6
CONTINUOUS
 62
     7
 10
-28.164474
 20
-773.29041
 11
-36.899769
 21
-746.40594
  0
LINE
  8
0
  6
CONTINUOUS
 62
     7
 10
-36.89978
 20
-746.40588
 11
-59.769077
 21
-729.79034
  0
LINE
  8
0
  6
CONTINUOUS
 62
     7
 10
-88.037109
 20
-729.79041
 11
-59.769104
 21
-729.79041
  0
LINE
  8
0
  6
CONTINUOUS
 62
     7
 10
-110.90638
 20
-746.40594
 11
-88.037086
 21
-729.79041
  0
LINE
  8
0
  6
CONTINUOUS
 62
     7
 10
-119.64172
 20
-773.29041
 11
-110.90643
 21
-746.40594
  0
LINE
  8
0
  6
CONTINUOUS
 62
     7
 10
-110.90642
 20
-800.17487
 11
-119.64172
 21
-773.29041
  0
LINE
  8
0
  6
CONTINUOUS
 62
     7
 10
-88.037094
 20
-816.79034
 11
-110.90639
 21
-800.17487
  0
LINE
  8
0
  6
CONTINUOUS
 62
     7
 10
-59.769104
 20
-816.79041
 11
-88.037109
 21
-816.79041
  0
LINE
  8
0
  6
CONTINUOUS
 62
     7
 10
-36.899803
 20
-800.17487
 11
-59.7691
 21
-816.79034
  0
LINE
  8
0
  6
CONTINUOUS
 62
     7
 10
-28.164515
 20
-773.29041
 11
-36.899807
 21
-800.17487
  0
LINE
  8
0
  6
CENTER
 62
     7
 10
-73.903137
 20
-720.09039
 11
-73.903137
 21
-824.39038
  0
LINE
  8
0
  6
CENTER
 62
     7
 10
-124.19614
 20
-773.29041
 11
-22.273376
 21
-773.29041
  0
LINE
  8
0
  6
CONTINUOUS
 62
     7
 10
268.96909
 20
-773.29041
 11
260.2338
 21
-746.40594
  0
LINE
  8
0
  6
CONTINUOUS
 62
     7
 10
260.2338
 20
-746.40594
 11
237.3645
 21
-729.79041
  0
LINE
  8
0
  6
CONTINUOUS
 62
     7
 10
209.0965
 20
-729.79041
 11
237.3645
 21
-729.79041
  0
LINE
  8
0
  6
CONTINUOUS
 62
     7
 10
186.2272
 20
-746.40594
 11
209.0965
 21
-729.79047
  0
LINE
  8
0
  6
CONTINUOUS
 62
     7
 10
177.49191
 20
-773.29041
 11
186.2272
 21
-746.40594
  0
LINE
  8
0
  6
CONTINUOUS
 62
     7
 10
186.22719
 20
-800.17487
 11
177.4919
 21
-773.29041
  0
LINE
  8
0
  6
CONTINUOUS
 62
     7
 10
209.09648
 20
-816.79041
 11
186.22719
 21
-800.17487
  0
LINE
  8
0
  6
CONTINUOUS
 62
     7
 10
237.3645
 20
-816.79041
 11
209.0965
 21
-816.79041
  0
LINE
  8
0
  6
CONTINUOUS
 62
     7
 10
260.2338
 20
-800.17487
 11
237.36449
 21
-816.79041
  0
LINE
  8
0
  6
CONTINUOUS
 62
     7
 10
268.96912
 20
-773.29041
 11
260.23383
 21
-800.17487
  0
LINE
  8
0
  6
CENTER
 62
     7
 10
223.23047
 20
-720.09039
 11
223.23047
 21
-824.39038
  0
LINE
  8
0
  6
CENTER
 62
     7
 10
172.9375
 20
-773.29041
 11
274.86023
 21
-773.29041
  0
LINE
  8
0
  6
CONTINUOUS
 62
     7
 10
-24.764448
 20
-968.09039
 11
-33.499744
 21
-941.20593
  0
LINE
  8
0
  6
CONTINUOUS
 62
     7
 10
-33.499744
 20
-941.20587
 11
-56.369041
 21
-924.59033
  0
LINE
  8
0
  6
CONTINUOUS
 62
     7
 10
-84.637085
 20
-924.59039
 11
-56.36908
 21
-924.59039
  0
LINE
  8
0
  6
CONTINUOUS
 62
     7
 10
-107.50636
 20
-941.20593
 11
-84.637062
 21
-924.59039
  0
LINE
  8
0
  6
CONTINUOUS
 62
     7
 10
-116.24168
 20
-968.09039
 11
-107.50639
 21
-941.20593
  0
LINE
  8
0
  6
CONTINUOUS
 62
     7
 10
-107.50639
 20
-994.97485
 11
-116.24169
 21
-968.09039
  0
LINE
  8
0
  6
CONTINUOUS
 62
     7
 10
-84.637062
 20
-1011.5903
 11
-107.50636
 21
-994.97485
  0
LINE
  8
0
  6
CONTINUOUS
 62
     7
 10
-56.36908
 20
-1011.5904
 11
-84.637085
 21
-1011.5904
  0
LINE
  8
0
  6
CONTINUOUS
 62
     7
 10
-33.499786
 20
-994.97479
 11
-56.369083
 21
-1011.5903
  0
LINE
  8
0
  6
CONTINUOUS
 62
     7
 10
-24.764444
 20
-968.09039
 11
-33.499737
 21
-994.97485
  0
LINE
  8
0
  6
CENTER
 62
     7
 10
-70.503113
 20
-914.89038
 11
-70.503113
 21
-1019.1904
  0
LINE
  8
0
  6
CENTER
 62
     7
 10
-120.79611
 20
-968.09039
 11
-18.873352
 21
-968.09039
  0
LINE
  8
0
  6
CONTINUOUS
 62
     7
 10
281.32504
 20
-969.70746
 11
272.58972
 21
-942.82288
  0
LINE
  8
0
  6
CONTINUOUS
 62
     7
 10
272.58972
 20
-942.82288
 11
249.72043
 21
-926.20734
  0
LINE
  8
0
  6
CONTINUOUS
 62
     7
 10
221.45239
 20
-926.2074
 11
249.7204
 21
-926.2074
  0
LINE
  8
0
  6
CONTINUOUS
 62
     7
 10
198.58305
 20
-942.82288
 11
221.45235
 21
-926.2074
  0
LINE
  8
0
  6
CONTINUOUS
 62
     7
 10
189.84779
 20
-969.7074
 11
198.58308
 21
-942.82288
  0
LINE
  8
0
  6
CONTINUOUS
 62
     7
 10
198.58305
 20
-996.59192
 11
189.84775
 21
-969.7074
  0
LINE
  8
0
  6
CONTINUOUS
 62
     7
 10
221.45241
 20
-1013.2073
 11
198.58311
 21
-996.59186
  0
LINE
  8
0
  6
CONTINUOUS
 62
     7
 10
249.7204
 20
-1013.2074
 11
221.45239
 21
-1013.2074
  0
LINE
  8
0
  6
CONTINUOUS
 62
     7
 10
272.58966
 20
-996.59186
 11
249.72037
 21
-1013.2074
  0
LINE
  8
0
  6
CONTINUOUS
 62
     7
 10
281.32501
 20
-969.7074
 11
272.58972
 21
-996.59186
  0
LINE
  8
0
  6
CENTER
 62
     7
 10
235.58636
 20
-916.50739
 11
235.58636
 21
-1020.8074
  0
LINE
  8
0
  6
CENTER
 62
     7
 10
185.2934
 20
-969.7074
 11
287.21613
 21
-969.7074
  0
LINE
  8
0
  6
CONTINUOUS
 62
     7
 10
173.16284
 20
-1399.8516
 11
162.31903
 21
-1366.4778
  0
LINE
  8
0
  6
CONTINUOUS
 62
     7
 10
162.31898
 20
-1366.4778
 11
133.92952
 21
-1345.8516
  0
LINE
  8
0
  6
CONTINUOUS
 62
     7
 10
98.838196
 20
-1345.8516
 11
133.9295
 21
-1345.8516
  0
LINE
  8
0
  6
CONTINUOUS
 62
     7
 10
70.448746
 20
-1366.4778
 11
98.838211
 21
-1345.8516
  0
LINE
  8
0
  6
CONTINUOUS
 62
     7
 10
59.604897
 20
-1399.8516
 11
70.448708
 21
-1366.4778
  0
LINE
  8
0
  6
CONTINUOUS
 62
     7
 10
70.448738
 20
-1433.2255
 11
59.604931
 21
-1399.8517
  0
LINE
  8
0
  6
CONTINUOUS
 62
     7
 10
98.838219
 20
-1453.8516
 11
70.448753
 21
-1433.2253
  0
LINE
  8
0
  6
CONTINUOUS
 62
     7
 10
133.9295
 20
-1453.8516
 11
98.838196
 21
-1453.8516
  0
LINE
  8
0
  6
CONTINUOUS
 62
     7
 10
162.31902
 20
-1433.2255
 11
133.92955
 21
-1453.8516
  0
LINE
  8
0
  6
CONTINUOUS
 62
     7
 10
173.16281
 20
-1399.8517
 11
162.319
 21
-1433.2255
  0
LINE
  8
0
  6
CONTINUOUS
 62
     7
 10
-177.19601
 20
-1366.4778
 11
-152.34601
 21
-1366.4778
  0
LINE
  8
0
  6
CONTINUOUS
 62
     7
 10
-176.84601
 20
-1433.2255
 11
-151.996
 21
-1433.2255
  0
LINE
  8
0
  6
CONTINUOUS
 62
     7
 10
-15.895996
 20
-1433.2255
 11
8.6040039
 21
-1433.2255
  0
LINE
  8
0
  6
CONTINUOUS
 62
     7
 10
-16.245972
 20
-1366.4778
 11
9.3040161
 21
-1366.4778
  0
LINE
  8
0
  6
CONTINUOUS
 62
     7
 10
-297.93689
 20
-1530
 11
-297.93689
 21
-1110
  0
LINE
  8
0
  6
CONTINUOUS
 62
     7
 10
296.06311
 20
-1530
 11
-297.93689
 21
-1530
  0
LINE
  8
0
  6
CONTINUOUS
 62
     7
 10
-297.93689
 20
-1110
 11
296.06311
 21
-1110
  0
LINE
  8
0
  6
CONTINUOUS
 62
     7
 10
296.06311
 20
-1110
 11
296.06311
 21
-1530
  0
LINE
  8
0
  6
CONTINUOUS
 62
     7
 10
-297
 20
-1090
 11
-297
 21
-670
  0
LINE
  8
0
  6
CONTINUOUS
 62
     7
 10
297
 20
-1090
 11
-297
 21
-1090
  0
LINE
  8
0
  6
CONTINUOUS
 62
     7
 10
-297
 20
-670
 11
297
 21
-670
  0
LINE
  8
0
  6
CONTINUOUS
 62
     7
 10
297
 20
-670
 11
297
 21
-1090
  0
LINE
  8
0
  6
CONTINUOUS
 62
     7
 10
-297.93689
 20
-1970
 11
-297.93689
 21
-1550
  0
LINE
  8
0
  6
CONTINUOUS
 62
     7
 10
-297.93689
 20
-1550
 11
296.06311
 21
-1550
  0
LINE
  8
0
  6
CONTINUOUS
 62
     7
 10
296.06311
 20
-1550
 11
296.06311
 21
-1970
  0
LINE
  8
0
  6
CONTINUOUS
 62
     7
 10
296.06311
 20
-1970
 11
-297.93689
 21
-1970
  0
LINE
  8
0
  6
CONTINUOUS
 62
     7
 10
317.93689
 20
-1090
 11
317.93689
 21
-670
  0
LINE
  8
0
  6
CONTINUOUS
 62
     7
 10
317.93689
 20
-670
 11
911.93689
 21
-670
  0
LINE
  8
0
  6
CONTINUOUS
 62
     7
 10
911.93689
 20
-670
 11
911.93689
 21
-1090
  0
LINE
  8
0
  6
CONTINUOUS
 62
     7
 10
911.93689
 20
-1090
 11
317.93689
 21
-1090
  0
LINE
  8
0
  6
CENTER
 62
     7
 10
701.81787
 20
-303.0986
 11
701.81787
 21
-386.39862
  0
LINE
  8
0
  6
CENTER
 62
     7
 10
630.93036
 20
-336.8736
 11
769.18036
 21
-336.8736
  0
LINE
  8
0
  6
CONTINUOUS
 62
     7
 10
738.31787
 20
-304.3736
 11
741.31787
 21
-304.3736
  0
LINE
  8
0
  6
CONTINUOUS
 62
     7
 10
738.31787
 20
-304.3736
 11
738.31787
 21
-369.37363
  0
LINE
  8
0
  6
CONTINUOUS
 62
     7
 10
669.64795
 20
-306.8736
 11
733.98773
 21
-306.8736
  0
LINE
  8
0
  6
CONTINUOUS
 62
     7
 10
724.31787
 20
-366.87363
 11
733.98773
 21
-366.87363
  0
LINE
  8
0
  6
CONTINUOUS
 62
     7
 10
738.31787
 20
-369.37363
 11
741.31787
 21
-369.37363
  0
LINE
  8
0
  6
CONTINUOUS
 62
     7
 10
665.31787
 20
-304.3736
 11
665.31787
 21
-369.37363
  0
LINE
  8
0
  6
CONTINUOUS
 62
     7
 10
679.31787
 20
-366.87363
 11
669.64795
 21
-366.87363
  0
LINE
  8
0
  6
CONTINUOUS
 62
     7
 10
685.31787
 20
-382.37363
 11
718.31787
 21
-382.37363
  0
LINE
  8
0
  6
CONTINUOUS
 62
     7
 10
718.31787
 20
-372.87363
 11
718.31787
 21
-382.37363
  0
LINE
  8
0
  6
CONTINUOUS
 62
     7
 10
685.31787
 20
-372.87363
 11
685.31787
 21
-382.37363
  0
LINE
  8
0
  6
CONTINUOUS
 62
     7
 10
763.31787
 20
-302.3736
 11
763.31787
 21
-371.37363
  0
LINE
  8
0
  6
CONTINUOUS
 62
     7
 10
742.31787
 20
-336.8736
 11
762.31787
 21
-336.8736
  0
LINE
  8
0
  6
CONTINUOUS
 62
     7
 10
741.31787
 20
-302.3736
 11
741.31787
 21
-371.37363
  0
LINE
  8
0
  6
CONTINUOUS
 62
     7
 10
743.31787
 20
-300.3736
 11
761.31787
 21
-300.3736
  0
LINE
  8
0
  6
CONTINUOUS
 62
     7
 10
743.31787
 20
-373.37363
 11
761.31787
 21
-373.37363
  0
LINE
  8
0
  6
CONTINUOUS
 62
     7
 10
765.31787
 20
-310.42361
 11
765.31787
 21
-363.32361
  0
LINE
  8
0
  6
CONTINUOUS
 62
     7
 10
742.31787
 20
-314.31537
 11
762.31787
 21
-314.31537
  0
LINE
  8
0
  6
CONTINUOUS
 62
     7
 10
742.31787
 20
-359.43185
 11
762.31787
 21
-359.43185
  0
LINE
  8
0
  6
CONTINUOUS
 62
     7
 10
741.31781
 20
-302.37363
 11
743.31781
 21
-300.3736
  0
LINE
  8
0
  6
CONTINUOUS
 62
     7
 10
761.31781
 20
-300.3736
 11
763.31781
 21
-302.37363
  0
LINE
  8
0
  6
CONTINUOUS
 62
     7
 10
741.31781
 20
-371.37357
 11
743.31781
 21
-373.37357
  0
LINE
  8
0
  6
CONTINUOUS
 62
     7
 10
763.31781
 20
-371.37357
 11
761.31781
 21
-373.3736
  0
LINE
  8
0
  6
CONTINUOUS
 62
     7
 10
765.31781
 20
-310.42361
 11
763.31781
 21
-309.8877
  0
LINE
  8
0
  6
CONTINUOUS
 62
     7
 10
765.31787
 20
-363.32364
 11
763.31787
 21
-363.85953
  0
LINE
  8
0
  6
CONTINUOUS
 62
     7
 10
660.31787
 20
-373.37363
 11
642.31787
 21
-373.37363
  0
LINE
  8
0
  6
CONTINUOUS
 62
     7
 10
665.31787
 20
-304.3736
 11
662.31787
 21
-304.3736
  0
LINE
  8
0
  6
CONTINUOUS
 62
     7
 10
665.31787
 20
-369.37363
 11
662.31787
 21
-369.37363
  0
LINE
  8
0
  6
CONTINUOUS
 62
     7
 10
640.31787
 20
-302.3736
 11
640.31787
 21
-371.37363
  0
LINE
  8
0
  6
CONTINUOUS
 62
     7
 10
661.31787
 20
-336.8736
 11
641.31787
 21
-336.8736
  0
LINE
  8
0
  6
CONTINUOUS
 62
     7
 10
662.31787
 20
-302.3736
 11
662.31787
 21
-371.37363
  0
LINE
  8
0
  6
CONTINUOUS
 62
     7
 10
660.31787
 20
-300.3736
 11
642.31787
 21
-300.3736
  0
LINE
  8
0
  6
CONTINUOUS
 62
     7
 10
638.31787
 20
-310.42361
 11
638.31787
 21
-363.32361
  0
LINE
  8
0
  6
CONTINUOUS
 62
     7
 10
661.31787
 20
-314.31537
 11
641.31787
 21
-314.31537
  0
LINE
  8
0
  6
CONTINUOUS
 62
     7
 10
661.31787
 20
-359.43185
 11
641.31787
 21
-359.43185
  0
LINE
  8
0
  6
CONTINUOUS
 62
     7
 10
662.31787
 20
-302.37363
 11
660.31787
 21
-300.37363
  0
LINE
  8
0
  6
CONTINUOUS
 62
     7
 10
642.31787
 20
-300.37363
 11
640.31787
 21
-302.37363
  0
LINE
  8
0
  6
CONTINUOUS
 62
     7
 10
662.31781
 20
-371.37363
 11
660.31781
 21
-373.37363
  0
LINE
  8
0
  6
CONTINUOUS
 62
     7
 10
640.31787
 20
-371.3736
 11
642.31787
 21
-373.3736
  0
LINE
  8
0
  6
CONTINUOUS
 62
     7
 10
638.31787
 20
-310.42358
 11
640.31787
 21
-309.8877
  0
LINE
  8
0
  6
CONTINUOUS
 62
     7
 10
638.31787
 20
-363.32361
 11
640.31787
 21
-363.85953
  0
LINE
  8
0
  6
CENTER
 62
     7
 10
347.72989
 20
-522.12769
 11
490.00491
 21
-522.12769
  0
LINE
  8
0
  6
CENTER
 62
     7
 10
418.79239
 20
-488.35266
 11
418.79239
 21
-573.05267
  0
LINE
  8
0
  6
CONTINUOUS
 62
     7
 10
458.29239
 20
-489.62766
 11
458.29239
 21
-554.62769
  0
LINE
  8
0
  6
CONTINUOUS
 62
     7
 10
458.29239
 20
-489.62766
 11
461.53473
 21
-489.62766
  0
LINE
  8
0
  6
CONTINUOUS
 62
     7
 10
383.62253
 20
-492.12766
 11
453.96225
 21
-492.12766
  0
LINE
  8
0
  6
CONTINUOUS
 62
     7
 10
383.62253
 20
-552.12769
 11
392.29239
 21
-552.12769
  0
LINE
  8
0
  6
CONTINUOUS
 62
     7
 10
458.29239
 20
-554.62769
 11
461.29239
 21
-554.62769
  0
LINE
  8
0
  6
CONTINUOUS
 62
     7
 10
379.29239
 20
-489.62766
 11
379.29239
 21
-554.62769
  0
LINE
  8
0
  6
CONTINUOUS
 62
     7
 10
445.29239
 20
-552.12769
 11
453.96225
 21
-552.12769
  0
LINE
  8
0
  6
CONTINUOUS
 62
     7
 10
398.29239
 20
-569.62769
 11
439.29239
 21
-569.62769
  0
LINE
  8
0
  6
CONTINUOUS
 62
     7
 10
439.29239
 20
-558.12769
 11
439.29239
 21
-569.62769
  0
LINE
  8
0
  6
CONTINUOUS
 62
     7
 10
398.29239
 20
-558.12769
 11
398.29239
 21
-569.62769
  0
LINE
  8
0
  6
CONTINUOUS
 62
     7
 10
483.29239
 20
-487.62766
 11
483.29239
 21
-556.62769
  0
LINE
  8
0
  6
CONTINUOUS
 62
     7
 10
462.29239
 20
-522.12769
 11
482.29239
 21
-522.12769
  0
LINE
  8
0
  6
CONTINUOUS
 62
     7
 10
461.29239
 20
-487.62766
 11
461.29239
 21
-556.62769
  0
LINE
  8
0
  6
CONTINUOUS
 62
     7
 10
463.29239
 20
-485.62766
 11
481.29239
 21
-485.62766
  0
LINE
  8
0
  6
CONTINUOUS
 62
     7
 10
463.29239
 20
-558.62769
 11
481.29239
 21
-558.62769
  0
LINE
  8
0
  6
CONTINUOUS
 62
     7
 10
485.29239
 20
-495.67767
 11
485.29239
 21
-548.5777
  0
LINE
  8
0
  6
CONTINUOUS
 62
     7
 10
462.29239
 20
-499.56943
 11
482.29239
 21
-499.56943
  0
LINE
  8
0
  6
CONTINUOUS
 62
     7
 10
462.29239
 20
-544.68591
 11
482.29239
 21
-544.68591
  0
LINE
  8
0
  6
CONTINUOUS
 62
     7
 10
461.29236
 20
-487.62769
 11
463.29236
 21
-485.62769
  0
LINE
  8
0
  6
CONTINUOUS
 62
     7
 10
481.29236
 20
-485.62766
 11
483.29236
 21
-487.62766
  0
LINE
  8
0
  6
CONTINUOUS
 62
     7
 10
461.29242
 20
-556.62769
 11
463.29242
 21
-558.62769
  0
LINE
  8
0
  6
CONTINUOUS
 62
     7
 10
483.29233
 20
-556.62769
 11
481.29233
 21
-558.62769
  0
LINE
  8
0
  6
CONTINUOUS
 62
     7
 10
485.29236
 20
-495.67764
 11
483.29236
 21
-495.14175
  0
LINE
  8
0
  6
CONTINUOUS
 62
     7
 10
485.29236
 20
-548.5777
 11
483.29239
 21
-549.11359
  0
LINE
  8
0
  6
CONTINUOUS
 62
     7
 10
352.29242
 20
-548.5777
 11
354.29242
 21
-549.11359
  0
LINE
  8
0
  6
CONTINUOUS
 62
     7
 10
379.29239
 20
-489.62766
 11
376.29239
 21
-489.62766
  0
LINE
  8
0
  6
CONTINUOUS
 62
     7
 10
379.29239
 20
-554.62769
 11
376.29239
 21
-554.62769
  0
LINE
  8
0
  6
CONTINUOUS
 62
     7
 10
354.29239
 20
-487.62766
 11
354.29239
 21
-556.62769
  0
LINE
  8
0
  6
CONTINUOUS
 62
     7
 10
375.29239
 20
-522.12769
 11
355.29239
 21
-522.12769
  0
LINE
  8
0
  6
CONTINUOUS
 62
     7
 10
376.29239
 20
-487.62766
 11
376.29239
 21
-556.62769
  0
LINE
  8
0
  6
CONTINUOUS
 62
     7
 10
374.29239
 20
-485.62766
 11
356.29239
 21
-485.62766
  0
LINE
  8
0
  6
CONTINUOUS
 62
     7
 10
374.29239
 20
-558.62769
 11
356.29239
 21
-558.62769
  0
LINE
  8
0
  6
CONTINUOUS
 62
     7
 10
352.29239
 20
-495.67767
 11
352.29239
 21
-548.5777
  0
LINE
  8
0
  6
CONTINUOUS
 62
     7
 10
375.29239
 20
-499.56943
 11
355.29239
 21
-499.56943
  0
LINE
  8
0
  6
CONTINUOUS
 62
     7
 10
375.29239
 20
-544.68591
 11
355.29239
 21
-544.68591
  0
LINE
  8
0
  6
CONTINUOUS
 62
     7
 10
376.29245
 20
-487.62772
 11
374.29245
 21
-485.62772
  0
LINE
  8
0
  6
CONTINUOUS
 62
     7
 10
356.29242
 20
-485.62775
 11
354.29242
 21
-487.62775
  0
LINE
  8
0
  6
CONTINUOUS
 62
     7
 10
376.29239
 20
-556.62769
 11
374.29239
 21
-558.62769
  0
LINE
  8
0
  6
CONTINUOUS
 62
     7
 10
354.29239
 20
-556.62775
 11
356.29242
 21
-558.62775
  0
LINE
  8
0
  6
CONTINUOUS
 62
     7
 10
352.29239
 20
-495.67767
 11
354.29239
 21
-495.14175
  0
LINE
  8
0
  6
CENTER
 62
     7
 10
703.47418
 20
-480.96176
 11
703.47418
 21
-566.38672
  0
LINE
  8
0
  6
CENTER
 62
     7
 10
628.37421
 20
-515.08673
 11
777.12421
 21
-515.08673
  0
LINE
  8
0
  6
CONTINUOUS
 62
     7
 10
746.97418
 20
-482.58676
 11
749.97418
 21
-482.58676
  0
LINE
  8
0
  6
CONTINUOUS
 62
     7
 10
746.97418
 20
-482.58676
 11
746.97418
 21
-547.58673
  0
LINE
  8
0
  6
CONTINUOUS
 62
     7
 10
664.30432
 20
-485.08676
 11
742.64404
 21
-485.08676
  0
LINE
  8
0
  6
CONTINUOUS
 62
     7
 10
746.97418
 20
-547.58673
 11
749.97418
 21
-547.58673
  0
LINE
  8
0
  6
CONTINUOUS
 62
     7
 10
734.47418
 20
-545.08673
 11
742.64404
 21
-545.08673
  0
LINE
  8
0
  6
CONTINUOUS
 62
     7
 10
659.97418
 20
-482.58676
 11
659.97418
 21
-547.58673
  0
LINE
  8
0
  6
CONTINUOUS
 62
     7
 10
672.47418
 20
-545.08673
 11
664.30432
 21
-545.08673
  0
LINE
  8
0
  6
CONTINUOUS
 62
     7
 10
678.47418
 20
-565.08673
 11
728.47418
 21
-565.08673
  0
LINE
  8
0
  6
CONTINUOUS
 62
     7
 10
728.47418
 20
-551.08673
 11
728.47418
 21
-565.08673
  0
LINE
  8
0
  6
CONTINUOUS
 62
     7
 10
678.47418
 20
-551.08673
 11
678.47418
 21
-565.08673
  0
LINE
  8
0
  6
CONTINUOUS
 62
     7
 10
771.97418
 20
-480.58676
 11
771.97418
 21
-549.58673
  0
LINE
  8
0
  6
CONTINUOUS
 62
     7
 10
750.97418
 20
-515.08673
 11
770.97418
 21
-515.08673
  0
LINE
  8
0
  6
CONTINUOUS
 62
     7
 10
749.97418
 20
-480.58676
 11
749.97418
 21
-549.58673
  0
LINE
  8
0
  6
CONTINUOUS
 62
     7
 10
751.97418
 20
-478.58676
 11
769.97418
 21
-478.58676
  0
LINE
  8
0
  6
CONTINUOUS
 62
     7
 10
751.97418
 20
-551.58673
 11
769.97418
 21
-551.58673
  0
LINE
  8
0
  6
CONTINUOUS
 62
     7
 10
773.97418
 20
-488.63675
 11
773.97418
 21
-541.53674
  0
LINE
  8
0
  6
CONTINUOUS
 62
     7
 10
750.97418
 20
-492.52853
 11
770.97418
 21
-492.52853
  0
LINE
  8
0
  6
CONTINUOUS
 62
     7
 10
750.97418
 20
-537.64496
 11
770.97418
 21
-537.64496
  0
LINE
  8
0
  6
CONTINUOUS
 62
     7
 10
749.97418
 20
-480.5867
 11
751.97418
 21
-478.5867
  0
LINE
  8
0
  6
CONTINUOUS
 62
     7
 10
769.97412
 20
-478.5867
 11
771.97412
 21
-480.58673
  0
LINE
  8
0
  6
CONTINUOUS
 62
     7
 10
749.97418
 20
-549.58673
 11
751.97418
 21
-551.58673
  0
LINE
  8
0
  6
CONTINUOUS
 62
     7
 10
771.97418
 20
-549.58667
 11
769.97418
 21
-551.58667
  0
LINE
  8
0
  6
CONTINUOUS
 62
     7
 10
773.97418
 20
-488.63672
 11
771.97418
 21
-488.10083
  0
LINE
  8
0
  6
CONTINUOUS
 62
     7
 10
773.97412
 20
-541.53674
 11
771.97412
 21
-542.07263
  0
LINE
  8
0
  6
CONTINUOUS
 62
     7
 10
632.97418
 20
-541.5368
 11
634.97418
 21
-542.07269
  0
LINE
  8
0
  6
CONTINUOUS
 62
     7
 10
659.97418
 20
-482.58676
 11
656.97418
 21
-482.58676
  0
LINE
  8
0
  6
CONTINUOUS
 62
     7
 10
659.97418
 20
-547.58673
 11
656.97418
 21
-547.58673
  0
LINE
  8
0
  6
CONTINUOUS
 62
     7
 10
634.97418
 20
-480.58676
 11
634.97418
 21
-549.58673
  0
LINE
  8
0
  6
CONTINUOUS
 62
     7
 10
655.97418
 20
-515.08673
 11
635.97418
 21
-515.08673
  0
LINE
  8
0
  6
CONTINUOUS
 62
     7
 10
656.97418
 20
-480.58676
 11
656.97418
 21
-549.58673
  0
LINE
  8
0
  6
CONTINUOUS
 62
     7
 10
654.97418
 20
-478.58676
 11
636.97418
 21
-478.58676
  0
LINE
  8
0
  6
CONTINUOUS
 62
     7
 10
654.97418
 20
-551.58673
 11
636.97418
 21
-551.58673
  0
LINE
  8
0
  6
CONTINUOUS
 62
     7
 10
632.97418
 20
-488.63675
 11
632.97418
 21
-541.53674
  0
LINE
  8
0
  6
CONTINUOUS
 62
     7
 10
655.97418
 20
-492.52853
 11
635.97418
 21
-492.52853
  0
LINE
  8
0
  6
CONTINUOUS
 62
     7
 10
655.97418
 20
-537.64496
 11
635.97418
 21
-537.64496
  0
LINE
  8
0
  6
CONTINUOUS
 62
     7
 10
656.97418
 20
-480.58676
 11
654.97418
 21
-478.58676
  0
LINE
  8
0
  6
CONTINUOUS
 62
     7
 10
636.97418
 20
-478.58679
 11
634.97424
 21
-480.58676
  0
LINE
  8
0
  6
CONTINUOUS
 62
     7
 10
656.97418
 20
-549.58673
 11
654.97418
 21
-551.58673
  0
LINE
  8
0
  6
CONTINUOUS
 62
     7
 10
634.97418
 20
-549.58673
 11
636.97418
 21
-551.58679
  0
LINE
  8
0
  6
CONTINUOUS
 62
     7
 10
632.97424
 20
-488.63672
 11
634.97424
 21
-488.10083
  0
LINE
  8
0
  6
CENTER
 62
     7
 10
333.72342
 20
-771.15771
 11
474.07339
 21
-771.15771
  0
LINE
  8
0
  6
CENTER
 62
     7
 10
402.84839
 20
-731.25769
 11
402.84839
 21
-826.80768
  0
LINE
  8
0
  6
CONTINUOUS
 62
     7
 10
438.84839
 20
-732.15771
 11
438.84839
 21
-810.15771
  0
LINE
  8
0
  6
CONTINUOUS
 62
     7
 10
438.84839
 20
-732.15771
 11
441.34842
 21
-732.15771
  0
LINE
  8
0
  6
CONTINUOUS
 62
     7
 10
371.17853
 20
-734.65771
 11
434.51831
 21
-734.65771
  0
LINE
  8
0
  6
CONTINUOUS
 62
     7
 10
422.34839
 20
-807.65771
 11
434.51831
 21
-807.65771
  0
LINE
  8
0
  6
CONTINUOUS
 62
     7
 10
438.84839
 20
-810.15771
 11
441.34842
 21
-810.15771
  0
LINE
  8
0
  6
CONTINUOUS
 62
     7
 10
366.84839
 20
-732.15771
 11
366.84839
 21
-810.15771
  0
LINE
  8
0
  6
CONTINUOUS
 62
     7
 10
383.34839
 20
-807.65771
 11
371.17853
 21
-807.65771
  0
LINE
  8
0
  6
CONTINUOUS
 62
     7
 10
389.34839
 20
-821.15771
 11
416.34839
 21
-821.15771
  0
LINE
  8
0
  6
CONTINUOUS
 62
     7
 10
416.34839
 20
-813.65771
 11
416.34839
 21
-821.15771
  0
LINE
  8
0
  6
CONTINUOUS
 62
     7
 10
389.34839
 20
-813.65771
 11
389.34839
 21
-821.15771
  0
LINE
  8
0
  6
CONTINUOUS
 62
     7
 10
464.84839
 20
-729.65771
 11
464.84839
 21
-812.65771
  0
LINE
  8
0
  6
CONTINUOUS
 62
     7
 10
442.34842
 20
-771.15771
 11
463.84839
 21
-771.15771
  0
LINE
  8
0
  6
CONTINUOUS
 62
     7
 10
441.34842
 20
-729.65771
 11
441.34842
 21
-812.65771
  0
LINE
  8
0
  6
CONTINUOUS
 62
     7
 10
443.34842
 20
-727.65771
 11
462.84839
 21
-727.65771
  0
LINE
  8
0
  6
CONTINUOUS
 62
     7
 10
443.34842
 20
-814.65771
 11
462.84839
 21
-814.65771
  0
LINE
  8
0
  6
CONTINUOUS
 62
     7
 10
441.34842
 20
-729.65771
 11
443.34842
 21
-727.65771
  0
LINE
  8
0
  6
CONTINUOUS
 62
     7
 10
462.84845
 20
-727.65771
 11
464.84839
 21
-729.65771
  0
LINE
  8
0
  6
CONTINUOUS
 62
     7
 10
441.34845
 20
-812.65771
 11
443.34845
 21
-814.65771
  0
LINE
  8
0
  6
CONTINUOUS
 62
     7
 10
462.84845
 20
-814.65771
 11
464.84845
 21
-812.65771
  0
LINE
  8
0
  6
CONTINUOUS
 62
     7
 10
466.84839
 20
-738.7077
 11
466.84839
 21
-803.60773
  0
LINE
  8
0
  6
CONTINUOUS
 62
     7
 10
463.84839
 20
-744.27319
 11
442.34842
 21
-744.27319
  0
LINE
  8
0
  6
CONTINUOUS
 62
     7
 10
463.84839
 20
-798.04218
 11
442.34842
 21
-798.04218
  0
LINE
  8
0
  6
CONTINUOUS
 62
     7
 10
466.84848
 20
-738.7077
 11
464.84848
 21
-738.17181
  0
LINE
  8
0
  6
CONTINUOUS
 62
     7
 10
466.84839
 20
-803.60773
 11
464.84839
 21
-804.14362
  0
LINE
  8
0
  6
CONTINUOUS
 62
     7
 10
338.84839
 20
-803.60773
 11
340.84839
 21
-804.14362
  0
LINE
  8
0
  6
CONTINUOUS
 62
     7
 10
366.84839
 20
-732.15771
 11
364.34836
 21
-732.15771
  0
LINE
  8
0
  6
CONTINUOUS
 62
     7
 10
366.84839
 20
-810.15771
 11
364.34836
 21
-810.15771
  0
LINE
  8
0
  6
CONTINUOUS
 62
     7
 10
340.84839
 20
-729.65771
 11
340.84839
 21
-812.65771
  0
LINE
  8
0
  6
CONTINUOUS
 62
     7
 10
363.34836
 20
-771.15771
 11
341.84839
 21
-771.15771
  0
LINE
  8
0
  6
CONTINUOUS
 62
     7
 10
364.34836
 20
-729.65771
 11
364.34836
 21
-812.65771
  0
LINE
  8
0
  6
CONTINUOUS
 62
     7
 10
362.34836
 20
-727.65771
 11
342.84839
 21
-727.65771
  0
LINE
  8
0
  6
CONTINUOUS
 62
     7
 10
362.34836
 20
-814.65771
 11
342.84839
 21
-814.65771
  0
LINE
  8
0
  6
CONTINUOUS
 62
     7
 10
364.34836
 20
-729.65771
 11
362.34836
 21
-727.65771
  0
LINE
  8
0
  6
CONTINUOUS
 62
     7
 10
342.84839
 20
-727.65771
 11
340.84836
 21
-729.65771
  0
LINE
  8
0
  6
CONTINUOUS
 62
     7
 10
364.34836
 20
-812.65771
 11
362.34833
 21
-814.65771
  0
LINE
  8
0
  6
CONTINUOUS
 62
     7
 10
342.84836
 20
-814.65771
 11
340.84836
 21
-812.65771
  0
LINE
  8
0
  6
CONTINUOUS
 62
     7
 10
338.84839
 20
-738.7077
 11
338.84839
 21
-803.60773
  0
LINE
  8
0
  6
CONTINUOUS
 62
     7
 10
341.84839
 20
-744.27319
 11
363.34836
 21
-744.27319
  0
LINE
  8
0
  6
CONTINUOUS
 62
     7
 10
341.84839
 20
-798.04218
 11
363.34836
 21
-798.04218
  0
LINE
  8
0
  6
CONTINUOUS
 62
     7
 10
338.84836
 20
-738.7077
 11
340.84836
 21
-738.17181
  0
LINE
  8
0
  6
CENTER
 62
     7
 10
692.11804
 20
-728.68927
 11
692.11804
 21
-828.28925
  0
LINE
  8
0
  6
CENTER
 62
     7
 10
614.76807
 20
-769.63928
 11
772.26807
 21
-769.63928
  0
LINE
  8
0
  6
CONTINUOUS
 62
     7
 10
731.11804
 20
-730.63928
 11
733.61804
 21
-730.63928
  0
LINE
  8
0
  6
CONTINUOUS
 62
     7
 10
731.11804
 20
-730.63928
 11
731.11804
 21
-808.63928
  0
LINE
  8
0
  6
CONTINUOUS
 62
     7
 10
657.44818
 20
-733.13928
 11
726.78796
 21
-733.13928
  0
LINE
  8
0
  6
CONTINUOUS
 62
     7
 10
714.61804
 20
-806.13928
 11
726.78796
 21
-806.13928
  0
LINE
  8
0
  6
CONTINUOUS
 62
     7
 10
731.11804
 20
-808.63928
 11
733.61804
 21
-808.63928
  0
LINE
  8
0
  6
CONTINUOUS
 62
     7
 10
669.61804
 20
-806.13928
 11
657.44818
 21
-806.13928
  0
LINE
  8
0
  6
CONTINUOUS
 62
     7
 10
653.11804
 20
-730.63928
 11
653.11804
 21
-808.63928
  0
LINE
  8
0
  6
CONTINUOUS
 62
     7
 10
675.61804
 20
-821.63928
 11
708.61804
 21
-821.63928
  0
LINE
  8
0
  6
CONTINUOUS
 62
     7
 10
708.61804
 20
-812.13928
 11
708.61804
 21
-821.63928
  0
LINE
  8
0
  6
CONTINUOUS
 62
     7
 10
675.61804
 20
-812.13928
 11
675.61804
 21
-821.63928
  0
LINE
  8
0
  6
CONTINUOUS
 62
     7
 10
757.11804
 20
-728.13928
 11
757.11804
 21
-811.13928
  0
LINE
  8
0
  6
CONTINUOUS
 62
     7
 10
734.61804
 20
-769.63928
 11
756.11804
 21
-769.63928
  0
LINE
  8
0
  6
CONTINUOUS
 62
     7
 10
733.61804
 20
-728.13928
 11
733.61804
 21
-811.13928
  0
LINE
  8
0
  6
CONTINUOUS
 62
     7
 10
735.61804
 20
-726.13928
 11
755.11804
 21
-726.13928
  0
LINE
  8
0
  6
CONTINUOUS
 62
     7
 10
735.61804
 20
-813.13928
 11
755.11804
 21
-813.13928
  0
LINE
  8
0
  6
CONTINUOUS
 62
     7
 10
733.6181
 20
-728.13922
 11
735.6181
 21
-726.13922
  0
LINE
  8
0
  6
CONTINUOUS
 62
     7
 10
755.1181
 20
-726.13922
 11
757.11816
 21
-728.13928
  0
LINE
  8
0
  6
CONTINUOUS
 62
     7
 10
733.61816
 20
-811.13934
 11
735.6181
 21
-813.13928
  0
LINE
  8
0
  6
CONTINUOUS
 62
     7
 10
755.1181
 20
-813.13928
 11
757.1181
 21
-811.13928
  0
LINE
  8
0
  6
CONTINUOUS
 62
     7
 10
759.11804
 20
-737.18927
 11
759.11804
 21
-802.08923
  0
LINE
  8
0
  6
CONTINUOUS
 62
     7
 10
756.11804
 20
-742.75476
 11
734.61804
 21
-742.75476
  0
LINE
  8
0
  6
CONTINUOUS
 62
     7
 10
756.11804
 20
-796.52374
 11
734.61804
 21
-796.52374
  0
LINE
  8
0
  6
CONTINUOUS
 62
     7
 10
759.1181
 20
-737.18927
 11
757.1181
 21
-736.65338
  0
LINE
  8
0
  6
CONTINUOUS
 62
     7
 10
759.1181
 20
-802.08929
 11
757.1181
 21
-802.62518
  0
LINE
  8
0
  6
CONTINUOUS
 62
     7
 10
625.1181
 20
-802.08923
 11
627.1181
 21
-802.62512
  0
LINE
  8
0
  6
CONTINUOUS
 62
     7
 10
653.11804
 20
-730.63928
 11
650.61804
 21
-730.63928
  0
LINE
  8
0
  6
CONTINUOUS
 62
     7
 10
653.11804
 20
-808.63928
 11
650.61804
 21
-808.63928
  0
LINE
  8
0
  6
CONTINUOUS
 62
     7
 10
627.11804
 20
-728.13928
 11
627.11804
 21
-811.13928
  0
LINE
  8
0
  6
CONTINUOUS
 62
     7
 10
649.61804
 20
-769.63928
 11
628.11804
 21
-769.63928
  0
LINE
  8
0
  6
CONTINUOUS
 62
     7
 10
650.61804
 20
-728.13928
 11
650.61804
 21
-811.13928
  0
LINE
  8
0
  6
CONTINUOUS
 62
     7
 10
648.61804
 20
-726.13928
 11
629.11804
 21
-726.13928
  0
LINE
  8
0
  6
CONTINUOUS
 62
     7
 10
648.61804
 20
-813.13928
 11
629.11804
 21
-813.13928
  0
LINE
  8
0
  6
CONTINUOUS
 62
     7
 10
650.61804
 20
-728.13928
 11
648.61804
 21
-726.13928
  0
LINE
  8
0
  6
CONTINUOUS
 62
     7
 10
629.1181
 20
-726.13928
 11
627.11804
 21
-728.13928
  0
LINE
  8
0
  6
CONTINUOUS
 62
     7
 10
650.61804
 20
-811.13928
 11
648.61804
 21
-813.13928
  0
LINE
  8
0
  6
CONTINUOUS
 62
     7
 10
629.11804
 20
-813.13922
 11
627.11804
 21
-811.13922
  0
LINE
  8
0
  6
CONTINUOUS
 62
     7
 10
625.11804
 20
-737.18927
 11
625.11804
 21
-802.08923
  0
LINE
  8
0
  6
CONTINUOUS
 62
     7
 10
628.11804
 20
-742.75476
 11
649.61804
 21
-742.75476
  0
LINE
  8
0
  6
CONTINUOUS
 62
     7
 10
628.11804
 20
-796.52374
 11
649.61804
 21
-796.52374
  0
LINE
  8
0
  6
CONTINUOUS
 62
     7
 10
625.11804
 20
-737.18927
 11
627.11804
 21
-736.65338
  0
LINE
  8
0
  6
CENTER
 62
     7
 10
344.71683
 20
-980.7074
 11
501.6918
 21
-980.7074
  0
LINE
  8
0
  6
CENTER
 62
     7
 10
421.82932
 20
-940.10742
 11
421.82932
 21
-1041.9574
  0
LINE
  8
0
  6
CONTINUOUS
 62
     7
 10
463.82932
 20
-941.70746
 11
463.82932
 21
-1019.7074
  0
LINE
  8
0
  6
CONTINUOUS
 62
     7
 10
463.82932
 20
-941.70746
 11
468.32932
 21
-941.70746
  0
LINE
  8
0
  6
CONTINUOUS
 62
     7
 10
384.15945
 20
-944.20746
 11
459.49918
 21
-944.20746
  0
LINE
  8
0
  6
CONTINUOUS
 62
     7
 10
463.82932
 20
-1019.7074
 11
468.32932
 21
-1019.7074
  0
LINE
  8
0
  6
CONTINUOUS
 62
     7
 10
448.32932
 20
-1017.2074
 11
459.49918
 21
-1017.2074
  0
LINE
  8
0
  6
CONTINUOUS
 62
     7
 10
379.82932
 20
-941.70746
 11
379.82932
 21
-1019.7074
  0
LINE
  8
0
  6
CONTINUOUS
 62
     7
 10
395.32932
 20
-1017.2074
 11
384.15945
 21
-1017.2074
  0
LINE
  8
0
  6
CONTINUOUS
 62
     7
 10
401.32932
 20
-1034.7074
 11
442.32932
 21
-1034.7074
  0
LINE
  8
0
  6
CONTINUOUS
 62
     7
 10
442.32932
 20
-1023.2074
 11
442.32932
 21
-1034.7074
  0
LINE
  8
0
  6
CONTINUOUS
 62
     7
 10
401.32932
 20
-1023.2074
 11
401.32932
 21
-1034.7074
  0
LINE
  8
0
  6
CONTINUOUS
 62
     7
 10
491.82932
 20
-939.20746
 11
491.82932
 21
-1022.2074
  0
LINE
  8
0
  6
CONTINUOUS
 62
     7
 10
469.32932
 20
-980.7074
 11
490.82932
 21
-980.7074
  0
LINE
  8
0
  6
CONTINUOUS
 62
     7
 10
468.32932
 20
-939.20746
 11
468.32932
 21
-1022.2074
  0
LINE
  8
0
  6
CONTINUOUS
 62
     7
 10
470.32932
 20
-937.20746
 11
489.82932
 21
-937.20746
  0
LINE
  8
0
  6
CONTINUOUS
 62
     7
 10
470.32932
 20
-1024.2074
 11
489.82932
 21
-1024.2074
  0
LINE
  8
0
  6
CONTINUOUS
 62
     7
 10
468.32935
 20
-939.20746
 11
470.32935
 21
-937.20746
  0
LINE
  8
0
  6
CONTINUOUS
 62
     7
 10
489.82932
 20
-937.20746
 11
491.82932
 21
-939.20746
  0
LINE
  8
0
  6
CONTINUOUS
 62
     7
 10
468.32932
 20
-1022.2075
 11
470.32925
 21
-1024.2074
  0
LINE
  8
0
  6
CONTINUOUS
 62
     7
 10
489.82925
 20
-1024.2074
 11
491.82925
 21
-1022.2074
  0
LINE
  8
0
  6
CONTINUOUS
 62
     7
 10
493.82932
 20
-948.25745
 11
493.82932
 21
-1013.1574
  0
LINE
  8
0
  6
CONTINUOUS
 62
     7
 10
490.82932
 20
-953.82294
 11
469.32932
 21
-953.82294
  0
LINE
  8
0
  6
CONTINUOUS
 62
     7
 10
490.82932
 20
-1007.5919
 11
469.32932
 21
-1007.5919
  0
LINE
  8
0
  6
CONTINUOUS
 62
     7
 10
493.82932
 20
-948.25745
 11
491.82932
 21
-947.72156
  0
LINE
  8
0
  6
CONTINUOUS
 62
     7
 10
493.82932
 20
-1013.1575
 11
491.82932
 21
-1013.6934
  0
LINE
  8
0
  6
CONTINUOUS
 62
     7
 10
351.82922
 20
-1013.1573
 11
353.82922
 21
-1013.6933
  0
LINE
  8
0
  6
CONTINUOUS
 62
     7
 10
379.82932
 20
-941.70746
 11
375.32932
 21
-941.70746
  0
LINE
  8
0
  6
CONTINUOUS
 62
     7
 10
379.82932
 20
-1019.7074
 11
375.32932
 21
-1019.7074
  0
LINE
  8
0
  6
CONTINUOUS
 62
     7
 10
353.82932
 20
-939.20746
 11
353.82932
 21
-1022.2074
  0
LINE
  8
0
  6
CONTINUOUS
 62
     7
 10
376.32932
 20
-980.7074
 11
354.82932
 21
-980.7074
  0
LINE
  8
0
  6
CONTINUOUS
 62
     7
 10
377.32932
 20
-939.20746
 11
377.32932
 21
-1022.2074
  0
LINE
  8
0
  6
CONTINUOUS
 62
     7
 10
375.32932
 20
-937.20746
 11
355.82932
 21
-937.20746
  0
LINE
  8
0
  6
CONTINUOUS
 62
     7
 10
375.32932
 20
-1024.2074
 11
355.82932
 21
-1024.2074
  0
LINE
  8
0
  6
CONTINUOUS
 62
     7
 10
377.32928
 20
-939.2074
 11
375.32928
 21
-937.2074
  0
LINE
  8
0
  6
CONTINUOUS
 62
     7
 10
355.82932
 20
-937.2074
 11
353.82928
 21
-939.2074
  0
LINE
  8
0
  6
CONTINUOUS
 62
     7
 10
377.32928
 20
-1022.2074
 11
375.32925
 21
-1024.2074
  0
LINE
  8
0
  6
CONTINUOUS
 62
     7
 10
355.82925
 20
-1024.2074
 11
353.82925
 21
-1022.2074
  0
LINE
  8
0
  6
CONTINUOUS
 62
     7
 10
351.82932
 20
-948.25745
 11
351.82932
 21
-1013.1574
  0
LINE
  8
0
  6
CONTINUOUS
 62
     7
 10
354.82932
 20
-953.82294
 11
376.32932
 21
-953.82294
  0
LINE
  8
0
  6
CONTINUOUS
 62
     7
 10
354.82932
 20
-1007.5919
 11
376.32932
 21
-1007.5919
  0
LINE
  8
0
  6
CONTINUOUS
 62
     7
 10
351.82932
 20
-948.25745
 11
353.82932
 21
-947.72156
  0
LINE
  8
0
  6
CENTER
 62
     7
 10
709.28033
 20
-940.4574
 11
709.28033
 21
-1043.7074
  0
LINE
  8
0
  6
CENTER
 62
     7
 10
626.33032
 20
-980.7074
 11
789.08032
 21
-980.7074
  0
LINE
  8
0
  6
CONTINUOUS
 62
     7
 10
755.28033
 20
-941.7074
 11
755.28033
 21
-1019.7075
  0
LINE
  8
0
  6
CONTINUOUS
 62
     7
 10
755.28033
 20
-941.7074
 11
757.78033
 21
-941.7074
  0
LINE
  8
0
  6
CONTINUOUS
 62
     7
 10
667.61047
 20
-944.2074
 11
750.9502
 21
-944.2074
  0
LINE
  8
0
  6
CONTINUOUS
 62
     7
 10
667.61047
 20
-1017.2075
 11
678.28033
 21
-1017.2075
  0
LINE
  8
0
  6
CONTINUOUS
 62
     7
 10
755.28033
 20
-1019.7075
 11
757.78033
 21
-1019.7075
  0
LINE
  8
0
  6
CONTINUOUS
 62
     7
 10
663.28033
 20
-941.7074
 11
663.28033
 21
-1019.7075
  0
LINE
  8
0
  6
CONTINUOUS
 62
     7
 10
684.28033
 20
-1037.2074
 11
734.28033
 21
-1037.2074
  0
LINE
  8
0
  6
CONTINUOUS
 62
     7
 10
684.28033
 20
-1023.2075
 11
684.28033
 21
-1037.2074
  0
LINE
  8
0
  6
CONTINUOUS
 62
     7
 10
734.28033
 20
-1023.2075
 11
734.28033
 21
-1037.2074
  0
LINE
  8
0
  6
CONTINUOUS
 62
     7
 10
740.28033
 20
-1017.2075
 11
750.9502
 21
-1017.2075
  0
LINE
  8
0
  6
CONTINUOUS
 62
     7
 10
781.28033
 20
-939.2074
 11
781.28033
 21
-1022.2075
  0
LINE
  8
0
  6
CONTINUOUS
 62
     7
 10
758.78033
 20
-980.7074
 11
780.28033
 21
-980.7074
  0
LINE
  8
0
  6
CONTINUOUS
 62
     7
 10
757.78033
 20
-939.2074
 11
757.78033
 21
-1022.2075
  0
LINE
  8
0
  6
CONTINUOUS
 62
     7
 10
759.78033
 20
-937.2074
 11
779.28033
 21
-937.2074
  0
LINE
  8
0
  6
CONTINUOUS
 62
     7
 10
759.78033
 20
-1024.2074
 11
779.28033
 21
-1024.2074
  0
LINE
  8
0
  6
CONTINUOUS
 62
     7
 10
757.78033
 20
-939.2074
 11
759.78033
 21
-937.2074
  0
LINE
  8
0
  6
CONTINUOUS
 62
     7
 10
779.2804
 20
-937.20746
 11
781.2804
 21
-939.20746
  0
LINE
  8
0
  6
CONTINUOUS
 62
     7
 10
757.7804
 20
-1022.2075
 11
759.78033
 21
-1024.2074
  0
LINE
  8
0
  6
CONTINUOUS
 62
     7
 10
779.28033
 20
-1024.2074
 11
781.28033
 21
-1022.2075
  0
LINE
  8
0
  6
CONTINUOUS
 62
     7
 10
783.28033
 20
-948.25745
 11
783.28033
 21
-1013.1574
  0
LINE
  8
0
  6
CONTINUOUS
 62
     7
 10
780.28033
 20
-953.82294
 11
758.78033
 21
-953.82294
  0
LINE
  8
0
  6
CONTINUOUS
 62
     7
 10
780.28033
 20
-1007.5919
 11
758.78033
 21
-1007.5919
  0
LINE
  8
0
  6
CONTINUOUS
 62
     7
 10
783.28033
 20
-948.25739
 11
781.28033
 21
-947.7215
  0
LINE
  8
0
  6
CONTINUOUS
 62
     7
 10
783.28033
 20
-1013.1575
 11
781.28033
 21
-1013.6934
  0
LINE
  8
0
  6
CONTINUOUS
 62
     7
 10
635.28027
 20
-1013.1574
 11
637.28027
 21
-1013.6933
  0
LINE
  8
0
  6
CONTINUOUS
 62
     7
 10
663.28033
 20
-941.7074
 11
660.78033
 21
-941.7074
  0
LINE
  8
0
  6
CONTINUOUS
 62
     7
 10
663.28033
 20
-1019.7075
 11
660.78033
 21
-1019.7075
  0
LINE
  8
0
  6
CONTINUOUS
 62
     7
 10
637.28033
 20
-939.2074
 11
637.28033
 21
-1022.2075
  0
LINE
  8
0
  6
CONTINUOUS
 62
     7
 10
659.78033
 20
-980.7074
 11
638.28033
 21
-980.7074
  0
LINE
  8
0
  6
CONTINUOUS
 62
     7
 10
660.78033
 20
-939.2074
 11
660.78033
 21
-1022.2075
  0
LINE
  8
0
  6
CONTINUOUS
 62
     7
 10
658.78033
 20
-937.2074
 11
639.28033
 21
-937.2074
  0
LINE
  8
0
  6
CONTINUOUS
 62
     7
 10
658.78033
 20
-1024.2074
 11
639.28033
 21
-1024.2074
  0
LINE
  8
0
  6
CONTINUOUS
 62
     7
 10
660.78033
 20
-939.2074
 11
658.78027
 21
-937.2074
  0
LINE
  8
0
  6
CONTINUOUS
 62
     7
 10
639.28027
 20
-937.2074
 11
637.28027
 21
-939.2074
  0
LINE
  8
0
  6
CONTINUOUS
 62
     7
 10
660.78027
 20
-1022.2074
 11
658.78027
 21
-1024.2074
  0
LINE
  8
0
  6
CONTINUOUS
 62
     7
 10
639.28027
 20
-1024.2074
 11
637.28033
 21
-1022.2074
  0
LINE
  8
0
  6
CONTINUOUS
 62
     7
 10
635.28033
 20
-948.25745
 11
635.28033
 21
-1013.1574
  0
LINE
  8
0
  6
CONTINUOUS
 62
     7
 10
638.28033
 20
-953.82294
 11
659.78033
 21
-953.82294
  0
LINE
  8
0
  6
CONTINUOUS
 62
     7
 10
638.28033
 20
-1007.5919
 11
659.78033
 21
-1007.5919
  0
LINE
  8
0
  6
CONTINUOUS
 62
     7
 10
635.28027
 20
-948.25732
 11
637.28027
 21
-947.72144
  0
LINE
  8
0
  6
CONTINUOUS
 62
     7
 10
317.93689
 20
-1970
 11
317.93689
 21
-1550
  0
LINE
  8
0
  6
CONTINUOUS
 62
     7
 10
317.93689
 20
-1550
 11
911.93689
 21
-1550
  0
LINE
  8
0
  6
CONTINUOUS
 62
     7
 10
911.93689
 20
-1970
 11
317.93689
 21
-1970
  0
LINE
  8
0
  6
CONTINUOUS
 62
     7
 10
911.93689
 20
-1550
 11
911.93689
 21
-1970
  0
LINE
  8
0
  6
CENTER
 62
     7
 10
443.19836
 20
-1209.9973
 11
614.34839
 21
-1209.9973
  0
LINE
  8
0
  6
CENTER
 62
     7
 10
529.64111
 20
-1169.0474
 11
529.64111
 21
-1271.9473
  0
LINE
  8
0
  6
CONTINUOUS
 62
     7
 10
578.64111
 20
-1170.9973
 11
578.64111
 21
-1248.9973
  0
LINE
  8
0
  6
CONTINUOUS
 62
     7
 10
578.64111
 20
-1170.9973
 11
581.14111
 21
-1170.9973
  0
LINE
  8
0
  6
CONTINUOUS
 62
     7
 10
484.97119
 20
-1173.4973
 11
574.31091
 21
-1173.4973
  0
LINE
  8
0
  6
CONTINUOUS
 62
     7
 10
563.64111
 20
-1246.4973
 11
574.31091
 21
-1246.4973
  0
LINE
  8
0
  6
CONTINUOUS
 62
     7
 10
578.64111
 20
-1248.9973
 11
581.14111
 21
-1248.9973
  0
LINE
  8
0
  6
CONTINUOUS
 62
     7
 10
495.64111
 20
-1246.4973
 11
484.97119
 21
-1246.4973
  0
LINE
  8
0
  6
CONTINUOUS
 62
     7
 10
480.64111
 20
-1170.9973
 11
480.64111
 21
-1248.9973
  0
LINE
  8
0
  6
CONTINUOUS
 62
     7
 10
501.64111
 20
-1267.4973
 11
557.64111
 21
-1267.4973
  0
LINE
  8
0
  6
CONTINUOUS
 62
     7
 10
557.64111
 20
-1252.4973
 11
557.64111
 21
-1267.4973
  0
LINE
  8
0
  6
CONTINUOUS
 62
     7
 10
501.64111
 20
-1252.4973
 11
501.64111
 21
-1267.4973
  0
LINE
  8
0
  6
CONTINUOUS
 62
     7
 10
604.64111
 20
-1168.4973
 11
604.64111
 21
-1251.4973
  0
LINE
  8
0
  6
CONTINUOUS
 62
     7
 10
582.14111
 20
-1209.9973
 11
603.64111
 21
-1209.9973
  0
LINE
  8
0
  6
CONTINUOUS
 62
     7
 10
581.14111
 20
-1168.4973
 11
581.14111
 21
-1251.4973
  0
LINE
  8
0
  6
CONTINUOUS
 62
     7
 10
583.14111
 20
-1166.4973
 11
602.64111
 21
-1166.4973
  0
LINE
  8
0
  6
CONTINUOUS
 62
     7
 10
583.14111
 20
-1253.4973
 11
602.64111
 21
-1253.4973
  0
LINE
  8
0
  6
CONTINUOUS
 62
     7
 10
581.14117
 20
-1168.4973
 11
583.14111
 21
-1166.4974
  0
LINE
  8
0
  6
CONTINUOUS
 62
     7
 10
602.64111
 20
-1166.4973
 11
604.64111
 21
-1168.4973
  0
LINE
  8
0
  6
CONTINUOUS
 62
     7
 10
581.14117
 20
-1251.4973
 11
583.14124
 21
-1253.4974
  0
LINE
  8
0
  6
CONTINUOUS
 62
     7
 10
602.64117
 20
-1253.4974
 11
604.64117
 21
-1251.4974
  0
LINE
  8
0
  6
CONTINUOUS
 62
     7
 10
606.64111
 20
-1177.5474
 11
606.64111
 21
-1242.4473
  0
LINE
  8
0
  6
CONTINUOUS
 62
     7
 10
603.64111
 20
-1183.1128
 11
582.14111
 21
-1183.1128
  0
LINE
  8
0
  6
CONTINUOUS
 62
     7
 10
603.64111
 20
-1236.8818
 11
582.14111
 21
-1236.8818
  0
LINE
  8
0
  6
CONTINUOUS
 62
     7
 10
606.64117
 20
-1177.5474
 11
604.64117
 21
-1177.0115
  0
LINE
  8
0
  6
CONTINUOUS
 62
     7
 10
606.64111
 20
-1242.4474
 11
604.64111
 21
-1242.9833
  0
LINE
  8
0
  6
CONTINUOUS
 62
     7
 10
476.14111
 20
-1253.4973
 11
456.64111
 21
-1253.4973
  0
LINE
  8
0
  6
CONTINUOUS
 62
     7
 10
480.64111
 20
-1170.9973
 11
478.14111
 21
-1170.9973
  0
LINE
  8
0
  6
CONTINUOUS
 62
     7
 10
480.64111
 20
-1248.9973
 11
478.14111
 21
-1248.9973
  0
LINE
  8
0
  6
CONTINUOUS
 62
     7
 10
454.64111
 20
-1168.4973
 11
454.64111
 21
-1251.4973
  0
LINE
  8
0
  6
CONTINUOUS
 62
     7
 10
477.14111
 20
-1209.9973
 11
455.64111
 21
-1209.9973
  0
LINE
  8
0
  6
CONTINUOUS
 62
     7
 10
478.14111
 20
-1168.4973
 11
478.14111
 21
-1251.4973
  0
LINE
  8
0
  6
CONTINUOUS
 62
     7
 10
476.14111
 20
-1166.4973
 11
456.64111
 21
-1166.4973
  0
LINE
  8
0
  6
CONTINUOUS
 62
     7
 10
478.14105
 20
-1168.4973
 11
476.14111
 21
-1166.4973
  0
LINE
  8
0
  6
CONTINUOUS
 62
     7
 10
456.64111
 20
-1166.4973
 11
454.64111
 21
-1168.4973
  0
LINE
  8
0
  6
CONTINUOUS
 62
     7
 10
478.14111
 20
-1251.4973
 11
476.14111
 21
-1253.4973
  0
LINE
  8
0
  6
CONTINUOUS
 62
     7
 10
456.64111
 20
-1253.4973
 11
454.64108
 21
-1251.4972
  0
LINE
  8
0
  6
CONTINUOUS
 62
     7
 10
452.64111
 20
-1177.5474
 11
452.64111
 21
-1242.4473
  0
LINE
  8
0
  6
CONTINUOUS
 62
     7
 10
455.64111
 20
-1183.1128
 11
477.14111
 21
-1183.1128
  0
LINE
  8
0
  6
CONTINUOUS
 62
     7
 10
455.64111
 20
-1236.8818
 11
477.14111
 21
-1236.8818
  0
LINE
  8
0
  6
CONTINUOUS
 62
     7
 10
452.64114
 20
-1177.5472
 11
454.64114
 21
-1177.0114
  0
LINE
  8
0
  6
CONTINUOUS
 62
     7
 10
452.64108
 20
-1242.4474
 11
454.64108
 21
-1242.9833
  0
LINE
  8
0
  6
CENTER
 62
     7
 10
529.64111
 20
-1359.4492
 11
529.64111
 21
-1486.4991
  0
LINE
  8
0
  6
CENTER
 62
     7
 10
418.83105
 20
-1407.3992
 11
638.35107
 21
-1407.3992
  0
LINE
  8
0
  6
CONTINUOUS
 62
     7
 10
597.64111
 20
-1358.3992
 11
597.64111
 21
-1456.3992
  0
LINE
  8
0
  6
CONTINUOUS
 62
     7
 10
597.64111
 20
-1358.3992
 11
603.64111
 21
-1358.3992
  0
LINE
  8
0
  6
CONTINUOUS
 62
     7
 10
466.48242
 20
-1362.1492
 11
592.7998
 21
-1362.1492
  0
LINE
  8
0
  6
CONTINUOUS
 62
     7
 10
572.14111
 20
-1452.6492
 11
592.7998
 21
-1452.6492
  0
LINE
  8
0
  6
CONTINUOUS
 62
     7
 10
597.64111
 20
-1456.3992
 11
603.64111
 21
-1456.3992
  0
LINE
  8
0
  6
CONTINUOUS
 62
     7
 10
487.14111
 20
-1452.6492
 11
466.48242
 21
-1452.6492
  0
LINE
  8
0
  6
CONTINUOUS
 62
     7
 10
461.64111
 20
-1358.3992
 11
461.64111
 21
-1456.3992
  0
LINE
  8
0
  6
CONTINUOUS
 62
     7
 10
495.14111
 20
-1477.3992
 11
564.14111
 21
-1477.3992
  0
LINE
  8
0
  6
CONTINUOUS
 62
     7
 10
495.14111
 20
-1460.6492
 11
495.14111
 21
-1477.3992
  0
LINE
  8
0
  6
CONTINUOUS
 62
     7
 10
564.14111
 20
-1460.6492
 11
564.14111
 21
-1477.3992
  0
LINE
  8
0
  6
CONTINUOUS
 62
     7
 10
632.64111
 20
-1355.3992
 11
632.64111
 21
-1459.3992
  0
LINE
  8
0
  6
CONTINUOUS
 62
     7
 10
604.64111
 20
-1407.3992
 11
631.64111
 21
-1407.3992
  0
LINE
  8
0
  6
CONTINUOUS
 62
     7
 10
634.64111
 20
-1366.9991
 11
634.64111
 21
-1447.7992
  0
LINE
  8
0
  6
CONTINUOUS
 62
     7
 10
603.64111
 20
-1355.3992
 11
603.64111
 21
-1459.3992
  0
LINE
  8
0
  6
CONTINUOUS
 62
     7
 10
605.64111
 20
-1353.3992
 11
630.64111
 21
-1353.3992
  0
LINE
  8
0
  6
CONTINUOUS
 62
     7
 10
605.64111
 20
-1461.3992
 11
630.64111
 21
-1461.3992
  0
LINE
  8
0
  6
CONTINUOUS
 62
     7
 10
603.64111
 20
-1355.3992
 11
605.64111
 21
-1353.3993
  0
LINE
  8
0
  6
CONTINUOUS
 62
     7
 10
630.64111
 20
-1353.3992
 11
632.64105
 21
-1355.399
  0
LINE
  8
0
  6
CONTINUOUS
 62
     7
 10
603.64117
 20
-1459.3992
 11
605.64111
 21
-1461.3992
  0
LINE
  8
0
  6
CONTINUOUS
 62
     7
 10
630.64111
 20
-1461.3993
 11
632.64117
 21
-1459.3992
  0
LINE
  8
0
  6
CONTINUOUS
 62
     7
 10
604.64111
 20
-1375.2615
 11
631.64111
 21
-1375.2615
  0
LINE
  8
0
  6
CONTINUOUS
 62
     7
 10
604.64111
 20
-1439.537
 11
631.64111
 21
-1439.537
  0
LINE
  8
0
  6
CONTINUOUS
 62
     7
 10
634.64111
 20
-1366.9991
 11
632.64111
 21
-1366.4633
  0
LINE
  8
0
  6
CONTINUOUS
 62
     7
 10
634.64117
 20
-1447.7992
 11
632.64117
 21
-1448.3351
  0
LINE
  8
0
  6
CONTINUOUS
 62
     7
 10
424.64105
 20
-1447.7992
 11
426.64108
 21
-1448.3351
  0
LINE
  8
0
  6
CONTINUOUS
 62
     7
 10
461.64111
 20
-1358.3992
 11
455.64111
 21
-1358.3992
  0
LINE
  8
0
  6
CONTINUOUS
 62
     7
 10
461.64111
 20
-1456.3992
 11
455.64111
 21
-1456.3992
  0
LINE
  8
0
  6
CONTINUOUS
 62
     7
 10
426.64111
 20
-1355.3992
 11
426.64111
 21
-1459.3992
  0
LINE
  8
0
  6
CONTINUOUS
 62
     7
 10
454.64111
 20
-1407.3992
 11
427.64111
 21
-1407.3992
  0
LINE
  8
0
  6
CONTINUOUS
 62
     7
 10
424.64111
 20
-1366.9991
 11
424.64111
 21
-1447.7992
  0
LINE
  8
0
  6
CONTINUOUS
 62
     7
 10
455.64111
 20
-1355.3992
 11
455.64111
 21
-1459.3992
  0
LINE
  8
0
  6
CONTINUOUS
 62
     7
 10
453.64111
 20
-1353.3992
 11
428.64111
 21
-1353.3992
  0
LINE
  8
0
  6
CONTINUOUS
 62
     7
 10
453.64111
 20
-1461.3992
 11
428.64111
 21
-1461.3992
  0
LINE
  8
0
  6
CONTINUOUS
 62
     7
 10
455.64117
 20
-1355.3992
 11
453.64111
 21
-1353.3992
  0
LINE
  8
0
  6
CONTINUOUS
 62
     7
 10
428.64111
 20
-1353.3992
 11
426.64117
 21
-1355.3992
  0
LINE
  8
0
  6
CONTINUOUS
 62
     7
 10
455.64105
 20
-1459.3992
 11
453.64099
 21
-1461.3992
  0
LINE
  8
0
  6
CONTINUOUS
 62
     7
 10
428.64114
 20
-1461.3992
 11
426.64108
 21
-1459.399
  0
LINE
  8
0
  6
CONTINUOUS
 62
     7
 10
454.64111
 20
-1375.2615
 11
427.64111
 21
-1375.2615
  0
LINE
  8
0
  6
CONTINUOUS
 62
     7
 10
454.64111
 20
-1439.537
 11
427.64111
 21
-1439.537
  0
LINE
  8
0
  6
CONTINUOUS
 62
     7
 10
424.64114
 20
-1366.9993
 11
426.64114
 21
-1366.4634
  0
LINE
  8
0
  6
CENTER
 62
     7
 10
410.9884
 20
-1752.0933
 11
642.3385
 21
-1752.0933
  0
LINE
  8
0
  6
CENTER
 62
     7
 10
527.3634
 20
-1693.6433
 11
527.3634
 21
-1843.4432
  0
LINE
  8
0
  6
CONTINUOUS
 62
     7
 10
600.3634
 20
-1696.0933
 11
600.3634
 21
-1808.0933
  0
LINE
  8
0
  6
CONTINUOUS
 62
     7
 10
600.3634
 20
-1696.0933
 11
606.3634
 21
-1696.0933
  0
LINE
  8
0
  6
CONTINUOUS
 62
     7
 10
459.20471
 20
-1699.8433
 11
595.52222
 21
-1699.8433
  0
LINE
  8
0
  6
CONTINUOUS
 62
     7
 10
600.3634
 20
-1808.0933
 11
606.3634
 21
-1808.0933
  0
LINE
  8
0
  6
CONTINUOUS
 62
     7
 10
571.8634
 20
-1804.3433
 11
595.52222
 21
-1804.3433
  0
LINE
  8
0
  6
CONTINUOUS
 62
     7
 10
454.3634
 20
-1696.0933
 11
454.3634
 21
-1808.0933
  0
LINE
  8
0
  6
CONTINUOUS
 62
     7
 10
482.8634
 20
-1804.3433
 11
459.20471
 21
-1804.3433
  0
LINE
  8
0
  6
CONTINUOUS
 62
     7
 10
492.8634
 20
-1829.0933
 11
561.8634
 21
-1829.0933
  0
LINE
  8
0
  6
CONTINUOUS
 62
     7
 10
492.8634
 20
-1814.3433
 11
492.8634
 21
-1829.0933
  0
LINE
  8
0
  6
CONTINUOUS
 62
     7
 10
561.8634
 20
-1814.3433
 11
561.8634
 21
-1829.0933
  0
LINE
  8
0
  6
CONTINUOUS
 62
     7
 10
607.3634
 20
-1752.0933
 11
634.3634
 21
-1752.0933
  0
LINE
  8
0
  6
CONTINUOUS
 62
     7
 10
635.3634
 20
-1692.5933
 11
635.3634
 21
-1811.5933
  0
LINE
  8
0
  6
CONTINUOUS
 62
     7
 10
606.3634
 20
-1692.5933
 11
606.3634
 21
-1811.5933
  0
LINE
  8
0
  6
CONTINUOUS
 62
     7
 10
608.3634
 20
-1813.5933
 11
633.3634
 21
-1813.5933
  0
LINE
  8
0
  6
CONTINUOUS
 62
     7
 10
608.3634
 20
-1690.5933
 11
633.3634
 21
-1690.5933
  0
LINE
  8
0
  6
CONTINUOUS
 62
     7
 10
608.36353
 20
-1690.5933
 11
606.36353
 21
-1692.5933
  0
LINE
  8
0
  6
CONTINUOUS
 62
     7
 10
606.36359
 20
-1811.5933
 11
608.36353
 21
-1813.5933
  0
LINE
  8
0
  6
CONTINUOUS
 62
     7
 10
633.36353
 20
-1813.5934
 11
635.36353
 21
-1811.5934
  0
LINE
  8
0
  6
CONTINUOUS
 62
     7
 10
633.36353
 20
-1690.5933
 11
635.36353
 21
-1692.5933
  0
LINE
  8
0
  6
CONTINUOUS
 62
     7
 10
637.3634
 20
-1705.2433
 11
637.3634
 21
-1798.9432
  0
LINE
  8
0
  6
CONTINUOUS
 62
     7
 10
637.3634
 20
-1705.2433
 11
635.3634
 21
-1704.7074
  0
LINE
  8
0
  6
CONTINUOUS
 62
     7
 10
637.36346
 20
-1798.9432
 11
635.36346
 21
-1799.4791
  0
LINE
  8
0
  6
CONTINUOUS
 62
     7
 10
607.3634
 20
-1714.0842
 11
634.3634
 21
-1714.0842
  0
LINE
  8
0
  6
CONTINUOUS
 62
     7
 10
607.3634
 20
-1790.1023
 11
634.3634
 21
-1790.1023
  0
LINE
  8
0
  6
CONTINUOUS
 62
     7
 10
447.3634
 20
-1790.1023
 11
420.3634
 21
-1790.1023
  0
LINE
  8
0
  6
CONTINUOUS
 62
     7
 10
454.3634
 20
-1696.0933
 11
448.3634
 21
-1696.0933
  0
LINE
  8
0
  6
CONTINUOUS
 62
     7
 10
454.3634
 20
-1808.0933
 11
448.3634
 21
-1808.0933
  0
LINE
  8
0
  6
CONTINUOUS
 62
     7
 10
447.3634
 20
-1752.0933
 11
420.3634
 21
-1752.0933
  0
LINE
  8
0
  6
CONTINUOUS
 62
     7
 10
419.3634
 20
-1692.5933
 11
419.3634
 21
-1811.5933
  0
LINE
  8
0
  6
CONTINUOUS
 62
     7
 10
448.3634
 20
-1692.5933
 11
448.3634
 21
-1811.5933
  0
LINE
  8
0
  6
CONTINUOUS
 62
     7
 10
446.3634
 20
-1813.5933
 11
421.3634
 21
-1813.5933
  0
LINE
  8
0
  6
CONTINUOUS
 62
     7
 10
446.3634
 20
-1690.5933
 11
421.3634
 21
-1690.5933
  0
LINE
  8
0
  6
CONTINUOUS
 62
     7
 10
446.36346
 20
-1690.5933
 11
448.36349
 21
-1692.5934
  0
LINE
  8
0
  6
CONTINUOUS
 62
     7
 10
448.36349
 20
-1811.5933
 11
446.36349
 21
-1813.5933
  0
LINE
  8
0
  6
CONTINUOUS
 62
     7
 10
421.36353
 20
-1813.5933
 11
419.36349
 21
-1811.5933
  0
LINE
  8
0
  6
CONTINUOUS
 62
     7
 10
421.36349
 20
-1690.5933
 11
419.36349
 21
-1692.5933
  0
LINE
  8
0
  6
CONTINUOUS
 62
     7
 10
417.3634
 20
-1705.2433
 11
417.3634
 21
-1798.9432
  0
LINE
  8
0
  6
CONTINUOUS
 62
     7
 10
417.36346
 20
-1705.2433
 11
419.36346
 21
-1704.7074
  0
LINE
  8
0
  6
CONTINUOUS
 62
     7
 10
417.3634
 20
-1798.9432
 11
419.3634
 21
-1799.4791
  0
LINE
  8
0
  6
CONTINUOUS
 62
     7
 10
447.3634
 20
-1714.0842
 11
420.3634
 21
-1714.0842
  0
LINE
  8
0
  6
CENTER
 62
     7
 10
385.6369
 20
135.39999
 11
500.43689
 21
135.39999
  0
LINE
  8
0
  6
CENTER
 62
     7
 10
442.86188
 20
160.60001
 11
442.86188
 21
99.139999
  0
LINE
  8
0
  6
CONTINUOUS
 62
     7
 10
470.86188
 20
156.39999
 11
470.86188
 21
114.39999
  0
LINE
  8
0
  6
CONTINUOUS
 62
     7
 10
470.86188
 20
156.39999
 11
474.36188
 21
156.39999
  0
LINE
  8
0
  6
CONTINUOUS
 62
     7
 10
419.32703
 20
153.64999
 11
466.39673
 21
153.64999
  0
LINE
  8
0
  6
CONTINUOUS
 62
     7
 10
460.36188
 20
117.14999
 11
466.39673
 21
117.14999
  0
LINE
  8
0
  6
CONTINUOUS
 62
     7
 10
470.86188
 20
114.39999
 11
474.36188
 21
114.39999
  0
LINE
  8
0
  6
CONTINUOUS
 62
     7
 10
429.36188
 20
103.4
 11
456.36188
 21
103.4
  0
LINE
  8
0
  6
CONTINUOUS
 62
     7
 10
456.36188
 20
113.14999
 11
456.36188
 21
103.4
  0
LINE
  8
0
  6
CONTINUOUS
 62
     7
 10
414.86188
 20
156.39999
 11
414.86188
 21
114.39999
  0
LINE
  8
0
  6
CONTINUOUS
 62
     7
 10
425.36188
 20
117.14999
 11
419.32703
 21
117.14999
  0
LINE
  8
0
  6
CONTINUOUS
 62
     7
 10
429.36188
 20
113.14999
 11
429.36188
 21
103.4
  0
LINE
  8
0
  6
CONTINUOUS
 62
     7
 10
492.86188
 20
157.89999
 11
492.86188
 21
112.89999
  0
LINE
  8
0
  6
CONTINUOUS
 62
     7
 10
474.36188
 20
157.89999
 11
474.36188
 21
112.89999
  0
LINE
  8
0
  6
CONTINUOUS
 62
     7
 10
476.36188
 20
159.89999
 11
490.86188
 21
159.89999
  0
LINE
  8
0
  6
CONTINUOUS
 62
     7
 10
476.36188
 20
110.89999
 11
490.86188
 21
110.89999
  0
LINE
  8
0
  6
CONTINUOUS
 62
     7
 10
474.36188
 20
157.90002
 11
476.36188
 21
159.90002
  0
LINE
  8
0
  6
CONTINUOUS
 62
     7
 10
476.36188
 20
110.89999
 11
474.36188
 21
112.89999
  0
LINE
  8
0
  6
CONTINUOUS
 62
     7
 10
490.86191
 20
159.90001
 11
492.86188
 21
157.90002
  0
LINE
  8
0
  6
CONTINUOUS
 62
     7
 10
492.86188
 20
112.89999
 11
490.86188
 21
110.89999
  0
LINE
  8
0
  6
CONTINUOUS
 62
     7
 10
475.36188
 20
145.54111
 11
491.86188
 21
145.54111
  0
LINE
  8
0
  6
CONTINUOUS
 62
     7
 10
475.36188
 20
125.2589
 11
491.86188
 21
125.2589
  0
LINE
  8
0
  6
CONTINUOUS
 62
     7
 10
494.86188
 20
150.89999
 11
494.86188
 21
119.89999
  0
LINE
  8
0
  6
CONTINUOUS
 62
     7
 10
492.86191
 20
151.43593
 11
494.86188
 21
150.90004
  0
LINE
  8
0
  6
CONTINUOUS
 62
     7
 10
492.86188
 20
119.3641
 11
494.86191
 21
119.89999
  0
LINE
  8
0
  6
CONTINUOUS
 62
     7
 10
392.86188
 20
119.36411
 11
390.86191
 21
119.89999
  0
LINE
  8
0
  6
CONTINUOUS
 62
     7
 10
414.86188
 20
156.39999
 11
411.36188
 21
156.39999
  0
LINE
  8
0
  6
CONTINUOUS
 62
     7
 10
414.86188
 20
114.39999
 11
411.36188
 21
114.39999
  0
LINE
  8
0
  6
CONTINUOUS
 62
     7
 10
392.86188
 20
157.89999
 11
392.86188
 21
112.89999
  0
LINE
  8
0
  6
CONTINUOUS
 62
     7
 10
411.36188
 20
157.89999
 11
411.36188
 21
112.89999
  0
LINE
  8
0
  6
CONTINUOUS
 62
     7
 10
409.36188
 20
159.89999
 11
394.86188
 21
159.89999
  0
LINE
  8
0
  6
CONTINUOUS
 62
     7
 10
409.36188
 20
110.89999
 11
394.86188
 21
110.89999
  0
LINE
  8
0
  6
CONTINUOUS
 62
     7
 10
411.36188
 20
157.89999
 11
409.36188
 21
159.90001
  0
LINE
  8
0
  6
CONTINUOUS
 62
     7
 10
409.36188
 20
110.90001
 11
411.36188
 21
112.89999
  0
LINE
  8
0
  6
CONTINUOUS
 62
     7
 10
394.86188
 20
159.90001
 11
392.86188
 21
157.90001
  0
LINE
  8
0
  6
CONTINUOUS
 62
     7
 10
392.86191
 20
112.89999
 11
394.86188
 21
110.90001
  0
LINE
  8
0
  6
CONTINUOUS
 62
     7
 10
410.36188
 20
145.54111
 11
393.86188
 21
145.54111
  0
LINE
  8
0
  6
CONTINUOUS
 62
     7
 10
410.36188
 20
125.2589
 11
393.86188
 21
125.2589
  0
LINE
  8
0
  6
CONTINUOUS
 62
     7
 10
390.86188
 20
150.89999
 11
390.86188
 21
119.89999
  0
LINE
  8
0
  6
CONTINUOUS
 62
     7
 10
392.86191
 20
151.4359
 11
390.86191
 21
150.89999
  0
LINE
  8
0
  6
CENTER
 62
     7
 10
707.43689
 20
161.3
 11
707.43689
 21
94.625
  0
LINE
  8
0
  6
CENTER
 62
     7
 10
644.8219
 20
135.39999
 11
766.34192
 21
135.39999
  0
LINE
  8
0
  6
CONTINUOUS
 62
     7
 10
737.93689
 20
160.39999
 11
737.93689
 21
110.39999
  0
LINE
  8
0
  6
CONTINUOUS
 62
     7
 10
737.93689
 20
160.39999
 11
741.43689
 21
160.39999
  0
LINE
  8
0
  6
CONTINUOUS
 62
     7
 10
681.40204
 20
157.64999
 11
733.47174
 21
157.64999
  0
LINE
  8
0
  6
CONTINUOUS
 62
     7
 10
725.93689
 20
113.14999
 11
733.47174
 21
113.14999
  0
LINE
  8
0
  6
CONTINUOUS
 62
     7
 10
737.93689
 20
110.39999
 11
741.43689
 21
110.39999
  0
LINE
  8
0
  6
CONTINUOUS
 62
     7
 10
693.93689
 20
99.400002
 11
720.93689
 21
99.400002
  0
LINE
  8
0
  6
CONTINUOUS
 62
     7
 10
720.93689
 20
108.14999
 11
720.93689
 21
99.400002
  0
LINE
  8
0
  6
CONTINUOUS
 62
     7
 10
693.93689
 20
108.14999
 11
693.93689
 21
99.400002
  0
LINE
  8
0
  6
CONTINUOUS
 62
     7
 10
676.93689
 20
160.39999
 11
676.93689
 21
110.39999
  0
LINE
  8
0
  6
CONTINUOUS
 62
     7
 10
688.93689
 20
113.14999
 11
681.40204
 21
113.14999
  0
LINE
  8
0
  6
CONTINUOUS
 62
     7
 10
759.93689
 20
162.39999
 11
759.93689
 21
108.39999
  0
LINE
  8
0
  6
CONTINUOUS
 62
     7
 10
741.43689
 20
162.39999
 11
741.43689
 21
108.39999
  0
LINE
  8
0
  6
CONTINUOUS
 62
     7
 10
743.43689
 20
106.4
 11
757.93689
 21
106.4
  0
LINE
  8
0
  6
CONTINUOUS
 62
     7
 10
743.43689
 20
164.39999
 11
757.93689
 21
164.39999
  0
LINE
  8
0
  6
CONTINUOUS
 62
     7
 10
741.43689
 20
162.39998
 11
743.43689
 21
164.39999
  0
LINE
  8
0
  6
CONTINUOUS
 62
     7
 10
757.93689
 20
164.39998
 11
759.93689
 21
162.39998
  0
LINE
  8
0
  6
CONTINUOUS
 62
     7
 10
741.43689
 20
108.39999
 11
743.43689
 21
106.40001
  0
LINE
  8
0
  6
CONTINUOUS
 62
     7
 10
757.93683
 20
106.39996
 11
759.93683
 21
108.39997
  0
LINE
  8
0
  6
CONTINUOUS
 62
     7
 10
742.43689
 20
147.4122
 11
758.93689
 21
147.4122
  0
LINE
  8
0
  6
CONTINUOUS
 62
     7
 10
742.43689
 20
123.3878
 11
758.93689
 21
123.3878
  0
LINE
  8
0
  6
CONTINUOUS
 62
     7
 10
761.93689
 20
154.3
 11
761.93689
 21
116.5
  0
LINE
  8
0
  6
CONTINUOUS
 62
     7
 10
761.93689
 20
154.30002
 11
759.93689
 21
154.83591
  0
LINE
  8
0
  6
CONTINUOUS
 62
     7
 10
761.93689
 20
116.50001
 11
759.93689
 21
115.96411
  0
LINE
  8
0
  6
CONTINUOUS
 62
     7
 10
652.93689
 20
116.49999
 11
654.93689
 21
115.9641
  0
LINE
  8
0
  6
CONTINUOUS
 62
     7
 10
676.93689
 20
160.39999
 11
673.43689
 21
160.39999
  0
LINE
  8
0
  6
CONTINUOUS
 62
     7
 10
676.93689
 20
110.39999
 11
673.43689
 21
110.39999
  0
LINE
  8
0
  6
CONTINUOUS
 62
     7
 10
654.93689
 20
162.39999
 11
654.93689
 21
108.39999
  0
LINE
  8
0
  6
CONTINUOUS
 62
     7
 10
673.43689
 20
162.39999
 11
673.43689
 21
108.39999
  0
LINE
  8
0
  6
CONTINUOUS
 62
     7
 10
671.43689
 20
106.4
 11
656.93689
 21
106.4
  0
LINE
  8
0
  6
CONTINUOUS
 62
     7
 10
671.43689
 20
164.39999
 11
656.93689
 21
164.39999
  0
LINE
  8
0
  6
CONTINUOUS
 62
     7
 10
673.43689
 20
162.40002
 11
671.43689
 21
164.40002
  0
LINE
  8
0
  6
CONTINUOUS
 62
     7
 10
656.93689
 20
164.40002
 11
654.93689
 21
162.40002
  0
LINE
  8
0
  6
CONTINUOUS
 62
     7
 10
673.43689
 20
108.40004
 11
671.43689
 21
106.40003
  0
LINE
  8
0
  6
CONTINUOUS
 62
     7
 10
656.93689
 20
106.40003
 11
654.93695
 21
108.40002
  0
LINE
  8
0
  6
CONTINUOUS
 62
     7
 10
672.43689
 20
147.4122
 11
655.93689
 21
147.4122
  0
LINE
  8
0
  6
CONTINUOUS
 62
     7
 10
672.43689
 20
123.3878
 11
655.93689
 21
123.3878
  0
LINE
  8
0
  6
CONTINUOUS
 62
     7
 10
652.93689
 20
154.3
 11
652.93689
 21
116.5
  0
LINE
  8
0
  6
CONTINUOUS
 62
     7
 10
652.93689
 20
154.29999
 11
654.93689
 21
154.83589
  0
LINE
  8
0
  6
CENTER
 62
     7
 10
411.31265
 20
37.02578
 11
411.31265
 21
-32.624222
  0
LINE
  8
0
  6
CENTER
 62
     7
 10
348.70016
 20
10.600776
 11
474.52515
 21
10.600776
  0
LINE
  8
0
  6
CONTINUOUS
 62
     7
 10
444.81265
 20
35.600777
 11
444.81265
 21
-14.399224
  0
LINE
  8
0
  6
CONTINUOUS
 62
     7
 10
444.81265
 20
35.600777
 11
448.31265
 21
35.600777
  0
LINE
  8
0
  6
CONTINUOUS
 62
     7
 10
382.2778
 20
32.850777
 11
440.34753
 21
32.850777
  0
LINE
  8
0
  6
CONTINUOUS
 62
     7
 10
394.81265
 20
-27.399225
 11
427.81265
 21
-27.399225
  0
LINE
  8
0
  6
CONTINUOUS
 62
     7
 10
427.81265
 20
-16.649225
 11
427.81265
 21
-27.399225
  0
LINE
  8
0
  6
CONTINUOUS
 62
     7
 10
444.81265
 20
-14.399224
 11
448.31265
 21
-14.399224
  0
LINE
  8
0
  6
CONTINUOUS
 62
     7
 10
432.81265
 20
-11.649224
 11
440.34753
 21
-11.649224
  0
LINE
  8
0
  6
CONTINUOUS
 62
     7
 10
377.81265
 20
35.600777
 11
377.81265
 21
-14.399224
  0
LINE
  8
0
  6
CONTINUOUS
 62
     7
 10
389.81265
 20
-11.649224
 11
382.2778
 21
-11.649224
  0
LINE
  8
0
  6
CONTINUOUS
 62
     7
 10
394.81265
 20
-16.649225
 11
394.81265
 21
-27.399225
  0
LINE
  8
0
  6
CONTINUOUS
 62
     7
 10
466.81265
 20
37.600777
 11
466.81265
 21
-16.399225
  0
LINE
  8
0
  6
CONTINUOUS
 62
     7
 10
448.31265
 20
37.600777
 11
448.31265
 21
-16.399225
  0
LINE
  8
0
  6
CONTINUOUS
 62
     7
 10
450.31265
 20
-18.399225
 11
464.81265
 21
-18.399225
  0
LINE
  8
0
  6
CONTINUOUS
 62
     7
 10
450.31265
 20
39.600777
 11
464.81265
 21
39.600777
  0
LINE
  8
0
  6
CONTINUOUS
 62
     7
 10
448.31265
 20
37.600765
 11
450.31265
 21
39.600765
  0
LINE
  8
0
  6
CONTINUOUS
 62
     7
 10
464.81265
 20
39.600765
 11
466.81265
 21
37.600761
  0
LINE
  8
0
  6
CONTINUOUS
 62
     7
 10
448.31268
 20
-16.399235
 11
450.31268
 21
-18.399237
  0
LINE
  8
0
  6
CONTINUOUS
 62
     7
 10
464.81268
 20
-18.399237
 11
466.81268
 21
-16.399235
  0
LINE
  8
0
  6
CONTINUOUS
 62
     7
 10
449.31265
 20
22.612967
 11
465.81265
 21
22.612967
  0
LINE
  8
0
  6
CONTINUOUS
 62
     7
 10
449.31265
 20
-1.4114163
 11
465.81265
 21
-1.4114163
  0
LINE
  8
0
  6
CONTINUOUS
 62
     7
 10
468.81265
 20
29.500769
 11
468.81265
 21
-8.2992182
  0
LINE
  8
0
  6
CONTINUOUS
 62
     7
 10
468.81265
 20
29.500778
 11
466.81265
 21
30.036678
  0
LINE
  8
0
  6
CONTINUOUS
 62
     7
 10
468.81265
 20
-8.2992268
 11
466.81265
 21
-8.8351259
  0
LINE
  8
0
  6
CONTINUOUS
 62
     7
 10
353.81265
 20
-8.2992163
 11
355.81268
 21
-8.8351154
  0
LINE
  8
0
  6
CONTINUOUS
 62
     7
 10
377.81265
 20
35.600777
 11
374.31265
 21
35.600777
  0
LINE
  8
0
  6
CONTINUOUS
 62
     7
 10
377.81265
 20
-14.399224
 11
374.31265
 21
-14.399224
  0
LINE
  8
0
  6
CONTINUOUS
 62
     7
 10
355.81265
 20
37.600777
 11
355.81265
 21
-16.399225
  0
LINE
  8
0
  6
CONTINUOUS
 62
     7
 10
374.31265
 20
37.600777
 11
374.31265
 21
-16.399225
  0
LINE
  8
0
  6
CONTINUOUS
 62
     7
 10
372.31265
 20
-18.399225
 11
357.81265
 21
-18.399225
  0
LINE
  8
0
  6
CONTINUOUS
 62
     7
 10
372.31265
 20
39.600777
 11
357.81265
 21
39.600777
  0
LINE
  8
0
  6
CONTINUOUS
 62
     7
 10
374.31265
 20
37.600765
 11
372.31265
 21
39.600769
  0
LINE
  8
0
  6
CONTINUOUS
 62
     7
 10
357.81262
 20
39.600769
 11
355.81262
 21
37.600765
  0
LINE
  8
0
  6
CONTINUOUS
 62
     7
 10
374.31265
 20
-16.399216
 11
372.31265
 21
-18.399218
  0
LINE
  8
0
  6
CONTINUOUS
 62
     7
 10
357.81265
 20
-18.399239
 11
355.81265
 21
-16.399237
  0
LINE
  8
0
  6
CONTINUOUS
 62
     7
 10
373.31265
 20
22.612967
 11
356.81265
 21
22.612967
  0
LINE
  8
0
  6
CONTINUOUS
 62
     7
 10
373.31265
 20
-1.4114163
 11
356.81265
 21
-1.4114163
  0
LINE
  8
0
  6
CONTINUOUS
 62
     7
 10
353.81265
 20
29.500769
 11
353.81265
 21
-8.2992182
  0
LINE
  8
0
  6
CONTINUOUS
 62
     7
 10
353.81265
 20
29.500767
 11
355.81268
 21
30.036667
  0
LINE
  8
0
  6
CENTER
 62
     7
 10
644.28546
 20
1.9230301
 11
772.73547
 21
1.9230301
  0
LINE
  8
0
  6
CENTER
 62
     7
 10
706.93549
 20
33.773037
 11
706.93549
 21
-43.576969
  0
LINE
  8
0
  6
CONTINUOUS
 62
     7
 10
739.93549
 20
30.923031
 11
743.43549
 21
30.923031
  0
LINE
  8
0
  6
CONTINUOUS
 62
     7
 10
739.93549
 20
30.923031
 11
739.93549
 21
-27.076969
  0
LINE
  8
0
  6
CONTINUOUS
 62
     7
 10
678.26563
 20
28.423031
 11
735.60535
 21
28.423031
  0
LINE
  8
0
  6
CONTINUOUS
 62
     7
 10
678.26563
 20
-24.576969
 11
687.43549
 21
-24.576969
  0
LINE
  8
0
  6
CONTINUOUS
 62
     7
 10
739.93549
 20
-27.076969
 11
743.43549
 21
-27.076969
  0
LINE
  8
0
  6
CONTINUOUS
 62
     7
 10
693.43549
 20
-38.076969
 11
720.43549
 21
-38.076969
  0
LINE
  8
0
  6
CONTINUOUS
 62
     7
 10
693.43549
 20
-30.576969
 11
693.43549
 21
-38.076969
  0
LINE
  8
0
  6
CONTINUOUS
 62
     7
 10
720.43549
 20
-30.576969
 11
720.43549
 21
-38.076969
  0
LINE
  8
0
  6
CONTINUOUS
 62
     7
 10
673.93549
 20
30.923031
 11
673.93549
 21
-27.076969
  0
LINE
  8
0
  6
CONTINUOUS
 62
     7
 10
726.43549
 20
-24.576969
 11
735.60535
 21
-24.576969
  0
LINE
  8
0
  6
CONTINUOUS
 62
     7
 10
762.43549
 20
32.923031
 11
762.43549
 21
-29.076969
  0
LINE
  8
0
  6
CONTINUOUS
 62
     7
 10
743.43549
 20
32.923054
 11
743.43549
 21
-29.076969
  0
LINE
  8
0
  6
CONTINUOUS
 62
     7
 10
764.43549
 20
25.273037
 11
764.43549
 21
-21.426975
  0
LINE
  8
0
  6
CONTINUOUS
 62
     7
 10
745.43549
 20
34.923031
 11
760.43549
 21
34.923031
  0
LINE
  8
0
  6
CONTINUOUS
 62
     7
 10
745.43549
 20
-31.076969
 11
760.43549
 21
-31.076969
  0
LINE
  8
0
  6
CONTINUOUS
 62
     7
 10
743.43549
 20
32.923031
 11
745.43549
 21
34.923035
  0
LINE
  8
0
  6
CONTINUOUS
 62
     7
 10
760.43542
 20
34.923031
 11
762.43542
 21
32.923031
  0
LINE
  8
0
  6
CONTINUOUS
 62
     7
 10
762.43542
 20
-29.076994
 11
760.43542
 21
-31.076996
  0
LINE
  8
0
  6
CONTINUOUS
 62
     7
 10
743.43542
 20
-29.076952
 11
745.43542
 21
-31.076954
  0
LINE
  8
0
  6
CONTINUOUS
 62
     7
 10
744.43549
 20
15.592082
 11
761.43549
 21
15.592082
  0
LINE
  8
0
  6
CONTINUOUS
 62
     7
 10
744.43549
 20
-11.746022
 11
761.43549
 21
-11.746022
  0
LINE
  8
0
  6
CONTINUOUS
 62
     7
 10
764.43542
 20
25.273031
 11
762.43542
 21
25.808931
  0
LINE
  8
0
  6
CONTINUOUS
 62
     7
 10
764.43549
 20
-21.426971
 11
762.43549
 21
-21.96287
  0
LINE
  8
0
  6
CONTINUOUS
 62
     7
 10
649.43549
 20
-21.426981
 11
651.43549
 21
-21.962879
  0
LINE
  8
0
  6
CONTINUOUS
 62
     7
 10
673.93549
 20
30.923031
 11
670.43549
 21
30.923031
  0
LINE
  8
0
  6
CONTINUOUS
 62
     7
 10
673.93549
 20
-27.076969
 11
670.43549
 21
-27.076969
  0
LINE
  8
0
  6
CONTINUOUS
 62
     7
 10
651.43549
 20
32.923031
 11
651.43549
 21
-29.076969
  0
LINE
  8
0
  6
CONTINUOUS
 62
     7
 10
670.43549
 20
32.923031
 11
670.43549
 21
-29.076969
  0
LINE
  8
0
  6
CONTINUOUS
 62
     7
 10
649.43549
 20
25.273037
 11
649.43549
 21
-21.426975
  0
LINE
  8
0
  6
CONTINUOUS
 62
     7
 10
668.43549
 20
34.923031
 11
653.43549
 21
34.923031
  0
LINE
  8
0
  6
CONTINUOUS
 62
     7
 10
668.43549
 20
-31.076969
 11
653.43549
 21
-31.076969
  0
LINE
  8
0
  6
CONTINUOUS
 62
     7
 10
670.43549
 20
32.923027
 11
668.43549
 21
34.923027
  0
LINE
  8
0
  6
CONTINUOUS
 62
     7
 10
653.43549
 20
34.923027
 11
651.43549
 21
32.923027
  0
LINE
  8
0
  6
CONTINUOUS
 62
     7
 10
651.43549
 20
-29.076956
 11
653.43549
 21
-31.076958
  0
LINE
  8
0
  6
CONTINUOUS
 62
     7
 10
670.43549
 20
-29.076967
 11
668.43549
 21
-31.076969
  0
LINE
  8
0
  6
CONTINUOUS
 62
     7
 10
669.43549
 20
15.592082
 11
652.43549
 21
15.592082
  0
LINE
  8
0
  6
CONTINUOUS
 62
     7
 10
669.43549
 20
-11.746022
 11
652.43549
 21
-11.746022
  0
LINE
  8
0
  6
CONTINUOUS
 62
     7
 10
649.43549
 20
25.273041
 11
651.43549
 21
25.808939
  0
LINE
  8
0
  6
CENTER
 62
     7
 10
350.37219
 20
-129.9787
 11
484.24716
 21
-129.9787
  0
LINE
  8
0
  6
CENTER
 62
     7
 10
416.52216
 20
-99.353699
 11
416.52216
 21
-176.00369
  0
LINE
  8
0
  6
CONTINUOUS
 62
     7
 10
452.52216
 20
-100.9787
 11
452.52216
 21
-158.9787
  0
LINE
  8
0
  6
CONTINUOUS
 62
     7
 10
452.52216
 20
-100.9787
 11
456.02216
 21
-100.9787
  0
LINE
  8
0
  6
CONTINUOUS
 62
     7
 10
384.85229
 20
-103.4787
 11
448.19202
 21
-103.4787
  0
LINE
  8
0
  6
CONTINUOUS
 62
     7
 10
452.52216
 20
-158.9787
 11
456.02216
 21
-158.9787
  0
LINE
  8
0
  6
CONTINUOUS
 62
     7
 10
384.85229
 20
-156.4787
 11
394.02216
 21
-156.4787
  0
LINE
  8
0
  6
CONTINUOUS
 62
     7
 10
380.52216
 20
-100.9787
 11
380.52216
 21
-158.9787
  0
LINE
  8
0
  6
CONTINUOUS
 62
     7
 10
439.02216
 20
-156.4787
 11
448.19202
 21
-156.4787
  0
LINE
  8
0
  6
CONTINUOUS
 62
     7
 10
400.02216
 20
-171.9787
 11
433.02216
 21
-171.9787
  0
LINE
  8
0
  6
CONTINUOUS
 62
     7
 10
400.02216
 20
-162.4787
 11
400.02216
 21
-171.9787
  0
LINE
  8
0
  6
CONTINUOUS
 62
     7
 10
433.02216
 20
-162.4787
 11
433.02216
 21
-171.9787
  0
LINE
  8
0
  6
CONTINUOUS
 62
     7
 10
475.02216
 20
-98.978699
 11
475.02216
 21
-160.9787
  0
LINE
  8
0
  6
CONTINUOUS
 62
     7
 10
456.02216
 20
-98.978699
 11
456.02216
 21
-160.9787
  0
LINE
  8
0
  6
CONTINUOUS
 62
     7
 10
477.02216
 20
-106.6287
 11
477.02216
 21
-153.3287
  0
LINE
  8
0
  6
CONTINUOUS
 62
     7
 10
458.02216
 20
-96.978699
 11
473.02216
 21
-96.978699
  0
LINE
  8
0
  6
CONTINUOUS
 62
     7
 10
458.02216
 20
-162.9787
 11
473.02216
 21
-162.9787
  0
LINE
  8
0
  6
CONTINUOUS
 62
     7
 10
456.02219
 20
-98.978699
 11
458.02219
 21
-96.978706
  0
LINE
  8
0
  6
CONTINUOUS
 62
     7
 10
473.02219
 20
-96.978699
 11
475.02219
 21
-98.978699
  0
LINE
  8
0
  6
CONTINUOUS
 62
     7
 10
475.02219
 20
-160.97868
 11
473.02219
 21
-162.9787
  0
LINE
  8
0
  6
CONTINUOUS
 62
     7
 10
456.02219
 20
-160.9787
 11
458.02219
 21
-162.97871
  0
LINE
  8
0
  6
CONTINUOUS
 62
     7
 10
457.02216
 20
-116.30965
 11
474.02216
 21
-116.30965
  0
LINE
  8
0
  6
CONTINUOUS
 62
     7
 10
457.02216
 20
-143.64775
 11
474.02216
 21
-143.64775
  0
LINE
  8
0
  6
CONTINUOUS
 62
     7
 10
477.02216
 20
-106.6287
 11
475.02216
 21
-106.0928
  0
LINE
  8
0
  6
CONTINUOUS
 62
     7
 10
477.02219
 20
-153.32872
 11
475.02219
 21
-153.86461
  0
LINE
  8
0
  6
CONTINUOUS
 62
     7
 10
356.02216
 20
-153.3287
 11
358.02216
 21
-153.86461
  0
LINE
  8
0
  6
CONTINUOUS
 62
     7
 10
380.52216
 20
-100.9787
 11
377.02213
 21
-100.9787
  0
LINE
  8
0
  6
CONTINUOUS
 62
     7
 10
380.52216
 20
-158.9787
 11
377.02213
 21
-158.9787
  0
LINE
  8
0
  6
CONTINUOUS
 62
     7
 10
358.02216
 20
-98.978699
 11
358.02216
 21
-160.9787
  0
LINE
  8
0
  6
CONTINUOUS
 62
     7
 10
377.02213
 20
-98.978699
 11
377.02213
 21
-160.9787
  0
LINE
  8
0
  6
CONTINUOUS
 62
     7
 10
356.02216
 20
-106.6287
 11
356.02216
 21
-153.3287
  0
LINE
  8
0
  6
CONTINUOUS
 62
     7
 10
375.02213
 20
-96.978699
 11
360.02213
 21
-96.978699
  0
LINE
  8
0
  6
CONTINUOUS
 62
     7
 10
375.02213
 20
-162.9787
 11
360.02213
 21
-162.9787
  0
LINE
  8
0
  6
CONTINUOUS
 62
     7
 10
377.02216
 20
-98.978706
 11
375.02213
 21
-96.978706
  0
LINE
  8
0
  6
CONTINUOUS
 62
     7
 10
360.02216
 20
-96.978706
 11
358.02216
 21
-98.978706
  0
LINE
  8
0
  6
CONTINUOUS
 62
     7
 10
358.02213
 20
-160.9787
 11
360.02213
 21
-162.9787
  0
LINE
  8
0
  6
CONTINUOUS
 62
     7
 10
377.02216
 20
-160.9787
 11
375.02216
 21
-162.9787
  0
LINE
  8
0
  6
CONTINUOUS
 62
     7
 10
376.02213
 20
-116.30965
 11
359.02216
 21
-116.30965
  0
LINE
  8
0
  6
CONTINUOUS
 62
     7
 10
376.02213
 20
-143.64775
 11
359.02216
 21
-143.64775
  0
LINE
  8
0
  6
CONTINUOUS
 62
     7
 10
356.02216
 20
-106.62868
 11
358.02216
 21
-106.09279
  0
LINE
  8
0
  6
CENTER
 62
     7
 10
696.52216
 20
-100.5787
 11
696.52216
 21
-178.2787
  0
LINE
  8
0
  6
CENTER
 62
     7
 10
629.84717
 20
-129.9787
 11
770.54718
 21
-129.9787
  0
LINE
  8
0
  6
CONTINUOUS
 62
     7
 10
735.52216
 20
-100.9787
 11
735.52216
 21
-158.9787
  0
LINE
  8
0
  6
CONTINUOUS
 62
     7
 10
735.52216
 20
-100.9787
 11
739.02216
 21
-100.9787
  0
LINE
  8
0
  6
CONTINUOUS
 62
     7
 10
661.85229
 20
-103.4787
 11
731.19202
 21
-103.4787
  0
LINE
  8
0
  6
CONTINUOUS
 62
     7
 10
735.52216
 20
-158.9787
 11
739.02216
 21
-158.9787
  0
LINE
  8
0
  6
CONTINUOUS
 62
     7
 10
723.02216
 20
-156.4787
 11
731.19202
 21
-156.4787
  0
LINE
  8
0
  6
CONTINUOUS
 62
     7
 10
657.52216
 20
-100.9787
 11
657.52216
 21
-158.9787
  0
LINE
  8
0
  6
CONTINUOUS
 62
     7
 10
670.02216
 20
-156.4787
 11
661.85229
 21
-156.4787
  0
LINE
  8
0
  6
CONTINUOUS
 62
     7
 10
676.02216
 20
-173.9787
 11
717.02216
 21
-173.9787
  0
LINE
  8
0
  6
CONTINUOUS
 62
     7
 10
676.02216
 20
-162.4787
 11
676.02216
 21
-173.9787
  0
LINE
  8
0
  6
CONTINUOUS
 62
     7
 10
717.02216
 20
-162.4787
 11
717.02216
 21
-173.9787
  0
LINE
  8
0
  6
CONTINUOUS
 62
     7
 10
758.02216
 20
-98.978699
 11
758.02216
 21
-160.9787
  0
LINE
  8
0
  6
CONTINUOUS
 62
     7
 10
739.02216
 20
-98.978699
 11
739.02216
 21
-160.9787
  0
LINE
  8
0
  6
CONTINUOUS
 62
     7
 10
760.02216
 20
-106.6287
 11
760.02216
 21
-153.3287
  0
LINE
  8
0
  6
CONTINUOUS
 62
     7
 10
741.02216
 20
-96.978699
 11
756.02216
 21
-96.978699
  0
LINE
  8
0
  6
CONTINUOUS
 62
     7
 10
741.02216
 20
-162.9787
 11
756.02216
 21
-162.9787
  0
LINE
  8
0
  6
CONTINUOUS
 62
     7
 10
739.02216
 20
-98.978668
 11
741.02216
 21
-96.978668
  0
LINE
  8
0
  6
CONTINUOUS
 62
     7
 10
756.02216
 20
-96.978683
 11
758.02216
 21
-98.978691
  0
LINE
  8
0
  6
CONTINUOUS
 62
     7
 10
758.02216
 20
-160.9787
 11
756.02216
 21
-162.9787
  0
LINE
  8
0
  6
CONTINUOUS
 62
     7
 10
739.02216
 20
-160.9787
 11
741.02216
 21
-162.9787
  0
LINE
  8
0
  6
CONTINUOUS
 62
     7
 10
740.02216
 20
-116.30965
 11
757.02216
 21
-116.30965
  0
LINE
  8
0
  6
CONTINUOUS
 62
     7
 10
740.02216
 20
-143.64775
 11
757.02216
 21
-143.64775
  0
LINE
  8
0
  6
CONTINUOUS
 62
     7
 10
760.02216
 20
-106.6287
 11
758.02216
 21
-106.0928
  0
LINE
  8
0
  6
CONTINUOUS
 62
     7
 10
760.02222
 20
-153.3287
 11
758.02222
 21
-153.86461
  0
LINE
  8
0
  6
CONTINUOUS
 62
     7
 10
633.02216
 20
-153.3287
 11
635.02216
 21
-153.86459
  0
LINE
  8
0
  6
CONTINUOUS
 62
     7
 10
657.52216
 20
-100.9787
 11
654.02216
 21
-100.9787
  0
LINE
  8
0
  6
CONTINUOUS
 62
     7
 10
657.52216
 20
-158.9787
 11
654.02216
 21
-158.9787
  0
LINE
  8
0
  6
CONTINUOUS
 62
     7
 10
635.02216
 20
-98.978699
 11
635.02216
 21
-160.9787
  0
LINE
  8
0
  6
CONTINUOUS
 62
     7
 10
654.02216
 20
-98.978699
 11
654.02216
 21
-160.9787
  0
LINE
  8
0
  6
CONTINUOUS
 62
     7
 10
633.02216
 20
-106.6287
 11
633.02216
 21
-153.3287
  0
LINE
  8
0
  6
CONTINUOUS
 62
     7
 10
652.02216
 20
-96.978699
 11
637.02216
 21
-96.978699
  0
LINE
  8
0
  6
CONTINUOUS
 62
     7
 10
652.02216
 20
-162.9787
 11
637.02216
 21
-162.9787
  0
LINE
  8
0
  6
CONTINUOUS
 62
     7
 10
654.02222
 20
-98.978737
 11
652.02222
 21
-96.978737
  0
LINE
  8
0
  6
CONTINUOUS
 62
     7
 10
637.02216
 20
-96.978714
 11
635.02216
 21
-98.978714
  0
LINE
  8
0
  6
CONTINUOUS
 62
     7
 10
635.02222
 20
-160.97871
 11
637.02222
 21
-162.97871
  0
LINE
  8
0
  6
CONTINUOUS
 62
     7
 10
654.02222
 20
-160.97873
 11
652.02222
 21
-162.97873
  0
LINE
  8
0
  6
CONTINUOUS
 62
     7
 10
653.02216
 20
-116.30965
 11
636.02216
 21
-116.30965
  0
LINE
  8
0
  6
CONTINUOUS
 62
     7
 10
653.02216
 20
-143.64775
 11
636.02216
 21
-143.64775
  0
LINE
  8
0
  6
CONTINUOUS
 62
     7
 10
633.02216
 20
-106.62868
 11
635.02216
 21
-106.09278
  0
LINE
  8
0
  6
CENTER
 62
     7
 10
356.89612
 20
-338.31729
 11
488.84613
 21
-338.31729
  0
LINE
  8
0
  6
CENTER
 62
     7
 10
422.78363
 20
-302.5173
 11
422.78363
 21
-387.56729
  0
LINE
  8
0
  6
CONTINUOUS
 62
     7
 10
456.28363
 20
-305.81729
 11
456.28363
 21
-370.81729
  0
LINE
  8
0
  6
CONTINUOUS
 62
     7
 10
456.28363
 20
-305.81729
 11
459.28363
 21
-305.81729
  0
LINE
  8
0
  6
CONTINUOUS
 62
     7
 10
393.61374
 20
-308.31729
 11
451.95349
 21
-308.31729
  0
LINE
  8
0
  6
CONTINUOUS
 62
     7
 10
393.61374
 20
-368.31729
 11
403.28363
 21
-368.31729
  0
LINE
  8
0
  6
CONTINUOUS
 62
     7
 10
456.28363
 20
-370.81729
 11
459.28363
 21
-370.81729
  0
LINE
  8
0
  6
CONTINUOUS
 62
     7
 10
389.28363
 20
-305.81729
 11
389.28363
 21
-370.81729
  0
LINE
  8
0
  6
CONTINUOUS
 62
     7
 10
451.95349
 20
-368.31729
 11
442.28363
 21
-368.31729
  0
LINE
  8
0
  6
CONTINUOUS
 62
     7
 10
409.28363
 20
-381.81729
 11
436.28363
 21
-381.81729
  0
LINE
  8
0
  6
CONTINUOUS
 62
     7
 10
436.28363
 20
-374.31729
 11
436.28363
 21
-381.81729
  0
LINE
  8
0
  6
CONTINUOUS
 62
     7
 10
409.28363
 20
-374.31729
 11
409.28363
 21
-381.81729
  0
LINE
  8
0
  6
CONTINUOUS
 62
     7
 10
481.28363
 20
-303.81729
 11
481.28363
 21
-372.81729
  0
LINE
  8
0
  6
CONTINUOUS
 62
     7
 10
460.28363
 20
-338.31729
 11
480.28363
 21
-338.31729
  0
LINE
  8
0
  6
CONTINUOUS
 62
     7
 10
459.28363
 20
-303.81729
 11
459.28363
 21
-372.81729
  0
LINE
  8
0
  6
CONTINUOUS
 62
     7
 10
461.28363
 20
-301.81729
 11
479.28363
 21
-301.81729
  0
LINE
  8
0
  6
CONTINUOUS
 62
     7
 10
461.28363
 20
-374.81729
 11
479.28363
 21
-374.81729
  0
LINE
  8
0
  6
CONTINUOUS
 62
     7
 10
483.28363
 20
-311.86728
 11
483.28363
 21
-364.7673
  0
LINE
  8
0
  6
CONTINUOUS
 62
     7
 10
460.28363
 20
-315.75906
 11
480.28363
 21
-315.75906
  0
LINE
  8
0
  6
CONTINUOUS
 62
     7
 10
460.28363
 20
-360.87552
 11
480.28363
 21
-360.87552
  0
LINE
  8
0
  6
CONTINUOUS
 62
     7
 10
459.2836
 20
-303.81729
 11
461.2836
 21
-301.81729
  0
LINE
  8
0
  6
CONTINUOUS
 62
     7
 10
479.2836
 20
-301.81726
 11
481.2836
 21
-303.81726
  0
LINE
  8
0
  6
CONTINUOUS
 62
     7
 10
459.28357
 20
-372.81726
 11
461.28357
 21
-374.81726
  0
LINE
  8
0
  6
CONTINUOUS
 62
     7
 10
481.28357
 20
-372.81726
 11
479.28357
 21
-374.81726
  0
LINE
  8
0
  6
CONTINUOUS
 62
     7
 10
483.28363
 20
-311.86731
 11
481.2836
 21
-311.33142
  0
LINE
  8
0
  6
CONTINUOUS
 62
     7
 10
483.28363
 20
-364.7673
 11
481.28363
 21
-365.30322
  0
LINE
  8
0
  6
CONTINUOUS
 62
     7
 10
362.28363
 20
-364.7673
 11
364.28363
 21
-365.30322
  0
LINE
  8
0
  6
CONTINUOUS
 62
     7
 10
389.28363
 20
-305.81729
 11
386.28363
 21
-305.81729
  0
LINE
  8
0
  6
CONTINUOUS
 62
     7
 10
389.28363
 20
-370.81729
 11
386.28363
 21
-370.81729
  0
LINE
  8
0
  6
CONTINUOUS
 62
     7
 10
364.28363
 20
-303.81729
 11
364.28363
 21
-372.81729
  0
LINE
  8
0
  6
CONTINUOUS
 62
     7
 10
385.28363
 20
-338.31729
 11
365.28363
 21
-338.31729
  0
LINE
  8
0
  6
CONTINUOUS
 62
     7
 10
386.28363
 20
-303.81729
 11
386.28363
 21
-372.81729
  0
LINE
  8
0
  6
CONTINUOUS
 62
     7
 10
384.28363
 20
-301.81729
 11
366.28363
 21
-301.81729
  0
LINE
  8
0
  6
CONTINUOUS
 62
     7
 10
384.28363
 20
-374.81729
 11
366.28363
 21
-374.81729
  0
LINE
  8
0
  6
CONTINUOUS
 62
     7
 10
362.28363
 20
-311.86728
 11
362.28363
 21
-364.7673
  0
LINE
  8
0
  6
CONTINUOUS
 62
     7
 10
385.28363
 20
-315.75906
 11
365.28363
 21
-315.75906
  0
LINE
  8
0
  6
CONTINUOUS
 62
     7
 10
385.28363
 20
-360.87552
 11
365.28363
 21
-360.87552
  0
LINE
  8
0
  6
CONTINUOUS
 62
     7
 10
386.28363
 20
-303.81729
 11
384.28363
 21
-301.81729
  0
LINE
  8
0
  6
CONTINUOUS
 62
     7
 10
366.2836
 20
-301.81729
 11
364.28363
 21
-303.81726
  0
LINE
  8
0
  6
CONTINUOUS
 62
     7
 10
386.28366
 20
-372.81732
 11
384.28366
 21
-374.81732
  0
LINE
  8
0
  6
CONTINUOUS
 62
     7
 10
364.28366
 20
-372.81732
 11
366.28366
 21
-374.81732
  0
LINE
  8
0
  6
CONTINUOUS
 62
     7
 10
362.28363
 20
-311.86728
 11
364.28363
 21
-311.33139
  0
LINE
  8
0
  6
CONTINUOUS
 62
     7
 10
317.93689
 20
-210
 11
317.93689
 21
210
  0
LINE
  8
0
  6
CONTINUOUS
 62
     7
 10
317.93689
 20
210
 11
911.93689
 21
210
  0
LINE
  8
0
  6
CONTINUOUS
 62
     7
 10
911.93689
 20
-210
 11
317.93689
 21
-210
  0
LINE
  8
0
  6
CONTINUOUS
 62
     7
 10
911.93689
 20
210
 11
911.93689
 21
-210
  0
LINE
  8
0
  6
CONTINUOUS
 62
     7
 10
812.02844
 20
-1752.0933
 11
799.67853
 21
-1714.0841
  0
LINE
  8
0
  6
CONTINUOUS
 62
     7
 10
799.67853
 20
-1714.0842
 11
767.34601
 21
-1690.5933
  0
LINE
  8
0
  6
CONTINUOUS
 62
     7
 10
727.38086
 20
-1690.5933
 11
767.34601
 21
-1690.5933
  0
LINE
  8
0
  6
CONTINUOUS
 62
     7
 10
695.0484
 20
-1714.0842
 11
727.38086
 21
-1690.5933
  0
LINE
  8
0
  6
CONTINUOUS
 62
     7
 10
682.69849
 20
-1752.0933
 11
695.04834
 21
-1714.0842
  0
LINE
  8
0
  6
CONTINUOUS
 62
     7
 10
695.0484
 20
-1790.1023
 11
682.69849
 21
-1752.0931
  0
LINE
  8
0
  6
CONTINUOUS
 62
     7
 10
727.38092
 20
-1813.5934
 11
695.04834
 21
-1790.1024
  0
LINE
  8
0
  6
CONTINUOUS
 62
     7
 10
767.34601
 20
-1813.5933
 11
727.38086
 21
-1813.5933
  0
LINE
  8
0
  6
CONTINUOUS
 62
     7
 10
799.67847
 20
-1790.1024
 11
767.34601
 21
-1813.5933
  0
LINE
  8
0
  6
CONTINUOUS
 62
     7
 10
812.02832
 20
-1752.0933
 11
799.67841
 21
-1790.1023
  0
LINE
  8
0
  6
CONTINUOUS
 62
     7
 10
587.34467
 20
145.54111
 11
573.00299
 21
159.88278
  0
LINE
  8
0
  6
CONTINUOUS
 62
     7
 10
573.00299
 20
159.8828
 11
552.72076
 21
159.8828
  0
LINE
  8
0
  6
CONTINUOUS
 62
     7
 10
538.37909
 20
145.54108
 11
552.72076
 21
159.88278
  0
LINE
  8
0
  6
CONTINUOUS
 62
     7
 10
538.37909
 20
125.25888
 11
538.37909
 21
145.54109
  0
LINE
  8
0
  6
CONTINUOUS
 62
     7
 10
552.72076
 20
110.91717
 11
538.37909
 21
125.25885
  0
LINE
  8
0
  6
CONTINUOUS
 62
     7
 10
573.00299
 20
110.91718
 11
552.72076
 21
110.91718
  0
LINE
  8
0
  6
CONTINUOUS
 62
     7
 10
587.34467
 20
125.25887
 11
573.00299
 21
110.91717
  0
LINE
  8
0
  6
CONTINUOUS
 62
     7
 10
587.34473
 20
145.54109
 11
587.34473
 21
125.25888
  0
LINE
  8
0
  6
CONTINUOUS
 62
     7
 10
560.31262
 20
22.612959
 11
543.32483
 21
39.600765
  0
LINE
  8
0
  6
CONTINUOUS
 62
     7
 10
543.32483
 20
39.600777
 11
519.30048
 21
39.600777
  0
LINE
  8
0
  6
CONTINUOUS
 62
     7
 10
502.31265
 20
22.61298
 11
519.30048
 21
39.600784
  0
LINE
  8
0
  6
CONTINUOUS
 62
     7
 10
502.31265
 20
-1.4114242
 11
502.31265
 21
22.612967
  0
LINE
  8
0
  6
CONTINUOUS
 62
     7
 10
519.30048
 20
-18.399235
 11
502.31265
 21
-1.4114299
  0
LINE
  8
0
  6
CONTINUOUS
 62
     7
 10
543.32483
 20
-18.399227
 11
519.30048
 21
-18.399227
  0
LINE
  8
0
  6
CONTINUOUS
 62
     7
 10
560.31268
 20
-1.4114299
 11
543.32483
 21
-18.399235
  0
LINE
  8
0
  6
CONTINUOUS
 62
     7
 10
560.31268
 20
22.612967
 11
560.31268
 21
-1.4114242
  0
LINE
  8
0
  6
CONTINUOUS
 62
     7
 10
869.52216
 20
-116.30965
 11
850.19122
 21
-96.978722
  0
LINE
  8
0
  6
CONTINUOUS
 62
     7
 10
850.19122
 20
-96.978699
 11
822.85315
 21
-96.978699
  0
LINE
  8
0
  6
CONTINUOUS
 62
     7
 10
803.52216
 20
-116.30964
 11
822.85315
 21
-96.978676
  0
LINE
  8
0
  6
CONTINUOUS
 62
     7
 10
803.52216
 20
-143.64775
 11
803.52216
 21
-116.30965
  0
LINE
  8
0
  6
CONTINUOUS
 62
     7
 10
822.85315
 20
-162.9787
 11
803.52222
 21
-143.64777
  0
LINE
  8
0
  6
CONTINUOUS
 62
     7
 10
850.19122
 20
-162.9787
 11
822.85315
 21
-162.9787
  0
LINE
  8
0
  6
CONTINUOUS
 62
     7
 10
869.52216
 20
-143.64772
 11
850.19122
 21
-162.97868
  0
LINE
  8
0
  6
CONTINUOUS
 62
     7
 10
869.52216
 20
-116.30965
 11
869.52216
 21
-143.64775
  0
LINE
  8
0
  6
CONTINUOUS
 62
     7
 10
881.85254
 20
-515.08673
 11
874.52295
 21
-492.52847
  0
LINE
  8
0
  6
CONTINUOUS
 62
     7
 10
874.52289
 20
-492.52847
 11
855.33374
 21
-478.58673
  0
LINE
  8
0
  6
CONTINUOUS
 62
     7
 10
831.61462
 20
-478.58676
 11
855.33374
 21
-478.58676
  0
LINE
  8
0
  6
CONTINUOUS
 62
     7
 10
812.42542
 20
-492.5285
 11
831.61462
 21
-478.58673
  0
LINE
  8
0
  6
CONTINUOUS
 62
     7
 10
805.09583
 20
-515.08673
 11
812.42542
 21
-492.5285
  0
LINE
  8
0
  6
CONTINUOUS
 62
     7
 10
812.42542
 20
-537.64496
 11
805.09583
 21
-515.08673
  0
LINE
  8
0
  6
CONTINUOUS
 62
     7
 10
831.61462
 20
-551.58673
 11
812.42542
 21
-537.64496
  0
LINE
  8
0
  6
CONTINUOUS
 62
     7
 10
855.33374
 20
-551.58673
 11
831.61462
 21
-551.58673
  0
LINE
  8
0
  6
CONTINUOUS
 62
     7
 10
874.52295
 20
-537.64496
 11
855.33374
 21
-551.58673
  0
LINE
  8
0
  6
CONTINUOUS
 62
     7
 10
881.85254
 20
-515.08673
 11
874.52295
 21
-537.64496
  0
LINE
  8
0
  6
CONTINUOUS
 62
     7
 10
725.37976
 20
-1209.9972
 11
716.64447
 21
-1183.1128
  0
LINE
  8
0
  6
CONTINUOUS
 62
     7
 10
716.64441
 20
-1183.1128
 11
693.77515
 21
-1166.4973
  0
LINE
  8
0
  6
CONTINUOUS
 62
     7
 10
665.50714
 20
-1166.4973
 11
693.77515
 21
-1166.4973
  0
LINE
  8
0
  6
CONTINUOUS
 62
     7
 10
642.63782
 20
-1183.1128
 11
665.50708
 21
-1166.4972
  0
LINE
  8
0
  6
CONTINUOUS
 62
     7
 10
633.90253
 20
-1209.9973
 11
642.63782
 21
-1183.1128
  0
LINE
  8
0
  6
CONTINUOUS
 62
     7
 10
642.63776
 20
-1236.8817
 11
633.90253
 21
-1209.9973
  0
LINE
  8
0
  6
CONTINUOUS
 62
     7
 10
665.50708
 20
-1253.4973
 11
642.63782
 21
-1236.8818
  0
LINE
  8
0
  6
CONTINUOUS
 62
     7
 10
693.77515
 20
-1253.4973
 11
665.50714
 21
-1253.4973
  0
LINE
  8
0
  6
CONTINUOUS
 62
     7
 10
716.64441
 20
-1236.8817
 11
693.77515
 21
-1253.4972
  0
LINE
  8
0
  6
CONTINUOUS
 62
     7
 10
725.37976
 20
-1209.9973
 11
716.64447
 21
-1236.8818
  0
LINE
  8
0
  6
CENTER
 62
     7
 10
562.86188
 20
165.89999
 11
562.86188
 21
104.89999
  0
LINE
  8
0
  6
CENTER
 62
     7
 10
532.36188
 20
135.39999
 11
593.36188
 21
135.39999
  0
LINE
  8
0
  6
CENTER
 62
     7
 10
836.52216
 20
-91.092796
 11
836.52216
 21
-168.86459
  0
LINE
  8
0
  6
CENTER
 62
     7
 10
797.63629
 20
-129.9787
 11
875.40808
 21
-129.9787
  0
LINE
  8
0
  6
CENTER
 62
     7
 10
531.31268
 20
42.950775
 11
531.31268
 21
-21.749226
  0
LINE
  8
0
  6
CENTER
 62
     7
 10
498.96265
 20
10.600776
 11
563.66266
 21
10.600776
  0
LINE
  8
0
  6
CENTER
 62
     7
 10
843.47418
 20
-475.38675
 11
843.47418
 21
-554.78674
  0
LINE
  8
0
  6
CENTER
 62
     7
 10
803.77417
 20
-515.08673
 11
883.17419
 21
-515.08673
  0
LINE
  8
0
  6
CENTER
 62
     7
 10
679.64111
 20
-1162.0114
 11
679.64111
 21
-1257.9832
  0
LINE
  8
0
  6
CENTER
 62
     7
 10
631.65521
 20
-1209.9973
 11
727.62701
 21
-1209.9973
  0
LINE
  8
0
  6
CENTER
 62
     7
 10
729.64111
 20
-1351.4633
 11
729.64111
 21
-1463.3351
  0
LINE
  8
0
  6
CENTER
 62
     7
 10
673.7052
 20
-1407.3992
 11
785.57703
 21
-1407.3992
  0
LINE
  8
0
  6
CENTER
 62
     7
 10
747.3634
 20
-1686.9933
 11
747.3634
 21
-1817.1932
  0
LINE
  8
0
  6
CENTER
 62
     7
 10
682.26343
 20
-1752.0933
 11
812.46338
 21
-1752.0933
  0
LINE
  8
0
  6
CONTINUOUS
 62
     7
 10
786.4201
 20
-1407.3992
 11
775.57629
 21
-1374.0254
  0
LINE
  8
0
  6
CONTINUOUS
 62
     7
 10
775.57629
 20
-1374.0253
 11
747.18683
 21
-1353.3992
  0
LINE
  8
0
  6
CONTINUOUS
 62
     7
 10
712.09546
 20
-1353.3992
 11
747.18677
 21
-1353.3992
  0
LINE
  8
0
  6
CONTINUOUS
 62
     7
 10
683.70599
 20
-1374.0254
 11
712.09546
 21
-1353.3992
  0
LINE
  8
0
  6
CONTINUOUS
 62
     7
 10
672.86218
 20
-1407.3992
 11
683.70599
 21
-1374.0254
  0
LINE
  8
0
  6
CONTINUOUS
 62
     7
 10
683.70599
 20
-1440.7729
 11
672.86218
 21
-1407.3992
  0
LINE
  8
0
  6
CONTINUOUS
 62
     7
 10
712.09546
 20
-1461.3992
 11
683.70599
 21
-1440.7729
  0
LINE
  8
0
  6
CONTINUOUS
 62
     7
 10
747.18677
 20
-1461.3992
 11
712.09546
 21
-1461.3992
  0
LINE
  8
0
  6
CONTINUOUS
 62
     7
 10
775.57629
 20
-1440.7731
 11
747.18677
 21
-1461.3992
  0
LINE
  8
0
  6
CONTINUOUS
 62
     7
 10
786.42004
 20
-1407.3992
 11
775.57623
 21
-1440.7731
  0
LINE
  8
0
  6
CONTINUOUS
 62
     7
 10
317.93689
 20
-650
 11
317.93689
 21
-230
  0
LINE
  8
0
  6
CONTINUOUS
 62
     7
 10
911.93689
 20
-650
 11
317.93689
 21
-650
  0
LINE
  8
0
  6
CONTINUOUS
 62
     7
 10
911.93689
 20
-230
 11
911.93689
 21
-650
  0
LINE
  8
0
  6
CONTINUOUS
 62
     7
 10
317.93689
 20
-230
 11
911.93689
 21
-230
  0
LINE
  8
0
  6
CONTINUOUS
 62
     7
 10
895.01892
 20
-980.70734
 11
886.28363
 21
-953.82294
  0
LINE
  8
0
  6
CONTINUOUS
 62
     7
 10
886.28357
 20
-953.82294
 11
863.41431
 21
-937.20746
  0
LINE
  8
0
  6
CONTINUOUS
 62
     7
 10
835.1463
 20
-937.2074
 11
863.41431
 21
-937.2074
  0
LINE
  8
0
  6
CONTINUOUS
 62
     7
 10
812.27698
 20
-953.82294
 11
835.1463
 21
-937.2074
  0
LINE
  8
0
  6
CONTINUOUS
 62
     7
 10
803.54169
 20
-980.7074
 11
812.27698
 21
-953.82294
  0
LINE
  8
0
  6
CONTINUOUS
 62
     7
 10
812.27698
 20
-1007.5919
 11
803.54175
 21
-980.7074
  0
LINE
  8
0
  6
CONTINUOUS
 62
     7
 10
835.14624
 20
-1024.2074
 11
812.27698
 21
-1007.5919
  0
LINE
  8
0
  6
CONTINUOUS
 62
     7
 10
863.41437
 20
-1024.2074
 11
835.1463
 21
-1024.2074
  0
LINE
  8
0
  6
CONTINUOUS
 62
     7
 10
886.28363
 20
-1007.5919
 11
863.41431
 21
-1024.2074
  0
LINE
  8
0
  6
CONTINUOUS
 62
     7
 10
895.01886
 20
-980.7074
 11
886.28357
 21
-1007.5919
  0
LINE
  8
0
  6
CENTER
 62
     7
 10
849.28033
 20
-932.7215
 11
849.28033
 21
-1028.6934
  0
LINE
  8
0
  6
CENTER
 62
     7
 10
801.29443
 20
-980.7074
 11
897.26624
 21
-980.7074
  0
LINE
  8
0
  6
CONTINUOUS
 62
     7
 10
607.56793
 20
-980.70746
 11
598.83258
 21
-953.82294
  0
LINE
  8
0
  6
CONTINUOUS
 62
     7
 10
598.83258
 20
-953.82288
 11
575.96332
 21
-937.2074
  0
LINE
  8
0
  6
CONTINUOUS
 62
     7
 10
547.69531
 20
-937.20746
 11
575.96332
 21
-937.20746
  0
LINE
  8
0
  6
CONTINUOUS
 62
     7
 10
524.82599
 20
-953.82294
 11
547.69531
 21
-937.2074
  0
LINE
  8
0
  6
CONTINUOUS
 62
     7
 10
516.09064
 20
-980.70746
 11
524.82599
 21
-953.82294
  0
LINE
  8
0
  6
CONTINUOUS
 62
     7
 10
524.82599
 20
-1007.5919
 11
516.0907
 21
-980.7074
  0
LINE
  8
0
  6
CONTINUOUS
 62
     7
 10
547.69525
 20
-1024.2074
 11
524.82605
 21
-1007.5919
  0
LINE
  8
0
  6
CONTINUOUS
 62
     7
 10
575.96332
 20
-1024.2074
 11
547.69531
 21
-1024.2074
  0
LINE
  8
0
  6
CONTINUOUS
 62
     7
 10
598.83258
 20
-1007.5919
 11
575.96332
 21
-1024.2074
  0
LINE
  8
0
  6
CONTINUOUS
 62
     7
 10
607.56787
 20
-980.7074
 11
598.83258
 21
-1007.5919
  0
LINE
  8
0
  6
CENTER
 62
     7
 10
561.82935
 20
-932.72156
 11
561.82935
 21
-1028.6934
  0
LINE
  8
0
  6
CENTER
 62
     7
 10
513.84344
 20
-980.7074
 11
609.81519
 21
-980.7074
  0
LINE
  8
0
  6
CONTINUOUS
 62
     7
 10
877.85669
 20
-769.63922
 11
869.12134
 21
-742.75476
  0
LINE
  8
0
  6
CONTINUOUS
 62
     7
 10
869.12134
 20
-742.75476
 11
846.25208
 21
-726.13928
  0
LINE
  8
0
  6
CONTINUOUS
 62
     7
 10
817.98407
 20
-726.13928
 11
846.25208
 21
-726.13928
  0
LINE
  8
0
  6
CONTINUOUS
 62
     7
 10
795.11475
 20
-742.75476
 11
817.98407
 21
-726.13922
  0
LINE
  8
0
  6
CONTINUOUS
 62
     7
 10
786.37946
 20
-769.63928
 11
795.11475
 21
-742.75476
  0
LINE
  8
0
  6
CONTINUOUS
 62
     7
 10
795.11469
 20
-796.52374
 11
786.37939
 21
-769.63928
  0
LINE
  8
0
  6
CONTINUOUS
 62
     7
 10
817.98401
 20
-813.13922
 11
795.11481
 21
-796.52374
  0
LINE
  8
0
  6
CONTINUOUS
 62
     7
 10
846.25208
 20
-813.13922
 11
817.98407
 21
-813.13922
  0
LINE
  8
0
  6
CONTINUOUS
 62
     7
 10
869.1214
 20
-796.52368
 11
846.25208
 21
-813.13922
  0
LINE
  8
0
  6
CONTINUOUS
 62
     7
 10
877.85669
 20
-769.63922
 11
869.12134
 21
-796.52374
  0
LINE
  8
0
  6
CENTER
 62
     7
 10
832.1181
 20
-721.65338
 11
832.1181
 21
-817.62518
  0
LINE
  8
0
  6
CENTER
 62
     7
 10
784.13214
 20
-769.63928
 11
880.10394
 21
-769.63928
  0
LINE
  8
0
  6
CONTINUOUS
 62
     7
 10
588.58698
 20
-771.15771
 11
579.85168
 21
-744.27325
  0
LINE
  8
0
  6
CONTINUOUS
 62
     7
 10
579.85162
 20
-744.27319
 11
556.98236
 21
-727.65771
  0
LINE
  8
0
  6
CONTINUOUS
 62
     7
 10
528.71436
 20
-727.65771
 11
556.98236
 21
-727.65771
  0
LINE
  8
0
  6
CONTINUOUS
 62
     7
 10
505.84506
 20
-744.27319
 11
528.71436
 21
-727.65771
  0
LINE
  8
0
  6
CONTINUOUS
 62
     7
 10
497.10977
 20
-771.15771
 11
505.84506
 21
-744.27325
  0
LINE
  8
0
  6
CONTINUOUS
 62
     7
 10
505.84506
 20
-798.04224
 11
497.10977
 21
-771.15778
  0
LINE
  8
0
  6
CONTINUOUS
 62
     7
 10
528.71429
 20
-814.65771
 11
505.84506
 21
-798.04224
  0
LINE
  8
0
  6
CONTINUOUS
 62
     7
 10
556.98236
 20
-814.65771
 11
528.71436
 21
-814.65771
  0
LINE
  8
0
  6
CONTINUOUS
 62
     7
 10
579.85168
 20
-798.04218
 11
556.98236
 21
-814.65771
  0
LINE
  8
0
  6
CONTINUOUS
 62
     7
 10
588.58698
 20
-771.15771
 11
579.85168
 21
-798.04218
  0
LINE
  8
0
  6
CENTER
 62
     7
 10
542.84839
 20
-723.17181
 11
542.84839
 21
-819.14362
  0
LINE
  8
0
  6
CENTER
 62
     7
 10
494.86246
 20
-771.15771
 11
590.83423
 21
-771.15771
  0
LINE
  8
0
  6
CONTINUOUS
 62
     7
 10
597.17072
 20
-522.12769
 11
589.84113
 21
-499.56946
  0
LINE
  8
0
  6
CONTINUOUS
 62
     7
 10
589.84113
 20
-499.56946
 11
570.65192
 21
-485.62766
  0
LINE
  8
0
  6
CONTINUOUS
 62
     7
 10
546.9328
 20
-485.62766
 11
570.65192
 21
-485.62766
  0
LINE
  8
0
  6
CONTINUOUS
 62
     7
 10
527.74365
 20
-499.56946
 11
546.9328
 21
-485.62769
  0
LINE
  8
0
  6
CONTINUOUS
 62
     7
 10
520.414
 20
-522.12762
 11
527.74359
 21
-499.56943
  0
LINE
  8
0
  6
CONTINUOUS
 62
     7
 10
527.74359
 20
-544.68591
 11
520.414
 21
-522.12769
  0
LINE
  8
0
  6
CONTINUOUS
 62
     7
 10
546.9328
 20
-558.62769
 11
527.74359
 21
-544.68591
  0
LINE
  8
0
  6
CONTINUOUS
 62
     7
 10
570.65192
 20
-558.62769
 11
546.9328
 21
-558.62769
  0
LINE
  8
0
  6
CONTINUOUS
 62
     7
 10
589.84113
 20
-544.68591
 11
570.65198
 21
-558.62769
  0
LINE
  8
0
  6
CONTINUOUS
 62
     7
 10
597.17078
 20
-522.12769
 11
589.84119
 21
-544.68591
  0
LINE
  8
0
  6
CENTER
 62
     7
 10
558.79236
 20
-482.42767
 11
558.79236
 21
-561.8277
  0
LINE
  8
0
  6
CENTER
 62
     7
 10
519.09241
 20
-522.12769
 11
598.49237
 21
-522.12769
  0
LINE
  8
0
  6
CONTINUOUS
 62
     7
 10
870.19623
 20
-336.8736
 11
862.86658
 21
-314.31534
  0
LINE
  8
0
  6
CONTINUOUS
 62
     7
 10
862.86658
 20
-314.31537
 11
843.67743
 21
-300.3736
  0
LINE
  8
0
  6
CONTINUOUS
 62
     7
 10
819.95825
 20
-300.3736
 11
843.67743
 21
-300.3736
  0
LINE
  8
0
  6
CONTINUOUS
 62
     7
 10
800.7691
 20
-314.31537
 11
819.95831
 21
-300.3736
  0
LINE
  8
0
  6
CONTINUOUS
 62
     7
 10
793.43945
 20
-336.8736
 11
800.7691
 21
-314.31537
  0
LINE
  8
0
  6
CONTINUOUS
 62
     7
 10
800.7691
 20
-359.43185
 11
793.43945
 21
-336.87357
  0
LINE
  8
0
  6
CONTINUOUS
 62
     7
 10
819.95825
 20
-373.3736
 11
800.7691
 21
-359.43185
  0
LINE
  8
0
  6
CONTINUOUS
 62
     7
 10
843.67743
 20
-373.3736
 11
819.95831
 21
-373.3736
  0
LINE
  8
0
  6
CONTINUOUS
 62
     7
 10
862.86664
 20
-359.43185
 11
843.67743
 21
-373.3736
  0
LINE
  8
0
  6
CONTINUOUS
 62
     7
 10
870.19623
 20
-336.8736
 11
862.86658
 21
-359.43185
  0
LINE
  8
0
  6
CENTER
 62
     7
 10
831.81787
 20
-297.17361
 11
831.81787
 21
-376.57361
  0
LINE
  8
0
  6
CENTER
 62
     7
 10
792.11786
 20
-336.8736
 11
871.51782
 21
-336.8736
  0
LINE
  8
0
  6
CONTINUOUS
 62
     7
 10
601.16199
 20
-338.31729
 11
593.8324
 21
-315.75906
  0
LINE
  8
0
  6
CONTINUOUS
 62
     7
 10
593.83234
 20
-315.75903
 11
574.64319
 21
-301.81729
  0
LINE
  8
0
  6
CONTINUOUS
 62
     7
 10
550.92407
 20
-301.81729
 11
574.64319
 21
-301.81729
  0
LINE
  8
0
  6
CONTINUOUS
 62
     7
 10
531.73486
 20
-315.75906
 11
550.92407
 21
-301.81729
  0
LINE
  8
0
  6
CONTINUOUS
 62
     7
 10
524.40527
 20
-338.31729
 11
531.73492
 21
-315.75903
  0
LINE
  8
0
  6
CONTINUOUS
 62
     7
 10
531.73486
 20
-360.87552
 11
524.40527
 21
-338.31732
  0
LINE
  8
0
  6
CONTINUOUS
 62
     7
 10
550.92407
 20
-374.81726
 11
531.73486
 21
-360.87552
  0
LINE
  8
0
  6
CONTINUOUS
 62
     7
 10
574.64319
 20
-374.81729
 11
550.92407
 21
-374.81729
  0
LINE
  8
0
  6
CONTINUOUS
 62
     7
 10
593.8324
 20
-360.87555
 11
574.64319
 21
-374.81732
  0
LINE
  8
0
  6
CONTINUOUS
 62
     7
 10
601.16205
 20
-338.31729
 11
593.8324
 21
-360.87555
  0
LINE
  8
0
  6
CENTER
 62
     7
 10
562.78363
 20
-298.61728
 11
562.78363
 21
-378.0173
  0
LINE
  8
0
  6
CENTER
 62
     7
 10
523.08362
 20
-338.31729
 11
602.48364
 21
-338.31729
  0
LINE
  8
0
  6
CONTINUOUS
 62
     7
 10
589.52216
 20
-116.30965
 11
570.19122
 21
-96.978699
  0
LINE
  8
0
  6
CONTINUOUS
 62
     7
 10
570.19122
 20
-96.978699
 11
542.85315
 21
-96.978699
  0
LINE
  8
0
  6
CONTINUOUS
 62
     7
 10
523.52216
 20
-116.30965
 11
542.85309
 21
-96.978699
  0
LINE
  8
0
  6
CONTINUOUS
 62
     7
 10
523.52216
 20
-143.64775
 11
523.52216
 21
-116.30965
  0
LINE
  8
0
  6
CONTINUOUS
 62
     7
 10
542.85315
 20
-162.9787
 11
523.52216
 21
-143.64775
  0
LINE
  8
0
  6
CONTINUOUS
 62
     7
 10
570.19122
 20
-162.9787
 11
542.85315
 21
-162.9787
  0
LINE
  8
0
  6
CONTINUOUS
 62
     7
 10
589.52216
 20
-143.64777
 11
570.19122
 21
-162.97873
  0
LINE
  8
0
  6
CONTINUOUS
 62
     7
 10
589.52216
 20
-116.30965
 11
589.52216
 21
-143.64775
  0
LINE
  8
0
  6
CENTER
 62
     7
 10
556.52216
 20
-91.092796
 11
556.52216
 21
-168.86459
  0
LINE
  8
0
  6
CENTER
 62
     7
 10
517.63629
 20
-129.9787
 11
595.40808
 21
-129.9787
  0
LINE
  8
0
  6
CONTINUOUS
 62
     7
 10
879.93542
 20
15.592084
 11
860.60449
 21
34.923023
  0
LINE
  8
0
  6
CONTINUOUS
 62
     7
 10
860.60449
 20
34.923031
 11
833.26642
 21
34.923031
  0
LINE
  8
0
  6
CONTINUOUS
 62
     7
 10
813.93549
 20
15.592084
 11
833.26642
 21
34.923023
  0
LINE
  8
0
  6
CONTINUOUS
 62
     7
 10
813.93549
 20
-11.746015
 11
813.93549
 21
15.592074
  0
LINE
  8
0
  6
CONTINUOUS
 62
     7
 10
833.26636
 20
-31.076963
 11
813.93542
 21
-11.746026
  0
LINE
  8
0
  6
CONTINUOUS
 62
     7
 10
860.60449
 20
-31.076969
 11
833.26642
 21
-31.076969
  0
LINE
  8
0
  6
CONTINUOUS
 62
     7
 10
879.93549
 20
-11.746026
 11
860.60455
 21
-31.076963
  0
LINE
  8
0
  6
CONTINUOUS
 62
     7
 10
879.93549
 20
15.592074
 11
879.93549
 21
-11.746015
  0
LINE
  8
0
  6
CENTER
 62
     7
 10
846.93549
 20
40.808933
 11
846.93549
 21
-36.962864
  0
LINE
  8
0
  6
CENTER
 62
     7
 10
808.04956
 20
1.9230301
 11
885.82141
 21
1.9230301
  0
LINE
  8
0
  6
CONTINUOUS
 62
     7
 10
856.43689
 20
147.41219
 11
839.4491
 21
164.39999
  0
LINE
  8
0
  6
CONTINUOUS
 62
     7
 10
839.4491
 20
164.39999
 11
815.42468
 21
164.39999
  0
LINE
  8
0
  6
CONTINUOUS
 62
     7
 10
798.43689
 20
147.41219
 11
815.42462
 21
164.39998
  0
LINE
  8
0
  6
CONTINUOUS
 62
     7
 10
798.43689
 20
123.38779
 11
798.43689
 21
147.41219
  0
LINE
  8
0
  6
CONTINUOUS
 62
     7
 10
815.42468
 20
106.4
 11
798.43689
 21
123.3878
  0
LINE
  8
0
  6
CONTINUOUS
 62
     7
 10
839.4491
 20
106.39999
 11
815.42468
 21
106.39999
  0
LINE
  8
0
  6
CONTINUOUS
 62
     7
 10
856.43689
 20
123.38776
 11
839.4491
 21
106.39998
  0
LINE
  8
0
  6
CONTINUOUS
 62
     7
 10
856.43689
 20
147.41219
 11
856.43689
 21
123.38779
  0
LINE
  8
0
  6
CENTER
 62
     7
 10
827.43689
 20
167.75
 11
827.43689
 21
103.05
  0
LINE
  8
0
  6
CENTER
 62
     7
 10
795.08691
 20
135.39999
 11
859.78687
 21
135.39999
  0
LINE
  8
0
  6
CONTINUOUS
 62
     7
 10
317.93689
 20
-1530
 11
317.93689
 21
-1110
  0
LINE
  8
0
  6
CONTINUOUS
 62
     7
 10
911.93689
 20
-1530
 11
317.93689
 21
-1530
  0
LINE
  8
0
  6
CONTINUOUS
 62
     7
 10
317.93689
 20
-1110
 11
911.93689
 21
-1110
  0
LINE
  8
0
  6
CONTINUOUS
 62
     7
 10
911.93689
 20
-1110
 11
911.93689
 21
-1530
  0
ARC
  8
0
  6
CONTINUOUS
 62
     7
 10
94.99852
 20
-282.00253
 40
5
 50
270
 51
294.58387
  0
ARC
  8
0
  6
CONTINUOUS
 62
     7
 10
94.99852
 20
-352.00253
 40
5
 50
65.41613
 51
90.000003
  0
ARC
  8
0
  6
CONTINUOUS
 62
     7
 10
30.658798
 20
-282.00253
 40
5
 50
245.41613
 51
270
  0
ARC
  8
0
  6
CONTINUOUS
 62
     7
 10
30.658798
 20
-352.00253
 40
5
 50
90.000003
 51
114.58387
  0
ARC
  8
0
  6
CONTINUOUS
 62
     7
 10
85.328659
 20
-353.00253
 40
6
 50
90.000003
 51
180.00001
  0
ARC
  8
0
  6
CONTINUOUS
 62
     7
 10
40.328659
 20
-353.00253
 40
6
 50
0
 51
90.000003
  0
ARC
  8
0
  6
CONTINUOUS
 62
     7
 10
-166.68391
 20
-474.49884
 40
5
 50
270
 51
294.58387
  0
ARC
  8
0
  6
CONTINUOUS
 62
     7
 10
-166.68391
 20
-544.49884
 40
5
 50
65.41613
 51
90.000003
  0
ARC
  8
0
  6
CONTINUOUS
 62
     7
 10
-237.02364
 20
-474.49884
 40
5
 50
245.41594
 51
270
  0
ARC
  8
0
  6
CONTINUOUS
 62
     7
 10
-237.02364
 20
-544.49884
 40
5
 50
90.000003
 51
114.58406
  0
ARC
  8
0
  6
CONTINUOUS
 62
     7
 10
-228.35378
 20
-545.49884
 40
6
 50
0
 51
90.000003
  0
ARC
  8
0
  6
CONTINUOUS
 62
     7
 10
-175.35378
 20
-545.49884
 40
6
 50
90.000003
 51
180.00001
  0
ARC
  8
0
  6
CONTINUOUS
 62
     7
 10
123.0528
 20
-479.01047
 40
5
 50
270
 51
297.77661
  0
ARC
  8
0
  6
CONTINUOUS
 62
     7
 10
123.0528
 20
-549.0105
 40
5
 50
62.223385
 51
90.000003
  0
ARC
  8
0
  6
CONTINUOUS
 62
     7
 10
44.713081
 20
-479.01047
 40
5
 50
242.22344
 51
270
  0
ARC
  8
0
  6
CONTINUOUS
 62
     7
 10
44.713081
 20
-549.0105
 40
5
 50
90.000003
 51
117.77656
  0
ARC
  8
0
  6
CONTINUOUS
 62
     7
 10
114.88294
 20
-550.0105
 40
6
 50
90.000003
 51
180.00001
  0
ARC
  8
0
  6
CONTINUOUS
 62
     7
 10
52.882942
 20
-550.0105
 40
6
 50
0
 51
90.000003
  0
ARC
  8
0
  6
CONTINUOUS
 62
     7
 10
-182.23318
 20
-731.79041
 40
5
 50
270
 51
276.66274
  0
ARC
  8
0
  6
CONTINUOUS
 62
     7
 10
-182.23318
 20
-814.79041
 40
5
 50
83.337262
 51
90.000003
  0
ARC
  8
0
  6
CONTINUOUS
 62
     7
 10
-245.57297
 20
-814.79041
 40
5
 50
90.000003
 51
96.662784
  0
ARC
  8
0
  6
CONTINUOUS
 62
     7
 10
-245.57297
 20
-731.79041
 40
5
 50
263.33722
 51
270
  0
ARC
  8
0
  6
CONTINUOUS
 62
     7
 10
-233.40311
 20
-815.79041
 40
6
 50
0
 51
90.000003
  0
ARC
  8
0
  6
CONTINUOUS
 62
     7
 10
-194.40311
 20
-815.79041
 40
6
 50
90.000003
 51
180.00001
  0
ARC
  8
0
  6
CONTINUOUS
 62
     7
 10
117.90039
 20
-731.79041
 40
5
 50
270
 51
279.55695
  0
ARC
  8
0
  6
CONTINUOUS
 62
     7
 10
117.90039
 20
-814.79041
 40
5
 50
74.572688
 51
80.443052
  0
ARC
  8
0
  6
CONTINUOUS
 62
     7
 10
48.560608
 20
-814.79041
 40
5
 50
90.000003
 51
99.556769
  0
ARC
  8
0
  6
CONTINUOUS
 62
     7
 10
48.560608
 20
-731.79041
 40
5
 50
260.44323
 51
270
  0
ARC
  8
0
  6
CONTINUOUS
 62
     7
 10
105.73047
 20
-815.79041
 40
6
 50
90.000003
 51
180.00001
  0
ARC
  8
0
  6
CONTINUOUS
 62
     7
 10
60.730469
 20
-815.79041
 40
6
 50
0
 51
90.000003
  0
ARC
  8
0
  6
CONTINUOUS
 62
     7
 10
-172.83322
 20
-926.59039
 40
5
 50
270
 51
279.55677
  0
ARC
  8
0
  6
CONTINUOUS
 62
     7
 10
-172.83322
 20
-1009.5904
 40
5
 50
80.443229
 51
90.000003
  0
ARC
  8
0
  6
CONTINUOUS
 62
     7
 10
-248.17294
 20
-1009.5904
 40
5
 50
90.000003
 51
99.556769
  0
ARC
  8
0
  6
CONTINUOUS
 62
     7
 10
-248.17294
 20
-926.59039
 40
5
 50
260.44323
 51
270
  0
ARC
  8
0
  6
CONTINUOUS
 62
     7
 10
-237.00308
 20
-1010.5904
 40
6
 50
0
 51
90.000003
  0
ARC
  8
0
  6
CONTINUOUS
 62
     7
 10
-184.00308
 20
-1010.5904
 40
6
 50
90.000003
 51
180.00001
  0
ARC
  8
0
  6
CONTINUOUS
 62
     7
 10
127.25623
 20
-928.2074
 40
5
 50
270
 51
282.47569
  0
ARC
  8
0
  6
CONTINUOUS
 62
     7
 10
127.25623
 20
-1011.2074
 40
5
 50
77.524314
 51
90.000003
  0
ARC
  8
0
  6
CONTINUOUS
 62
     7
 10
43.916504
 20
-928.2074
 40
5
 50
257.52434
 51
270
  0
ARC
  8
0
  6
CONTINUOUS
 62
     7
 10
43.916504
 20
-1011.2074
 40
5
 50
90.000003
 51
102.47566
  0
ARC
  8
0
  6
CONTINUOUS
 62
     7
 10
54.586365
 20
-1012.2074
 40
6
 50
0
 51
90.000003
  0
ARC
  8
0
  6
CONTINUOUS
 62
     7
 10
116.58636
 20
-1012.2074
 40
6
 50
90.000003
 51
180.00001
  0
ARC
  8
0
  6
CONTINUOUS
 62
     7
 10
-36.89352
 20
-1253.9082
 40
6
 50
90.000003
 51
180.00001
  0
ARC
  8
0
  6
CONTINUOUS
 62
     7
 10
-104.89352
 20
-1253.9082
 40
6
 50
0
 51
90.000003
  0
ARC
  8
0
  6
CONTINUOUS
 62
     7
 10
-20.457458
 20
-1349.6016
 40
5
 50
270
 51
304.6291
  0
ARC
  8
0
  6
CONTINUOUS
 62
     7
 10
-20.457458
 20
-1450.1016
 40
5
 50
55.370902
 51
90.000003
  0
ARC
  8
0
  6
CONTINUOUS
 62
     7
 10
-146.77481
 20
-1450.1016
 40
5
 50
90.000003
 51
124.62952
  0
ARC
  8
0
  6
CONTINUOUS
 62
     7
 10
-146.77481
 20
-1349.6016
 40
5
 50
235.37048
 51
270
  0
ARC
  8
0
  6
CONTINUOUS
 62
     7
 10
-126.11612
 20
-1453.1016
 40
8
 50
0
 51
90.000003
  0
ARC
  8
0
  6
CONTINUOUS
 62
     7
 10
-41.11615
 20
-1453.1016
 40
8
 50
90.000003
 51
180.00001
  0
ARC
  8
0
  6
CONTINUOUS
 62
     7
 10
-13.72144
 20
-1702.3944
 40
5
 50
270
 51
304.62735
  0
ARC
  8
0
  6
CONTINUOUS
 62
     7
 10
-13.72144
 20
-1816.8944
 40
5
 50
55.372654
 51
90.000003
  0
ARC
  8
0
  6
CONTINUOUS
 62
     7
 10
-150.03888
 20
-1702.3944
 40
5
 50
235.36995
 51
270
  0
ARC
  8
0
  6
CONTINUOUS
 62
     7
 10
-150.03888
 20
-1816.8944
 40
5
 50
90.000003
 51
124.63005
  0
ARC
  8
0
  6
CONTINUOUS
 62
     7
 10
-126.38026
 20
-1821.8944
 40
10
 50
0
 51
90.000003
  0
ARC
  8
0
  6
CONTINUOUS
 62
     7
 10
-37.380253
 20
-1821.8944
 40
10
 50
90.000003
 51
180.00001
  0
ARC
  8
0
  6
CONTINUOUS
 62
     7
 10
-142.3941
 20
164.88797
 40
5
 50
270
 51
310.01812
  0
ARC
  8
0
  6
CONTINUOUS
 62
     7
 10
-142.3941
 20
118.38797
 40
5
 50
49.981883
 51
90.000003
  0
ARC
  8
0
  6
CONTINUOUS
 62
     7
 10
-148.42896
 20
119.38797
 40
4
 50
90.000003
 51
180.00001
  0
ARC
  8
0
  6
CONTINUOUS
 62
     7
 10
-183.42896
 20
119.38797
 40
4
 50
0
 51
90.000003
  0
ARC
  8
0
  6
CONTINUOUS
 62
     7
 10
-189.46382
 20
164.88797
 40
5
 50
229.98212
 51
270
  0
ARC
  8
0
  6
CONTINUOUS
 62
     7
 10
-189.46382
 20
118.38797
 40
5
 50
90.000003
 51
130.01788
  0
ARC
  8
0
  6
CONTINUOUS
 62
     7
 10
72.188408
 20
106.60397
 40
5
 50
90.000003
 51
180.00001
  0
ARC
  8
0
  6
CONTINUOUS
 62
     7
 10
27.653547
 20
106.60397
 40
5
 50
90.000003
 51
98.22312
  0
ARC
  8
0
  6
CONTINUOUS
 62
     7
 10
35.188404
 20
106.60397
 40
5
 50
0
 51
90.000003
  0
ARC
  8
0
  6
CONTINUOUS
 62
     7
 10
27.653547
 20
161.10397
 40
5
 50
261.77688
 51
270
  0
ARC
  8
0
  6
CONTINUOUS
 62
     7
 10
-150.45232
 20
42.662846
 40
5
 50
270
 51
313.8703
  0
ARC
  8
0
  6
CONTINUOUS
 62
     7
 10
-150.45232
 20
-11.837154
 40
5
 50
46.129697
 51
90.000003
  0
ARC
  8
0
  6
CONTINUOUS
 62
     7
 10
-157.98717
 20
-11.837154
 40
5
 50
90.000003
 51
180.00001
  0
ARC
  8
0
  6
CONTINUOUS
 62
     7
 10
-208.52202
 20
-11.837154
 40
5
 50
90.000003
 51
133.8703
  0
ARC
  8
0
  6
CONTINUOUS
 62
     7
 10
-208.52202
 20
42.662846
 40
5
 50
226.1297
 51
270
  0
ARC
  8
0
  6
CONTINUOUS
 62
     7
 10
-200.98717
 20
-11.837154
 40
5
 50
0
 51
90.000003
  0
ARC
  8
0
  6
CONTINUOUS
 62
     7
 10
125.89616
 20
45.40897
 40
5
 50
270
 51
304.47349
  0
ARC
  8
0
  6
CONTINUOUS
 62
     7
 10
125.89616
 20
-17.591034
 40
5
 50
55.526515
 51
90.000003
  0
ARC
  8
0
  6
CONTINUOUS
 62
     7
 10
116.72628
 20
-18.591034
 40
6
 50
90.000003
 51
180.00001
  0
ARC
  8
0
  6
CONTINUOUS
 62
     7
 10
77.726273
 20
-18.591034
 40
6
 50
0
 51
90.000003
  0
ARC
  8
0
  6
CONTINUOUS
 62
     7
 10
68.556396
 20
45.40897
 40
5
 50
235.52651
 51
270
  0
ARC
  8
0
  6
CONTINUOUS
 62
     7
 10
68.556396
 20
-17.591034
 40
5
 50
90.000003
 51
124.47349
  0
ARC
  8
0
  6
CONTINUOUS
 62
     7
 10
-148.58824
 20
-89.940002
 40
5
 50
270
 51
308.02664
  0
ARC
  8
0
  6
CONTINUOUS
 62
     7
 10
-148.58824
 20
-152.94
 40
5
 50
51.973358
 51
90.000003
  0
ARC
  8
0
  6
CONTINUOUS
 62
     7
 10
-211.92798
 20
-89.940002
 40
5
 50
231.97358
 51
270
  0
ARC
  8
0
  6
CONTINUOUS
 62
     7
 10
-211.92798
 20
-152.94
 40
5
 50
90.000003
 51
128.02642
  0
ARC
  8
0
  6
CONTINUOUS
 62
     7
 10
-157.7581
 20
-153.94
 40
6
 50
90.000003
 51
180.00001
  0
ARC
  8
0
  6
CONTINUOUS
 62
     7
 10
-202.7581
 20
-153.94
 40
6
 50
0
 51
90.000003
  0
ARC
  8
0
  6
CONTINUOUS
 62
     7
 10
102.34573
 20
-88.436134
 40
5
 50
270
 51
308.02647
  0
ARC
  8
0
  6
CONTINUOUS
 62
     7
 10
102.34573
 20
-151.43613
 40
5
 50
51.973525
 51
90.000003
  0
ARC
  8
0
  6
CONTINUOUS
 62
     7
 10
33.005989
 20
-88.436134
 40
5
 50
231.97358
 51
270
  0
ARC
  8
0
  6
CONTINUOUS
 62
     7
 10
33.005989
 20
-151.43613
 40
5
 50
90.000003
 51
128.02642
  0
ARC
  8
0
  6
CONTINUOUS
 62
     7
 10
94.175865
 20
-152.43613
 40
6
 50
90.000003
 51
180.00001
  0
ARC
  8
0
  6
CONTINUOUS
 62
     7
 10
41.175865
 20
-152.43613
 40
6
 50
0
 51
90.000003
  0
ARC
  8
0
  6
CONTINUOUS
 62
     7
 10
-172.6839
 20
-283.50641
 40
5
 50
270
 51
297.77657
  0
ARC
  8
0
  6
CONTINUOUS
 62
     7
 10
-172.6839
 20
-353.50641
 40
5
 50
62.223433
 51
90.000003
  0
ARC
  8
0
  6
CONTINUOUS
 62
     7
 10
-231.02365
 20
-353.50641
 40
5
 50
90.000003
 51
117.77656
  0
ARC
  8
0
  6
CONTINUOUS
 62
     7
 10
-231.02365
 20
-283.50641
 40
5
 50
242.22344
 51
270
  0
ARC
  8
0
  6
CONTINUOUS
 62
     7
 10
-182.35378
 20
-354.50641
 40
6
 50
90.000003
 51
180.00001
  0
ARC
  8
0
  6
CONTINUOUS
 62
     7
 10
-221.35378
 20
-354.50641
 40
6
 50
0
 51
90.000003
  0
ARC
  8
0
  6
CONTINUOUS
 62
     7
 10
79.723267
 20
106.60397
 40
5
 50
81.776885
 51
89.999996
  0
ARC
  8
0
  6
CONTINUOUS
 62
     7
 10
79.723267
 20
161.10397
 40
5
 50
270
 51
278.22311
  0
CIRCLE
  8
0
  6
CONTINUOUS
 62
     7
 10
-65.92894
 20
141.63797
 40
14.25
  0
CIRCLE
  8
0
  6
CONTINUOUS
 62
     7
 10
-59.487183
 20
15.412845
 40
17.75
  0
CIRCLE
  8
0
  6
CONTINUOUS
 62
     7
 10
217.22629
 20
13.908968
 40
22
  0
CIRCLE
  8
0
  6
CONTINUOUS
 62
     7
 10
69.106483
 20
-1211.4082
 40
31
  0
CIRCLE
  8
0
  6
CONTINUOUS
 62
     7
 10
116.38385
 20
-1399.8516
 40
39.25
  0
CIRCLE
  8
0
  6
CONTINUOUS
 62
     7
 10
118.11974
 20
-1759.6444
 40
45.75
  0
CIRCLE
  8
0
  6
CONTINUOUS
 62
     7
 10
163.6884
 20
133.85397
 40
17.75
  0
CIRCLE
  8
0
  6
CONTINUOUS
 62
     7
 10
-60.258106
 20
-121.44
 40
22
  0
CIRCLE
  8
0
  6
CONTINUOUS
 62
     7
 10
197.67587
 20
-119.93613
 40
22
  0
CIRCLE
  8
0
  6
CONTINUOUS
 62
     7
 10
223.88295
 20
-514.0105
 40
25
  0
CIRCLE
  8
0
  6
CONTINUOUS
 62
     7
 10
-61.853779
 20
-318.50641
 40
25
  0
CIRCLE
  8
0
  6
CONTINUOUS
 62
     7
 10
202.82866
 20
-317.00253
 40
25
  0
CIRCLE
  8
0
  6
CONTINUOUS
 62
     7
 10
-61.853779
 20
-509.49884
 40
25
  0
CIRCLE
  8
0
  6
CONTINUOUS
 62
     7
 10
-73.903137
 20
-773.29041
 40
31
  0
CIRCLE
  8
0
  6
CONTINUOUS
 62
     7
 10
223.23047
 20
-773.29041
 40
31
  0
CIRCLE
  8
0
  6
CONTINUOUS
 62
     7
 10
-70.503113
 20
-968.09039
 40
31
  0
CIRCLE
  8
0
  6
CONTINUOUS
 62
     7
 10
235.58636
 20
-969.7074
 40
31
  0
ARC
  8
0
  6
CONTINUOUS
 62
     7
 10
733.98773
 20
-301.8736
 40
5
 50
270
 51
329.99999
  0
ARC
  8
0
  6
CONTINUOUS
 62
     7
 10
733.98773
 20
-371.87363
 40
5
 50
30.000001
 51
90.000003
  0
ARC
  8
0
  6
CONTINUOUS
 62
     7
 10
669.64795
 20
-301.8736
 40
5
 50
210
 51
270
  0
ARC
  8
0
  6
CONTINUOUS
 62
     7
 10
669.64795
 20
-371.87363
 40
5
 50
90.000003
 51
150
  0
ARC
  8
0
  6
CONTINUOUS
 62
     7
 10
724.31787
 20
-372.87363
 40
6
 50
90.000003
 51
180.00001
  0
ARC
  8
0
  6
CONTINUOUS
 62
     7
 10
679.31787
 20
-372.87363
 40
6
 50
0
 51
90.000003
  0
ARC
  8
0
  6
CONTINUOUS
 62
     7
 10
453.96225
 20
-487.12766
 40
5
 50
270
 51
330
  0
ARC
  8
0
  6
CONTINUOUS
 62
     7
 10
453.96225
 20
-557.12769
 40
5
 50
30.000001
 51
90.000003
  0
ARC
  8
0
  6
CONTINUOUS
 62
     7
 10
383.62253
 20
-487.12766
 40
5
 50
210
 51
270
  0
ARC
  8
0
  6
CONTINUOUS
 62
     7
 10
383.62253
 20
-557.12769
 40
5
 50
90.000003
 51
150
  0
ARC
  8
0
  6
CONTINUOUS
 62
     7
 10
392.29239
 20
-558.12769
 40
6
 50
0
 51
90.000003
  0
ARC
  8
0
  6
CONTINUOUS
 62
     7
 10
445.29239
 20
-558.12769
 40
6
 50
90.000003
 51
180.00001
  0
ARC
  8
0
  6
CONTINUOUS
 62
     7
 10
742.64404
 20
-480.08676
 40
5
 50
270
 51
330
  0
ARC
  8
0
  6
CONTINUOUS
 62
     7
 10
742.64404
 20
-550.08673
 40
5
 50
30.000001
 51
90.000003
  0
ARC
  8
0
  6
CONTINUOUS
 62
     7
 10
664.30432
 20
-480.08676
 40
5
 50
210
 51
270
  0
ARC
  8
0
  6
CONTINUOUS
 62
     7
 10
664.30432
 20
-550.08673
 40
5
 50
90.000003
 51
150
  0
ARC
  8
0
  6
CONTINUOUS
 62
     7
 10
734.47418
 20
-551.08673
 40
6
 50
90.000003
 51
180.00001
  0
ARC
  8
0
  6
CONTINUOUS
 62
     7
 10
672.47418
 20
-551.08673
 40
6
 50
0
 51
90.000003
  0
ARC
  8
0
  6
CONTINUOUS
 62
     7
 10
434.51831
 20
-729.65771
 40
5
 50
270
 51
330
  0
ARC
  8
0
  6
CONTINUOUS
 62
     7
 10
434.51831
 20
-812.65771
 40
5
 50
30.000001
 51
90.000003
  0
ARC
  8
0
  6
CONTINUOUS
 62
     7
 10
371.17853
 20
-812.65771
 40
5
 50
90.000003
 51
150
  0
ARC
  8
0
  6
CONTINUOUS
 62
     7
 10
371.17853
 20
-729.65771
 40
5
 50
210
 51
270
  0
ARC
  8
0
  6
CONTINUOUS
 62
     7
 10
383.34839
 20
-813.65771
 40
6
 50
0
 51
90.000003
  0
ARC
  8
0
  6
CONTINUOUS
 62
     7
 10
422.34839
 20
-813.65771
 40
6
 50
90.000003
 51
180.00001
  0
ARC
  8
0
  6
CONTINUOUS
 62
     7
 10
726.78796
 20
-728.13928
 40
5
 50
270
 51
330
  0
ARC
  8
0
  6
CONTINUOUS
 62
     7
 10
726.78796
 20
-811.13928
 40
5
 50
30.000001
 51
90.000003
  0
ARC
  8
0
  6
CONTINUOUS
 62
     7
 10
657.44818
 20
-811.13928
 40
5
 50
90.000003
 51
150
  0
ARC
  8
0
  6
CONTINUOUS
 62
     7
 10
657.44818
 20
-728.13928
 40
5
 50
210
 51
270
  0
ARC
  8
0
  6
CONTINUOUS
 62
     7
 10
714.61804
 20
-812.13928
 40
6
 50
90.000003
 51
180.00001
  0
ARC
  8
0
  6
CONTINUOUS
 62
     7
 10
669.61804
 20
-812.13928
 40
6
 50
0
 51
90.000003
  0
ARC
  8
0
  6
CONTINUOUS
 62
     7
 10
459.49918
 20
-939.20746
 40
5
 50
270
 51
330
  0
ARC
  8
0
  6
CONTINUOUS
 62
     7
 10
459.49918
 20
-1022.2074
 40
5
 50
30.000001
 51
90.000003
  0
ARC
  8
0
  6
CONTINUOUS
 62
     7
 10
384.15945
 20
-1022.2074
 40
5
 50
90.000003
 51
150
  0
ARC
  8
0
  6
CONTINUOUS
 62
     7
 10
384.15945
 20
-939.20746
 40
5
 50
210
 51
270
  0
ARC
  8
0
  6
CONTINUOUS
 62
     7
 10
395.32932
 20
-1023.2074
 40
6
 50
0
 51
90.000003
  0
ARC
  8
0
  6
CONTINUOUS
 62
     7
 10
448.32932
 20
-1023.2074
 40
6
 50
90.000003
 51
180.00001
  0
ARC
  8
0
  6
CONTINUOUS
 62
     7
 10
750.9502
 20
-939.2074
 40
5
 50
270
 51
330
  0
ARC
  8
0
  6
CONTINUOUS
 62
     7
 10
750.9502
 20
-1022.2075
 40
5
 50
30.000001
 51
90.000003
  0
ARC
  8
0
  6
CONTINUOUS
 62
     7
 10
667.61047
 20
-939.2074
 40
5
 50
210
 51
270
  0
ARC
  8
0
  6
CONTINUOUS
 62
     7
 10
667.61047
 20
-1022.2075
 40
5
 50
90.000003
 51
150
  0
ARC
  8
0
  6
CONTINUOUS
 62
     7
 10
678.28033
 20
-1023.2075
 40
6
 50
0
 51
90.000003
  0
ARC
  8
0
  6
CONTINUOUS
 62
     7
 10
740.28033
 20
-1023.2075
 40
6
 50
90.000003
 51
180.00001
  0
ARC
  8
0
  6
CONTINUOUS
 62
     7
 10
574.31091
 20
-1168.4973
 40
5
 50
270
 51
329.99999
  0
ARC
  8
0
  6
CONTINUOUS
 62
     7
 10
574.31091
 20
-1251.4973
 40
5
 50
30.000001
 51
90.000003
  0
ARC
  8
0
  6
CONTINUOUS
 62
     7
 10
484.97119
 20
-1168.4973
 40
5
 50
210
 51
270
  0
ARC
  8
0
  6
CONTINUOUS
 62
     7
 10
484.97119
 20
-1251.4973
 40
5
 50
90.000003
 51
150
  0
ARC
  8
0
  6
CONTINUOUS
 62
     7
 10
563.64111
 20
-1252.4973
 40
6
 50
90.000003
 51
180.00001
  0
ARC
  8
0
  6
CONTINUOUS
 62
     7
 10
495.64111
 20
-1252.4973
 40
6
 50
0
 51
90.000003
  0
ARC
  8
0
  6
CONTINUOUS
 62
     7
 10
592.7998
 20
-1357.1492
 40
5
 50
270
 51
345.5225
  0
ARC
  8
0
  6
CONTINUOUS
 62
     7
 10
592.7998
 20
-1457.6492
 40
5
 50
14.477511
 51
90.000003
  0
ARC
  8
0
  6
CONTINUOUS
 62
     7
 10
466.48242
 20
-1457.6492
 40
5
 50
90.000003
 51
165.52249
  0
ARC
  8
0
  6
CONTINUOUS
 62
     7
 10
466.48242
 20
-1357.1492
 40
5
 50
194.47751
 51
270
  0
ARC
  8
0
  6
CONTINUOUS
 62
     7
 10
487.14111
 20
-1460.6492
 40
8
 50
0
 51
90.000003
  0
ARC
  8
0
  6
CONTINUOUS
 62
     7
 10
572.14111
 20
-1460.6492
 40
8
 50
90.000003
 51
180.00001
  0
ARC
  8
0
  6
CONTINUOUS
 62
     7
 10
595.52222
 20
-1694.8433
 40
5
 50
270
 51
345.5225
  0
ARC
  8
0
  6
CONTINUOUS
 62
     7
 10
595.52222
 20
-1809.3433
 40
5
 50
14.477511
 51
90.000003
  0
ARC
  8
0
  6
CONTINUOUS
 62
     7
 10
459.20471
 20
-1694.8433
 40
5
 50
194.47751
 51
270
  0
ARC
  8
0
  6
CONTINUOUS
 62
     7
 10
459.20471
 20
-1809.3433
 40
5
 50
90.000003
 51
165.52249
  0
ARC
  8
0
  6
CONTINUOUS
 62
     7
 10
482.8634
 20
-1814.3433
 40
10
 50
0
 51
90.000003
  0
ARC
  8
0
  6
CONTINUOUS
 62
     7
 10
571.8634
 20
-1814.3433
 40
10
 50
90.000003
 51
180.00001
  0
ARC
  8
0
  6
CONTINUOUS
 62
     7
 10
466.39673
 20
158.64999
 40
5
 50
270
 51
333.25632
  0
ARC
  8
0
  6
CONTINUOUS
 62
     7
 10
466.39673
 20
112.14999
 40
5
 50
26.743684
 51
90.000003
  0
ARC
  8
0
  6
CONTINUOUS
 62
     7
 10
460.36188
 20
113.14999
 40
4
 50
90.000003
 51
180.00001
  0
ARC
  8
0
  6
CONTINUOUS
 62
     7
 10
425.36188
 20
113.14999
 40
4
 50
0
 51
90.000003
  0
ARC
  8
0
  6
CONTINUOUS
 62
     7
 10
419.32703
 20
158.64999
 40
5
 50
206.74368
 51
270
  0
ARC
  8
0
  6
CONTINUOUS
 62
     7
 10
419.32703
 20
112.14999
 40
5
 50
90.000003
 51
153.25632
  0
ARC
  8
0
  6
CONTINUOUS
 62
     7
 10
733.47174
 20
162.64999
 40
5
 50
270
 51
333.25632
  0
ARC
  8
0
  6
CONTINUOUS
 62
     7
 10
733.47174
 20
108.14999
 40
5
 50
26.743684
 51
90.000003
  0
ARC
  8
0
  6
CONTINUOUS
 62
     7
 10
725.93689
 20
108.14999
 40
5
 50
90.000003
 51
180.00001
  0
ARC
  8
0
  6
CONTINUOUS
 62
     7
 10
681.40204
 20
108.14999
 40
5
 50
90.000003
 51
153.25632
  0
ARC
  8
0
  6
CONTINUOUS
 62
     7
 10
688.93689
 20
108.14999
 40
5
 50
0
 51
90.000003
  0
ARC
  8
0
  6
CONTINUOUS
 62
     7
 10
681.40204
 20
162.64999
 40
5
 50
206.74368
 51
270
  0
ARC
  8
0
  6
CONTINUOUS
 62
     7
 10
440.34753
 20
37.850777
 40
5
 50
270
 51
333.25632
  0
ARC
  8
0
  6
CONTINUOUS
 62
     7
 10
440.34753
 20
-16.649225
 40
5
 50
26.743684
 51
90.000003
  0
ARC
  8
0
  6
CONTINUOUS
 62
     7
 10
432.81265
 20
-16.649225
 40
5
 50
90.000003
 51
180.00001
  0
ARC
  8
0
  6
CONTINUOUS
 62
     7
 10
382.2778
 20
-16.649225
 40
5
 50
90.000003
 51
153.25632
  0
ARC
  8
0
  6
CONTINUOUS
 62
     7
 10
382.2778
 20
37.850777
 40
5
 50
206.74368
 51
270
  0
ARC
  8
0
  6
CONTINUOUS
 62
     7
 10
389.81265
 20
-16.649225
 40
5
 50
0
 51
90.000003
  0
ARC
  8
0
  6
CONTINUOUS
 62
     7
 10
735.60535
 20
33.423031
 40
5
 50
270
 51
329.99999
  0
ARC
  8
0
  6
CONTINUOUS
 62
     7
 10
735.60535
 20
-29.576969
 40
5
 50
30.000001
 51
90.000003
  0
ARC
  8
0
  6
CONTINUOUS
 62
     7
 10
726.43549
 20
-30.576969
 40
6
 50
90.000003
 51
180.00001
  0
ARC
  8
0
  6
CONTINUOUS
 62
     7
 10
687.43549
 20
-30.576969
 40
6
 50
0
 51
90.000003
  0
ARC
  8
0
  6
CONTINUOUS
 62
     7
 10
678.26563
 20
33.423031
 40
5
 50
210
 51
270
  0
ARC
  8
0
  6
CONTINUOUS
 62
     7
 10
678.26563
 20
-29.576969
 40
5
 50
90.000003
 51
150
  0
ARC
  8
0
  6
CONTINUOUS
 62
     7
 10
448.19202
 20
-98.478699
 40
5
 50
270
 51
330
  0
ARC
  8
0
  6
CONTINUOUS
 62
     7
 10
448.19202
 20
-161.4787
 40
5
 50
30.000001
 51
90.000003
  0
ARC
  8
0
  6
CONTINUOUS
 62
     7
 10
384.85229
 20
-98.478699
 40
5
 50
210
 51
270
  0
ARC
  8
0
  6
CONTINUOUS
 62
     7
 10
384.85229
 20
-161.4787
 40
5
 50
90.000003
 51
150
  0
ARC
  8
0
  6
CONTINUOUS
 62
     7
 10
439.02216
 20
-162.4787
 40
6
 50
90.000003
 51
180.00001
  0
ARC
  8
0
  6
CONTINUOUS
 62
     7
 10
394.02216
 20
-162.4787
 40
6
 50
0
 51
90.000003
  0
ARC
  8
0
  6
CONTINUOUS
 62
     7
 10
731.19202
 20
-98.478699
 40
5
 50
270
 51
329.99999
  0
ARC
  8
0
  6
CONTINUOUS
 62
     7
 10
731.19202
 20
-161.4787
 40
5
 50
30.000001
 51
90.000003
  0
ARC
  8
0
  6
CONTINUOUS
 62
     7
 10
661.85229
 20
-98.478699
 40
5
 50
210
 51
270
  0
ARC
  8
0
  6
CONTINUOUS
 62
     7
 10
661.85229
 20
-161.4787
 40
5
 50
90.000003
 51
150
  0
ARC
  8
0
  6
CONTINUOUS
 62
     7
 10
723.02216
 20
-162.4787
 40
6
 50
90.000003
 51
180.00001
  0
ARC
  8
0
  6
CONTINUOUS
 62
     7
 10
670.02216
 20
-162.4787
 40
6
 50
0
 51
90.000003
  0
ARC
  8
0
  6
CONTINUOUS
 62
     7
 10
451.95349
 20
-303.31729
 40
5
 50
270
 51
329.99999
  0
ARC
  8
0
  6
CONTINUOUS
 62
     7
 10
451.95349
 20
-373.31729
 40
5
 50
30.000001
 51
90.000003
  0
ARC
  8
0
  6
CONTINUOUS
 62
     7
 10
393.61374
 20
-373.31729
 40
5
 50
90.000003
 51
150
  0
ARC
  8
0
  6
CONTINUOUS
 62
     7
 10
393.61374
 20
-303.31729
 40
5
 50
210
 51
270
  0
ARC
  8
0
  6
CONTINUOUS
 62
     7
 10
442.28363
 20
-374.31729
 40
6
 50
90.000003
 51
180.00001
  0
ARC
  8
0
  6
CONTINUOUS
 62
     7
 10
403.28363
 20
-374.31729
 40
6
 50
0
 51
90.000003
  0
CIRCLE
  8
0
  6
CONTINUOUS
 62
     7
 10
729.64111
 20
-1407.3992
 40
40.400002
  0
CIRCLE
  8
0
  6
CONTINUOUS
 62
     7
 10
729.64111
 20
-1407.3992
 40
40.935898
  0
CIRCLE
  8
0
  6
CONTINUOUS
 62
     7
 10
729.64111
 20
-1407.3992
 40
38.650002
  0
CIRCLE
  8
0
  6
CONTINUOUS
 62
     7
 10
747.3634
 20
-1752.0933
 40
46.849998
  0
CIRCLE
  8
0
  6
CONTINUOUS
 62
     7
 10
747.3634
 20
-1752.0933
 40
47.385899
  0
CIRCLE
  8
0
  6
CONTINUOUS
 62
     7
 10
747.3634
 20
-1752.0933
 40
45.099998
  0
CIRCLE
  8
0
  6
CONTINUOUS
 62
     7
 10
562.86188
 20
135.39999
 40
16.035898
  0
CIRCLE
  8
0
  6
CONTINUOUS
 62
     7
 10
562.86188
 20
135.39999
 40
13.95
  0
CIRCLE
  8
0
  6
CONTINUOUS
 62
     7
 10
562.86188
 20
135.39999
 40
15.5
  0
CIRCLE
  8
0
  6
CONTINUOUS
 62
     7
 10
531.31268
 20
10.600776
 40
18.9
  0
CIRCLE
  8
0
  6
CONTINUOUS
 62
     7
 10
531.31268
 20
10.600776
 40
19.435898
  0
CIRCLE
  8
0
  6
CONTINUOUS
 62
     7
 10
531.31268
 20
10.600776
 40
17.35
  0
CIRCLE
  8
0
  6
CONTINUOUS
 62
     7
 10
836.52216
 20
-129.9787
 40
23.35
  0
CIRCLE
  8
0
  6
CONTINUOUS
 62
     7
 10
836.52216
 20
-129.9787
 40
23.885899
  0
CIRCLE
  8
0
  6
CONTINUOUS
 62
     7
 10
836.52216
 20
-129.9787
 40
21.700001
  0
CIRCLE
  8
0
  6
CONTINUOUS
 62
     7
 10
843.47418
 20
-515.08673
 40
26.450001
  0
CIRCLE
  8
0
  6
CONTINUOUS
 62
     7
 10
843.47418
 20
-515.08673
 40
26.985899
  0
CIRCLE
  8
0
  6
CONTINUOUS
 62
     7
 10
843.47418
 20
-515.08673
 40
24.700001
  0
CIRCLE
  8
0
  6
CONTINUOUS
 62
     7
 10
679.64111
 20
-1209.9973
 40
32.450001
  0
CIRCLE
  8
0
  6
CONTINUOUS
 62
     7
 10
679.64111
 20
-1209.9973
 40
32.985897
  0
CIRCLE
  8
0
  6
CONTINUOUS
 62
     7
 10
679.64111
 20
-1209.9973
 40
30.700001
  0
CIRCLE
  8
0
  6
CONTINUOUS
 62
     7
 10
849.28033
 20
-980.7074
 40
32.450001
  0
CIRCLE
  8
0
  6
CONTINUOUS
 62
     7
 10
849.28033
 20
-980.7074
 40
32.985897
  0
CIRCLE
  8
0
  6
CONTINUOUS
 62
     7
 10
849.28033
 20
-980.7074
 40
30.700001
  0
CIRCLE
  8
0
  6
CONTINUOUS
 62
     7
 10
561.82935
 20
-980.7074
 40
32.450001
  0
CIRCLE
  8
0
  6
CONTINUOUS
 62
     7
 10
561.82935
 20
-980.7074
 40
32.985897
  0
CIRCLE
  8
0
  6
CONTINUOUS
 62
     7
 10
561.82935
 20
-980.7074
 40
30.700001
  0
CIRCLE
  8
0
  6
CONTINUOUS
 62
     7
 10
832.1181
 20
-769.63928
 40
32.450001
  0
CIRCLE
  8
0
  6
CONTINUOUS
 62
     7
 10
832.1181
 20
-769.63928
 40
32.985897
  0
CIRCLE
  8
0
  6
CONTINUOUS
 62
     7
 10
832.1181
 20
-769.63928
 40
30.700001
  0
CIRCLE
  8
0
  6
CONTINUOUS
 62
     7
 10
542.84839
 20
-771.15771
 40
32.450001
  0
CIRCLE
  8
0
  6
CONTINUOUS
 62
     7
 10
542.84839
 20
-771.15771
 40
32.985897
  0
CIRCLE
  8
0
  6
CONTINUOUS
 62
     7
 10
542.84839
 20
-771.15771
 40
30.700001
  0
CIRCLE
  8
0
  6
CONTINUOUS
 62
     7
 10
558.79236
 20
-522.12769
 40
26.450001
  0
CIRCLE
  8
0
  6
CONTINUOUS
 62
     7
 10
558.79236
 20
-522.12769
 40
26.985899
  0
CIRCLE
  8
0
  6
CONTINUOUS
 62
     7
 10
558.79236
 20
-522.12769
 40
24.700001
  0
CIRCLE
  8
0
  6
CONTINUOUS
 62
     7
 10
831.81787
 20
-336.8736
 40
26.450001
  0
CIRCLE
  8
0
  6
CONTINUOUS
 62
     7
 10
831.81787
 20
-336.8736
 40
26.985899
  0
CIRCLE
  8
0
  6
CONTINUOUS
 62
     7
 10
831.81787
 20
-336.8736
 40
24.700001
  0
CIRCLE
  8
0
  6
CONTINUOUS
 62
     7
 10
562.78363
 20
-338.31729
 40
26.450001
  0
CIRCLE
  8
0
  6
CONTINUOUS
 62
     7
 10
562.78363
 20
-338.31729
 40
26.985899
  0
CIRCLE
  8
0
  6
CONTINUOUS
 62
     7
 10
562.78363
 20
-338.31729
 40
24.700001
  0
CIRCLE
  8
0
  6
CONTINUOUS
 62
     7
 10
556.52216
 20
-129.9787
 40
23.35
  0
CIRCLE
  8
0
  6
CONTINUOUS
 62
     7
 10
556.52216
 20
-129.9787
 40
23.885899
  0
CIRCLE
  8
0
  6
CONTINUOUS
 62
     7
 10
556.52216
 20
-129.9787
 40
21.700001
  0
CIRCLE
  8
0
  6
CONTINUOUS
 62
     7
 10
846.93549
 20
1.9230301
 40
23.35
  0
CIRCLE
  8
0
  6
CONTINUOUS
 62
     7
 10
846.93549
 20
1.9230301
 40
23.885899
  0
CIRCLE
  8
0
  6
CONTINUOUS
 62
     7
 10
846.93549
 20
1.9230301
 40
21.700001
  0
CIRCLE
  8
0
  6
CONTINUOUS
 62
     7
 10
827.43689
 20
135.39999
 40
18.9
  0
CIRCLE
  8
0
  6
CONTINUOUS
 62
     7
 10
827.43689
 20
135.39999
 40
19.435898
  0
CIRCLE
  8
0
  6
CONTINUOUS
 62
     7
 10
827.43689
 20
135.39999
 40
17.35
  0
TEXT
  8
0
  6
CONTINUOUS
 62
     7
 10
36.699066
 20
-260.34354
 40
10
 41
1.0062112
  1
11/2x3/4
  0
TEXT
  8
0
  6
CONTINUOUS
 62
     7
 10
-226.4795
 20
-449.83209
 40
10
 41
1.0084034
  1
11/2x1
  0
TEXT
  8
0
  6
CONTINUOUS
 62
     7
 10
59.257229
 20
-454.34375
 40
10
 41
1.0054945
  1
11/2x11/4
  0
TEXT
  8
0
  6
CONTINUOUS
 62
     7
 10
-240.57259
 20
-719.73871
 40
10
 41
1.0102042
  1
2x1/2
  0
TEXT
  8
0
  6
CONTINUOUS
 62
     7
 10
56.120548
 20
-712.71643
 40
10
 41
1.0102042
  1
2x3/4
  0
TEXT
  8
0
  6
CONTINUOUS
 62
     7
 10
-223.89458
 20
-908.46368
 40
10
 41
1.0178573
  1
2x1
  0
TEXT
  8
0
  6
CONTINUOUS
 62
     7
 10
59.234417
 20
-912.74963
 40
10
 41
1.0084034
  1
2x11/4
  0
TEXT
  8
0
  6
CONTINUOUS
 62
     7
 10
-98.339611
 20
-1158.3203
 40
10
 41
1.0084034
  1
2x11/2
  0
TEXT
  8
0
  6
CONTINUOUS
 62
     7
 10
-112.77126
 20
-1333.7399
 40
10
 41
1.0084034
  1
21/2x2
  0
TEXT
  8
0
  6
CONTINUOUS
 62
     7
 10
-98.370556
 20
-1675.6525
 40
10
 41
1.0178573
  1
3x2
  0
TEXT
  8
0
  6
CONTINUOUS
 62
     7
 10
-197.02335
 20
185.02666
 40
10
 41
1.0071429
  1
3/4x1/2
  0
TEXT
  8
0
  6
CONTINUOUS
 62
     7
 10
36.530842
 20
180.25041
 40
10
 41
1.0102042
  1
1x1/2
  0
TEXT
  8
0
  6
CONTINUOUS
 62
     7
 10
-198.80484
 20
55.793777
 40
10
 41
1.0102042
  1
1x3/4
  0
TEXT
  8
0
  6
CONTINUOUS
 62
     7
 10
62.286167
 20
57.475826
 40
10
 41
1.0062112
  1
11/4x1/2
  0
TEXT
  8
0
  6
CONTINUOUS
 62
     7
 10
-211.4395
 20
-75.190399
 40
10
 41
1.0062112
  1
11/4x3/4
  0
TEXT
  8
0
  6
CONTINUOUS
 62
     7
 10
42.48315
 20
-72.043259
 40
10
 41
1.0084034
  1
11/4x1
  0
TEXT
  8
0
  6
CONTINUOUS
 62
     7
 10
-233.99887
 20
-258.83966
 40
10
 41
1.0062112
  1
11/2x1/2
  0
TEXT
  8
0
  6
CONTINUOUS
 62
     7
 10
-294.17459
 20
217.46254
 40
15
 41
0.84237086
  1
ＬＡ　径違いチ－ズ枝部ねじ付き　（ＲＴ）
  0
TEXT
  8
0
  6
CONTINUOUS
 62
     7
 10
671.62394
 20
-287.61234
 40
10
 41
1.0062112
  1
11/2x3/4
  0
TEXT
  8
0
  6
CONTINUOUS
 62
     7
 10
398.95814
 20
-472.86639
 40
10
 41
1.0084034
  1
11/2x1
  0
TEXT
  8
0
  6
CONTINUOUS
 62
     7
 10
668.44725
 20
-466.61716
 40
10
 41
1.0054945
  1
11/2x11/4
  0
TEXT
  8
0
  6
CONTINUOUS
 62
     7
 10
381.80827
 20
-714.08368
 40
10
 41
1.0102042
  1
2x1/2
  0
TEXT
  8
0
  6
CONTINUOUS
 62
     7
 10
670.72282
 20
-708.02063
 40
10
 41
1.0102042
  1
2x3/4
  0
TEXT
  8
0
  6
CONTINUOUS
 62
     7
 10
405.85493
 20
-917.65472
 40
10
 41
1.0178573
  1
2x1
  0
TEXT
  8
0
  6
CONTINUOUS
 62
     7
 10
679.77
 20
-914.12396
 40
10
 41
1.0084034
  1
2x11/4
  0
TEXT
  8
0
  6
CONTINUOUS
 62
     7
 10
505.52537
 20
-1144.245
 40
10
 41
1.0084034
  1
2x11/2
  0
TEXT
  8
0
  6
CONTINUOUS
 62
     7
 10
497.36128
 20
-1338.875
 40
10
 41
1.0084034
  1
21/2x2
  0
TEXT
  8
0
  6
CONTINUOUS
 62
     7
 10
517.05125
 20
-1673.2798
 40
10
 41
1.0178573
  1
3x2
  0
TEXT
  8
0
  6
CONTINUOUS
 62
     7
 10
415.08207
 20
175.14645
 40
10
 41
1.0071429
  1
3/4x1/2
  0
TEXT
  8
0
  6
CONTINUOUS
 62
     7
 10
688.99174
 20
180.88278
 40
10
 41
1.0102042
  1
1x1/2
  0
TEXT
  8
0
  6
CONTINUOUS
 62
     7
 10
395.00492
 20
54.683567
 40
10
 41
1.0102042
  1
1x3/4
  0
TEXT
  8
0
  6
CONTINUOUS
 62
     7
 10
673.21684
 20
54.683567
 40
10
 41
1.0062112
  1
11/4x1/2
  0
TEXT
  8
0
  6
CONTINUOUS
 62
     7
 10
373.49369
 20
-75.817886
 40
10
 41
1.0062112
  1
11/4x3/4
  0
TEXT
  8
0
  6
CONTINUOUS
 62
     7
 10
676.085
 20
-85.856461
 40
10
 41
1.0084034
  1
11/4x1
  0
TEXT
  8
0
  6
CONTINUOUS
 62
     7
 10
398.21937
 20
-283.24643
 40
10
 41
1.0062112
  1
11/2x1/2
  0
TEXT
  8
0
  6
CONTINUOUS
 62
     7
 10
319.46774
 20
222.96281
 40
15
 41
0.84210156
  1
ＨＩ－ＬＡ　径違いチ－ズ枝部ねじ付き　（ＲＴ）
  0
TEXT
  8
0
  6
CONTINUOUS
 62
     7
 10
695.01402
 20
219.29631
 40
10
 41
0.84195842
  1
ＨＩ－ＬＡとＰ－ＬＡの寸法は同じになっております。
  0
LINE
  8
0
  6
CONTINUOUS
 62
     7
 10
63.428659
 20
-323.00253
 11
63.428659
 21
-321.35907
  0
LINE
  8
0
  6
CONTINUOUS
 62
     7
 10
62.228659
 20
-323.00253
 11
62.228659
 21
-321.35907
  0
LINE
  8
0
  6
CONTINUOUS
 62
     7
 10
62.228659
 20
-312.646
 11
62.228659
 21
-311.00253
  0
LINE
  8
0
  6
CONTINUOUS
 62
     7
 10
63.428659
 20
-312.646
 11
63.428659
 21
-311.00253
  0
LINE
  8
0
  6
CONTINUOUS
 62
     7
 10
62.228659
 20
-320.15471
 11
62.228659
 21
-317.00253
  0
LINE
  8
0
  6
CONTINUOUS
 62
     7
 10
63.428659
 20
-320.15471
 11
63.428659
 21
-317.00253
  0
ARC
  8
0
  6
CONTINUOUS
 62
     7
 10
65.228659
 20
-317.00253
 40
2.4000001
 50
306.00832
 51
53.991676
  0
ARC
  8
0
  6
CONTINUOUS
 62
     7
 10
65.228659
 20
-317.00253
 40
3.5999999
 50
306.00832
 51
53.991676
  0
ARC
  8
0
  6
CONTINUOUS
 62
     7
 10
60.428659
 20
-317.00253
 40
2.4000001
 50
126.00833
 51
233.99168
  0
ARC
  8
0
  6
CONTINUOUS
 62
     7
 10
60.428659
 20
-317.00253
 40
3.5999999
 50
126.00833
 51
233.99168
  0
ARC
  8
0
  6
CONTINUOUS
 62
     7
 10
62.828659
 20
-313.70023
 40
7.6823077
 50
53.991676
 51
85.520553
  0
ARC
  8
0
  6
CONTINUOUS
 62
     7
 10
62.828659
 20
-313.70023
 40
6.4823079
 50
53.991676
 51
84.689121
  0
ARC
  8
0
  6
CONTINUOUS
 62
     7
 10
62.828659
 20
-320.30484
 40
6.4823079
 50
233.99167
 51
306.00832
  0
ARC
  8
0
  6
CONTINUOUS
 62
     7
 10
62.828659
 20
-320.30484
 40
7.6823077
 50
233.99167
 51
265.52055
  0
ARC
  8
0
  6
CONTINUOUS
 62
     7
 10
62.828659
 20
-322.55253
 40
0.75
 50
36.869897
 51
143.1301
  0
ARC
  8
0
  6
CONTINUOUS
 62
     7
 10
62.828659
 20
-317.45253
 40
0.75
 50
216.8699
 51
323.1301
  0
ARC
  8
0
  6
CONTINUOUS
 62
     7
 10
62.828659
 20
-311.45253
 40
0.75
 50
216.8699
 51
323.1301
  0
ARC
  8
0
  6
CONTINUOUS
 62
     7
 10
62.828659
 20
-313.70023
 40
6.4823079
 50
95.310878
 51
126.00833
  0
ARC
  8
0
  6
CONTINUOUS
 62
     7
 10
62.828659
 20
-313.70023
 40
7.6823077
 50
94.479452
 51
126.00833
  0
ARC
  8
0
  6
CONTINUOUS
 62
     7
 10
62.828659
 20
-320.30484
 40
7.6823077
 50
274.47945
 51
306.00832
  0
LINE
  8
0
  6
CONTINUOUS
 62
     7
 10
-201.25378
 20
-515.49884
 11
-201.25378
 21
-513.85537
  0
LINE
  8
0
  6
CONTINUOUS
 62
     7
 10
-202.45378
 20
-515.49884
 11
-202.45378
 21
-513.85537
  0
LINE
  8
0
  6
CONTINUOUS
 62
     7
 10
-202.45378
 20
-505.14231
 11
-202.45378
 21
-503.49884
  0
LINE
  8
0
  6
CONTINUOUS
 62
     7
 10
-201.25378
 20
-505.14231
 11
-201.25378
 21
-503.49884
  0
LINE
  8
0
  6
CONTINUOUS
 62
     7
 10
-202.45378
 20
-512.65101
 11
-202.45378
 21
-509.49884
  0
LINE
  8
0
  6
CONTINUOUS
 62
     7
 10
-201.25378
 20
-512.65101
 11
-201.25378
 21
-509.49884
  0
ARC
  8
0
  6
CONTINUOUS
 62
     7
 10
-199.45377
 20
-509.49884
 40
2.4000001
 50
306.00832
 51
53.991676
  0
ARC
  8
0
  6
CONTINUOUS
 62
     7
 10
-199.45377
 20
-509.49884
 40
3.5999999
 50
306.00832
 51
53.991676
  0
ARC
  8
0
  6
CONTINUOUS
 62
     7
 10
-204.25378
 20
-509.49884
 40
2.4000001
 50
126.00833
 51
233.99168
  0
ARC
  8
0
  6
CONTINUOUS
 62
     7
 10
-204.25378
 20
-509.49884
 40
3.5999999
 50
126.00833
 51
233.99168
  0
ARC
  8
0
  6
CONTINUOUS
 62
     7
 10
-201.85378
 20
-506.19653
 40
7.6823077
 50
53.991676
 51
85.520553
  0
ARC
  8
0
  6
CONTINUOUS
 62
     7
 10
-201.85378
 20
-506.19653
 40
6.4823079
 50
53.991676
 51
84.689121
  0
ARC
  8
0
  6
CONTINUOUS
 62
     7
 10
-201.85378
 20
-512.80115
 40
6.4823079
 50
233.99167
 51
306.00832
  0
ARC
  8
0
  6
CONTINUOUS
 62
     7
 10
-201.85378
 20
-512.80115
 40
7.6823077
 50
233.99167
 51
265.52055
  0
ARC
  8
0
  6
CONTINUOUS
 62
     7
 10
-201.85378
 20
-515.04884
 40
0.75
 50
36.869897
 51
143.1301
  0
ARC
  8
0
  6
CONTINUOUS
 62
     7
 10
-201.85378
 20
-509.94884
 40
0.75
 50
216.8699
 51
323.1301
  0
ARC
  8
0
  6
CONTINUOUS
 62
     7
 10
-201.85378
 20
-503.94884
 40
0.75
 50
216.8699
 51
323.1301
  0
ARC
  8
0
  6
CONTINUOUS
 62
     7
 10
-201.85378
 20
-506.19653
 40
6.4823079
 50
95.310878
 51
126.00833
  0
ARC
  8
0
  6
CONTINUOUS
 62
     7
 10
-201.85378
 20
-506.19653
 40
7.6823077
 50
94.479452
 51
126.00833
  0
ARC
  8
0
  6
CONTINUOUS
 62
     7
 10
-201.85378
 20
-512.80115
 40
7.6823077
 50
274.47945
 51
306.00832
  0
LINE
  8
0
  6
CONTINUOUS
 62
     7
 10
84.482942
 20
-520.0105
 11
84.482942
 21
-518.36703
  0
LINE
  8
0
  6
CONTINUOUS
 62
     7
 10
83.282942
 20
-520.0105
 11
83.282942
 21
-518.36703
  0
LINE
  8
0
  6
CONTINUOUS
 62
     7
 10
83.282942
 20
-509.65396
 11
83.282942
 21
-508.0105
  0
LINE
  8
0
  6
CONTINUOUS
 62
     7
 10
84.482942
 20
-509.65396
 11
84.482942
 21
-508.0105
  0
LINE
  8
0
  6
CONTINUOUS
 62
     7
 10
83.282942
 20
-517.16267
 11
83.282942
 21
-514.0105
  0
LINE
  8
0
  6
CONTINUOUS
 62
     7
 10
84.482942
 20
-517.16267
 11
84.482942
 21
-514.0105
  0
ARC
  8
0
  6
CONTINUOUS
 62
     7
 10
86.282942
 20
-514.0105
 40
2.4000001
 50
306.00832
 51
53.991676
  0
ARC
  8
0
  6
CONTINUOUS
 62
     7
 10
86.282942
 20
-514.0105
 40
3.5999999
 50
306.00832
 51
53.991676
  0
ARC
  8
0
  6
CONTINUOUS
 62
     7
 10
81.482942
 20
-514.0105
 40
2.4000001
 50
126.00833
 51
233.99168
  0
ARC
  8
0
  6
CONTINUOUS
 62
     7
 10
81.482942
 20
-514.0105
 40
3.5999999
 50
126.00833
 51
233.99168
  0
ARC
  8
0
  6
CONTINUOUS
 62
     7
 10
83.882942
 20
-510.70819
 40
7.6823077
 50
53.991676
 51
85.520553
  0
ARC
  8
0
  6
CONTINUOUS
 62
     7
 10
83.882942
 20
-510.70819
 40
6.4823079
 50
53.991676
 51
84.689121
  0
ARC
  8
0
  6
CONTINUOUS
 62
     7
 10
83.882942
 20
-517.31281
 40
6.4823079
 50
233.99167
 51
306.00832
  0
ARC
  8
0
  6
CONTINUOUS
 62
     7
 10
83.882942
 20
-517.31281
 40
7.6823077
 50
233.99167
 51
265.52055
  0
ARC
  8
0
  6
CONTINUOUS
 62
     7
 10
83.882942
 20
-519.5605
 40
0.75
 50
36.869897
 51
143.1301
  0
ARC
  8
0
  6
CONTINUOUS
 62
     7
 10
83.882942
 20
-514.4605
 40
0.75
 50
216.8699
 51
323.1301
  0
ARC
  8
0
  6
CONTINUOUS
 62
     7
 10
83.882942
 20
-508.4605
 40
0.75
 50
216.8699
 51
323.1301
  0
ARC
  8
0
  6
CONTINUOUS
 62
     7
 10
83.882942
 20
-510.70819
 40
6.4823079
 50
95.310878
 51
126.00833
  0
ARC
  8
0
  6
CONTINUOUS
 62
     7
 10
83.882942
 20
-510.70819
 40
7.6823077
 50
94.479452
 51
126.00833
  0
ARC
  8
0
  6
CONTINUOUS
 62
     7
 10
83.882942
 20
-517.31281
 40
7.6823077
 50
274.47945
 51
306.00832
  0
LINE
  8
0
  6
CONTINUOUS
 62
     7
 10
-213.30311
 20
-779.29041
 11
-213.30311
 21
-777.64694
  0
LINE
  8
0
  6
CONTINUOUS
 62
     7
 10
-214.50311
 20
-779.29041
 11
-214.50311
 21
-777.64694
  0
LINE
  8
0
  6
CONTINUOUS
 62
     7
 10
-214.50311
 20
-768.93387
 11
-214.50311
 21
-767.29041
  0
LINE
  8
0
  6
CONTINUOUS
 62
     7
 10
-213.30311
 20
-768.93387
 11
-213.30311
 21
-767.29041
  0
LINE
  8
0
  6
CONTINUOUS
 62
     7
 10
-214.50311
 20
-776.44258
 11
-214.50311
 21
-773.29041
  0
LINE
  8
0
  6
CONTINUOUS
 62
     7
 10
-213.30311
 20
-776.44258
 11
-213.30311
 21
-773.29041
  0
ARC
  8
0
  6
CONTINUOUS
 62
     7
 10
-211.50311
 20
-773.29041
 40
2.4000001
 50
306.00832
 51
53.991676
  0
ARC
  8
0
  6
CONTINUOUS
 62
     7
 10
-211.50311
 20
-773.29041
 40
3.5999999
 50
306.00832
 51
53.991676
  0
ARC
  8
0
  6
CONTINUOUS
 62
     7
 10
-216.30311
 20
-773.29041
 40
2.4000001
 50
126.00833
 51
233.99168
  0
ARC
  8
0
  6
CONTINUOUS
 62
     7
 10
-216.30311
 20
-773.29041
 40
3.5999999
 50
126.00833
 51
233.99168
  0
ARC
  8
0
  6
CONTINUOUS
 62
     7
 10
-213.90311
 20
-769.9881
 40
7.6823077
 50
53.991676
 51
85.520553
  0
ARC
  8
0
  6
CONTINUOUS
 62
     7
 10
-213.90311
 20
-769.9881
 40
6.4823079
 50
53.991676
 51
84.689121
  0
ARC
  8
0
  6
CONTINUOUS
 62
     7
 10
-213.90311
 20
-776.59271
 40
6.4823079
 50
233.99167
 51
306.00832
  0
ARC
  8
0
  6
CONTINUOUS
 62
     7
 10
-213.90311
 20
-776.59271
 40
7.6823077
 50
233.99167
 51
265.52055
  0
ARC
  8
0
  6
CONTINUOUS
 62
     7
 10
-213.90311
 20
-778.84041
 40
0.75
 50
36.869897
 51
143.1301
  0
ARC
  8
0
  6
CONTINUOUS
 62
     7
 10
-213.90311
 20
-773.74041
 40
0.75
 50
216.8699
 51
323.1301
  0
ARC
  8
0
  6
CONTINUOUS
 62
     7
 10
-213.90311
 20
-767.74041
 40
0.75
 50
216.8699
 51
323.1301
  0
ARC
  8
0
  6
CONTINUOUS
 62
     7
 10
-213.90311
 20
-769.9881
 40
6.4823079
 50
95.310878
 51
126.00833
  0
ARC
  8
0
  6
CONTINUOUS
 62
     7
 10
-213.90311
 20
-769.9881
 40
7.6823077
 50
94.479452
 51
126.00833
  0
ARC
  8
0
  6
CONTINUOUS
 62
     7
 10
-213.90311
 20
-776.59271
 40
7.6823077
 50
274.47945
 51
306.00832
  0
LINE
  8
0
  6
CONTINUOUS
 62
     7
 10
83.830469
 20
-779.29041
 11
83.830469
 21
-777.64694
  0
LINE
  8
0
  6
CONTINUOUS
 62
     7
 10
82.630469
 20
-779.29041
 11
82.630469
 21
-777.64694
  0
LINE
  8
0
  6
CONTINUOUS
 62
     7
 10
82.630469
 20
-768.93387
 11
82.630469
 21
-767.29041
  0
LINE
  8
0
  6
CONTINUOUS
 62
     7
 10
83.830469
 20
-768.93387
 11
83.830469
 21
-767.29041
  0
LINE
  8
0
  6
CONTINUOUS
 62
     7
 10
82.630469
 20
-776.44258
 11
82.630469
 21
-773.29041
  0
LINE
  8
0
  6
CONTINUOUS
 62
     7
 10
83.830469
 20
-776.44258
 11
83.830469
 21
-773.29041
  0
ARC
  8
0
  6
CONTINUOUS
 62
     7
 10
85.630469
 20
-773.29041
 40
2.4000001
 50
306.00832
 51
53.991676
  0
ARC
  8
0
  6
CONTINUOUS
 62
     7
 10
85.630469
 20
-773.29041
 40
3.5999999
 50
306.00832
 51
53.991676
  0
ARC
  8
0
  6
CONTINUOUS
 62
     7
 10
80.830469
 20
-773.29041
 40
2.4000001
 50
126.00833
 51
233.99168
  0
ARC
  8
0
  6
CONTINUOUS
 62
     7
 10
80.830469
 20
-773.29041
 40
3.5999999
 50
126.00833
 51
233.99168
  0
ARC
  8
0
  6
CONTINUOUS
 62
     7
 10
83.230469
 20
-769.9881
 40
7.6823077
 50
53.991676
 51
85.520553
  0
ARC
  8
0
  6
CONTINUOUS
 62
     7
 10
83.230469
 20
-769.9881
 40
6.4823079
 50
53.991676
 51
84.689121
  0
ARC
  8
0
  6
CONTINUOUS
 62
     7
 10
83.230469
 20
-776.59271
 40
6.4823079
 50
233.99167
 51
306.00832
  0
ARC
  8
0
  6
CONTINUOUS
 62
     7
 10
83.230469
 20
-776.59271
 40
7.6823077
 50
233.99167
 51
265.52055
  0
ARC
  8
0
  6
CONTINUOUS
 62
     7
 10
83.230469
 20
-778.84041
 40
0.75
 50
36.869897
 51
143.1301
  0
ARC
  8
0
  6
CONTINUOUS
 62
     7
 10
83.230469
 20
-773.74041
 40
0.75
 50
216.8699
 51
323.1301
  0
ARC
  8
0
  6
CONTINUOUS
 62
     7
 10
83.230469
 20
-767.74041
 40
0.75
 50
216.8699
 51
323.1301
  0
ARC
  8
0
  6
CONTINUOUS
 62
     7
 10
83.230469
 20
-769.9881
 40
6.4823079
 50
95.310878
 51
126.00833
  0
ARC
  8
0
  6
CONTINUOUS
 62
     7
 10
83.230469
 20
-769.9881
 40
7.6823077
 50
94.479452
 51
126.00833
  0
ARC
  8
0
  6
CONTINUOUS
 62
     7
 10
83.230469
 20
-776.59271
 40
7.6823077
 50
274.47945
 51
306.00832
  0
LINE
  8
0
  6
CONTINUOUS
 62
     7
 10
-209.90308
 20
-974.09039
 11
-209.90308
 21
-972.44693
  0
LINE
  8
0
  6
CONTINUOUS
 62
     7
 10
-211.10308
 20
-974.09039
 11
-211.10308
 21
-972.44693
  0
LINE
  8
0
  6
CONTINUOUS
 62
     7
 10
-211.10308
 20
-963.73386
 11
-211.10308
 21
-962.09039
  0
LINE
  8
0
  6
CONTINUOUS
 62
     7
 10
-209.90308
 20
-963.73386
 11
-209.90308
 21
-962.09039
  0
LINE
  8
0
  6
CONTINUOUS
 62
     7
 10
-211.10308
 20
-971.24257
 11
-211.10308
 21
-968.09039
  0
LINE
  8
0
  6
CONTINUOUS
 62
     7
 10
-209.90308
 20
-971.24257
 11
-209.90308
 21
-968.09039
  0
ARC
  8
0
  6
CONTINUOUS
 62
     7
 10
-208.10308
 20
-968.09039
 40
2.4000001
 50
306.00832
 51
53.991676
  0
ARC
  8
0
  6
CONTINUOUS
 62
     7
 10
-208.10308
 20
-968.09039
 40
3.5999999
 50
306.00832
 51
53.991676
  0
ARC
  8
0
  6
CONTINUOUS
 62
     7
 10
-212.90308
 20
-968.09039
 40
2.4000001
 50
126.00833
 51
233.99168
  0
ARC
  8
0
  6
CONTINUOUS
 62
     7
 10
-212.90308
 20
-968.09039
 40
3.5999999
 50
126.00833
 51
233.99168
  0
ARC
  8
0
  6
CONTINUOUS
 62
     7
 10
-210.50308
 20
-964.78809
 40
7.6823077
 50
53.991676
 51
85.520553
  0
ARC
  8
0
  6
CONTINUOUS
 62
     7
 10
-210.50308
 20
-964.78809
 40
6.4823079
 50
53.991676
 51
84.689121
  0
ARC
  8
0
  6
CONTINUOUS
 62
     7
 10
-210.50308
 20
-971.3927
 40
6.4823079
 50
233.99167
 51
306.00832
  0
ARC
  8
0
  6
CONTINUOUS
 62
     7
 10
-210.50308
 20
-971.3927
 40
7.6823077
 50
233.99167
 51
265.52055
  0
ARC
  8
0
  6
CONTINUOUS
 62
     7
 10
-210.50308
 20
-973.64039
 40
0.75
 50
36.869897
 51
143.1301
  0
ARC
  8
0
  6
CONTINUOUS
 62
     7
 10
-210.50308
 20
-968.54039
 40
0.75
 50
216.8699
 51
323.1301
  0
ARC
  8
0
  6
CONTINUOUS
 62
     7
 10
-210.50308
 20
-962.54039
 40
0.75
 50
216.8699
 51
323.1301
  0
ARC
  8
0
  6
CONTINUOUS
 62
     7
 10
-210.50308
 20
-964.78809
 40
6.4823079
 50
95.310878
 51
126.00833
  0
ARC
  8
0
  6
CONTINUOUS
 62
     7
 10
-210.50308
 20
-964.78809
 40
7.6823077
 50
94.479452
 51
126.00833
  0
ARC
  8
0
  6
CONTINUOUS
 62
     7
 10
-210.50308
 20
-971.3927
 40
7.6823077
 50
274.47945
 51
306.00832
  0
LINE
  8
0
  6
CONTINUOUS
 62
     7
 10
86.186365
 20
-975.7074
 11
86.186365
 21
-974.06393
  0
LINE
  8
0
  6
CONTINUOUS
 62
     7
 10
84.986365
 20
-975.7074
 11
84.986365
 21
-974.06393
  0
LINE
  8
0
  6
CONTINUOUS
 62
     7
 10
84.986365
 20
-965.35086
 11
84.986365
 21
-963.7074
  0
LINE
  8
0
  6
CONTINUOUS
 62
     7
 10
86.186365
 20
-965.35086
 11
86.186365
 21
-963.7074
  0
LINE
  8
0
  6
CONTINUOUS
 62
     7
 10
84.986365
 20
-972.85957
 11
84.986365
 21
-969.7074
  0
LINE
  8
0
  6
CONTINUOUS
 62
     7
 10
86.186365
 20
-972.85957
 11
86.186365
 21
-969.7074
  0
ARC
  8
0
  6
CONTINUOUS
 62
     7
 10
87.986365
 20
-969.7074
 40
2.4000001
 50
306.00832
 51
53.991676
  0
ARC
  8
0
  6
CONTINUOUS
 62
     7
 10
87.986365
 20
-969.7074
 40
3.5999999
 50
306.00832
 51
53.991676
  0
ARC
  8
0
  6
CONTINUOUS
 62
     7
 10
83.186365
 20
-969.7074
 40
2.4000001
 50
126.00833
 51
233.99168
  0
ARC
  8
0
  6
CONTINUOUS
 62
     7
 10
83.186365
 20
-969.7074
 40
3.5999999
 50
126.00833
 51
233.99168
  0
ARC
  8
0
  6
CONTINUOUS
 62
     7
 10
85.586365
 20
-966.40509
 40
7.6823077
 50
53.991676
 51
85.520553
  0
ARC
  8
0
  6
CONTINUOUS
 62
     7
 10
85.586365
 20
-966.40509
 40
6.4823079
 50
53.991676
 51
84.689121
  0
ARC
  8
0
  6
CONTINUOUS
 62
     7
 10
85.586365
 20
-973.00971
 40
6.4823079
 50
233.99167
 51
306.00832
  0
ARC
  8
0
  6
CONTINUOUS
 62
     7
 10
85.586365
 20
-973.00971
 40
7.6823077
 50
233.99167
 51
265.52055
  0
ARC
  8
0
  6
CONTINUOUS
 62
     7
 10
85.586365
 20
-975.2574
 40
0.75
 50
36.869897
 51
143.1301
  0
ARC
  8
0
  6
CONTINUOUS
 62
     7
 10
85.586365
 20
-970.1574
 40
0.75
 50
216.8699
 51
323.1301
  0
ARC
  8
0
  6
CONTINUOUS
 62
     7
 10
85.586365
 20
-964.1574
 40
0.75
 50
216.8699
 51
323.1301
  0
ARC
  8
0
  6
CONTINUOUS
 62
     7
 10
85.586365
 20
-966.40509
 40
6.4823079
 50
95.310878
 51
126.00833
  0
ARC
  8
0
  6
CONTINUOUS
 62
     7
 10
85.586365
 20
-966.40509
 40
7.6823077
 50
94.479452
 51
126.00833
  0
ARC
  8
0
  6
CONTINUOUS
 62
     7
 10
85.586365
 20
-973.00971
 40
7.6823077
 50
274.47945
 51
306.00832
  0
LINE
  8
0
  6
CONTINUOUS
 62
     7
 10
-70.293517
 20
-1217.4082
 11
-70.293517
 21
-1215.7647
  0
LINE
  8
0
  6
CONTINUOUS
 62
     7
 10
-71.493517
 20
-1217.4082
 11
-71.493517
 21
-1215.7647
  0
LINE
  8
0
  6
CONTINUOUS
 62
     7
 10
-71.493517
 20
-1207.0517
 11
-71.493517
 21
-1205.4082
  0
LINE
  8
0
  6
CONTINUOUS
 62
     7
 10
-70.293517
 20
-1207.0517
 11
-70.293517
 21
-1205.4082
  0
LINE
  8
0
  6
CONTINUOUS
 62
     7
 10
-71.493517
 20
-1214.5604
 11
-71.493517
 21
-1211.4082
  0
LINE
  8
0
  6
CONTINUOUS
 62
     7
 10
-70.293517
 20
-1214.5604
 11
-70.293517
 21
-1211.4082
  0
ARC
  8
0
  6
CONTINUOUS
 62
     7
 10
-68.493516
 20
-1211.4082
 40
2.4000001
 50
306.00832
 51
53.991676
  0
ARC
  8
0
  6
CONTINUOUS
 62
     7
 10
-68.493516
 20
-1211.4082
 40
3.5999999
 50
306.00832
 51
53.991676
  0
ARC
  8
0
  6
CONTINUOUS
 62
     7
 10
-73.293517
 20
-1211.4082
 40
2.4000001
 50
126.00833
 51
233.99168
  0
ARC
  8
0
  6
CONTINUOUS
 62
     7
 10
-73.293517
 20
-1211.4082
 40
3.5999999
 50
126.00833
 51
233.99168
  0
ARC
  8
0
  6
CONTINUOUS
 62
     7
 10
-70.893517
 20
-1208.1059
 40
7.6823077
 50
53.991676
 51
85.520553
  0
ARC
  8
0
  6
CONTINUOUS
 62
     7
 10
-70.893517
 20
-1208.1059
 40
6.4823079
 50
53.991676
 51
84.689121
  0
ARC
  8
0
  6
CONTINUOUS
 62
     7
 10
-70.893517
 20
-1214.7105
 40
6.4823079
 50
233.99167
 51
306.00832
  0
ARC
  8
0
  6
CONTINUOUS
 62
     7
 10
-70.893517
 20
-1214.7105
 40
7.6823077
 50
233.99167
 51
265.52055
  0
ARC
  8
0
  6
CONTINUOUS
 62
     7
 10
-70.893517
 20
-1216.9582
 40
0.75
 50
36.869897
 51
143.1301
  0
ARC
  8
0
  6
CONTINUOUS
 62
     7
 10
-70.893517
 20
-1211.8582
 40
0.75
 50
216.8699
 51
323.1301
  0
ARC
  8
0
  6
CONTINUOUS
 62
     7
 10
-70.893517
 20
-1205.8582
 40
0.75
 50
216.8699
 51
323.1301
  0
ARC
  8
0
  6
CONTINUOUS
 62
     7
 10
-70.893517
 20
-1208.1059
 40
6.4823079
 50
95.310878
 51
126.00833
  0
ARC
  8
0
  6
CONTINUOUS
 62
     7
 10
-70.893517
 20
-1208.1059
 40
7.6823077
 50
94.479452
 51
126.00833
  0
ARC
  8
0
  6
CONTINUOUS
 62
     7
 10
-70.893517
 20
-1214.7105
 40
7.6823077
 50
274.47945
 51
306.00832
  0
LINE
  8
0
  6
CONTINUOUS
 62
     7
 10
-82.86615
 20
-1407.3516
 11
-82.86615
 21
-1405.2972
  0
LINE
  8
0
  6
CONTINUOUS
 62
     7
 10
-84.36615
 20
-1407.3516
 11
-84.36615
 21
-1405.2972
  0
LINE
  8
0
  6
CONTINUOUS
 62
     7
 10
-84.36615
 20
-1394.4059
 11
-84.36615
 21
-1392.3516
  0
LINE
  8
0
  6
CONTINUOUS
 62
     7
 10
-82.86615
 20
-1394.4059
 11
-82.86615
 21
-1392.3516
  0
LINE
  8
0
  6
CONTINUOUS
 62
     7
 10
-84.36615
 20
-1403.7918
 11
-84.36615
 21
-1399.8516
  0
LINE
  8
0
  6
CONTINUOUS
 62
     7
 10
-82.86615
 20
-1403.7918
 11
-82.86615
 21
-1399.8516
  0
ARC
  8
0
  6
CONTINUOUS
 62
     7
 10
-80.61615
 20
-1399.8516
 40
3
 50
306.00832
 51
53.991676
  0
ARC
  8
0
  6
CONTINUOUS
 62
     7
 10
-80.61615
 20
-1399.8516
 40
4.5
 50
306.00832
 51
53.991676
  0
ARC
  8
0
  6
CONTINUOUS
 62
     7
 10
-86.61615
 20
-1399.8516
 40
3
 50
126.00833
 51
233.99168
  0
ARC
  8
0
  6
CONTINUOUS
 62
     7
 10
-86.61615
 20
-1399.8516
 40
4.5
 50
126.00833
 51
233.99168
  0
ARC
  8
0
  6
CONTINUOUS
 62
     7
 10
-83.61615
 20
-1395.7237
 40
9.6028843
 50
53.991676
 51
85.520553
  0
ARC
  8
0
  6
CONTINUOUS
 62
     7
 10
-83.61615
 20
-1395.7237
 40
8.1028843
 50
53.991676
 51
84.689121
  0
ARC
  8
0
  6
CONTINUOUS
 62
     7
 10
-83.61615
 20
-1403.9794
 40
8.1028843
 50
233.99167
 51
306.00832
  0
ARC
  8
0
  6
CONTINUOUS
 62
     7
 10
-83.61615
 20
-1403.9794
 40
9.6028843
 50
233.99167
 51
265.52055
  0
ARC
  8
0
  6
CONTINUOUS
 62
     7
 10
-83.61615
 20
-1406.7891
 40
0.9375
 50
36.869897
 51
143.1301
  0
ARC
  8
0
  6
CONTINUOUS
 62
     7
 10
-83.61615
 20
-1400.4141
 40
0.9375
 50
216.8699
 51
323.1301
  0
ARC
  8
0
  6
CONTINUOUS
 62
     7
 10
-83.61615
 20
-1392.9141
 40
0.9375
 50
216.8699
 51
323.1301
  0
ARC
  8
0
  6
CONTINUOUS
 62
     7
 10
-83.61615
 20
-1395.7237
 40
9.6028843
 50
94.479452
 51
126.00833
  0
ARC
  8
0
  6
CONTINUOUS
 62
     7
 10
-83.61615
 20
-1395.7237
 40
8.1028843
 50
95.310878
 51
126.00833
  0
ARC
  8
0
  6
CONTINUOUS
 62
     7
 10
-83.61615
 20
-1403.9794
 40
9.6028843
 50
274.47945
 51
306.00832
  0
LINE
  8
0
  6
CONTINUOUS
 62
     7
 10
-81.130257
 20
-1767.1444
 11
-81.130257
 21
-1765.0901
  0
LINE
  8
0
  6
CONTINUOUS
 62
     7
 10
-82.630257
 20
-1767.1444
 11
-82.630257
 21
-1765.0901
  0
LINE
  8
0
  6
CONTINUOUS
 62
     7
 10
-82.630257
 20
-1754.1987
 11
-82.630257
 21
-1752.1444
  0
LINE
  8
0
  6
CONTINUOUS
 62
     7
 10
-81.130257
 20
-1754.1987
 11
-81.130257
 21
-1752.1444
  0
LINE
  8
0
  6
CONTINUOUS
 62
     7
 10
-82.630257
 20
-1763.5846
 11
-82.630257
 21
-1759.6444
  0
LINE
  8
0
  6
CONTINUOUS
 62
     7
 10
-81.130257
 20
-1763.5846
 11
-81.130257
 21
-1759.6444
  0
ARC
  8
0
  6
CONTINUOUS
 62
     7
 10
-78.880257
 20
-1759.6444
 40
3
 50
306.00832
 51
53.991676
  0
ARC
  8
0
  6
CONTINUOUS
 62
     7
 10
-78.880257
 20
-1759.6444
 40
4.5
 50
306.00832
 51
53.991676
  0
ARC
  8
0
  6
CONTINUOUS
 62
     7
 10
-84.880257
 20
-1759.6444
 40
3
 50
126.00833
 51
233.99168
  0
ARC
  8
0
  6
CONTINUOUS
 62
     7
 10
-84.880257
 20
-1759.6444
 40
4.5
 50
126.00833
 51
233.99168
  0
ARC
  8
0
  6
CONTINUOUS
 62
     7
 10
-81.880257
 20
-1755.5165
 40
9.6028843
 50
53.991676
 51
85.520553
  0
ARC
  8
0
  6
CONTINUOUS
 62
     7
 10
-81.880257
 20
-1755.5165
 40
8.1028843
 50
53.991676
 51
84.689121
  0
ARC
  8
0
  6
CONTINUOUS
 62
     7
 10
-81.880257
 20
-1763.7723
 40
8.1028843
 50
233.99167
 51
306.00832
  0
ARC
  8
0
  6
CONTINUOUS
 62
     7
 10
-81.880257
 20
-1763.7723
 40
9.6028843
 50
233.99167
 51
265.52055
  0
ARC
  8
0
  6
CONTINUOUS
 62
     7
 10
-81.880257
 20
-1766.5819
 40
0.9375
 50
36.869897
 51
143.1301
  0
ARC
  8
0
  6
CONTINUOUS
 62
     7
 10
-81.880257
 20
-1760.2069
 40
0.9375
 50
216.8699
 51
323.1301
  0
ARC
  8
0
  6
CONTINUOUS
 62
     7
 10
-81.880257
 20
-1752.7069
 40
0.9375
 50
216.8699
 51
323.1301
  0
ARC
  8
0
  6
CONTINUOUS
 62
     7
 10
-81.880257
 20
-1755.5165
 40
9.6028843
 50
94.479452
 51
126.00833
  0
ARC
  8
0
  6
CONTINUOUS
 62
     7
 10
-81.880257
 20
-1755.5165
 40
8.1028843
 50
95.310878
 51
126.00833
  0
ARC
  8
0
  6
CONTINUOUS
 62
     7
 10
-81.880257
 20
-1763.7723
 40
9.6028843
 50
274.47945
 51
306.00832
  0
LINE
  8
0
  6
CONTINUOUS
 62
     7
 10
-166.37895
 20
137.13797
 11
-166.37895
 21
138.37057
  0
LINE
  8
0
  6
CONTINUOUS
 62
     7
 10
-165.47895
 20
137.13797
 11
-165.47895
 21
138.37057
  0
LINE
  8
0
  6
CONTINUOUS
 62
     7
 10
-165.47896
 20
144.90537
 11
-165.47896
 21
146.13797
  0
LINE
  8
0
  6
CONTINUOUS
 62
     7
 10
-166.37896
 20
144.90537
 11
-166.37896
 21
146.13797
  0
LINE
  8
0
  6
CONTINUOUS
 62
     7
 10
-165.47895
 20
139.27384
 11
-165.47896
 21
141.63797
  0
LINE
  8
0
  6
CONTINUOUS
 62
     7
 10
-166.37895
 20
139.27384
 11
-166.37896
 21
141.63797
  0
ARC
  8
0
  6
CONTINUOUS
 62
     7
 10
-167.72896
 20
141.63797
 40
1.8
 50
126.00833
 51
233.99168
  0
ARC
  8
0
  6
CONTINUOUS
 62
     7
 10
-167.72896
 20
141.63797
 40
2.7
 50
126.00833
 51
233.99168
  0
ARC
  8
0
  6
CONTINUOUS
 62
     7
 10
-164.12896
 20
141.63797
 40
1.8
 50
306.00833
 51
53.991686
  0
ARC
  8
0
  6
CONTINUOUS
 62
     7
 10
-164.12896
 20
141.63797
 40
2.7
 50
306.00833
 51
53.991686
  0
ARC
  8
0
  6
CONTINUOUS
 62
     7
 10
-165.92896
 20
144.1147
 40
5.7617307
 50
233.99168
 51
265.52056
  0
ARC
  8
0
  6
CONTINUOUS
 62
     7
 10
-165.92896
 20
144.1147
 40
4.8617306
 50
233.99168
 51
264.68913
  0
ARC
  8
0
  6
CONTINUOUS
 62
     7
 10
-165.92895
 20
139.16124
 40
4.8617306
 50
53.991676
 51
126.00833
  0
ARC
  8
0
  6
CONTINUOUS
 62
     7
 10
-165.92895
 20
139.16124
 40
5.7617307
 50
53.991676
 51
85.520553
  0
ARC
  8
0
  6
CONTINUOUS
 62
     7
 10
-165.92895
 20
137.47547
 40
0.5625
 50
216.8699
 51
323.1301
  0
ARC
  8
0
  6
CONTINUOUS
 62
     7
 10
-165.92896
 20
141.30047
 40
0.5625
 50
36.869908
 51
143.13011
  0
ARC
  8
0
  6
CONTINUOUS
 62
     7
 10
-165.92896
 20
145.80047
 40
0.5625
 50
36.869908
 51
143.13011
  0
ARC
  8
0
  6
CONTINUOUS
 62
     7
 10
-165.92896
 20
144.1147
 40
5.7617307
 50
274.47946
 51
306.00833
  0
ARC
  8
0
  6
CONTINUOUS
 62
     7
 10
-165.92896
 20
144.1147
 40
4.8617306
 50
275.31088
 51
306.00833
  0
ARC
  8
0
  6
CONTINUOUS
 62
     7
 10
-165.92895
 20
139.16124
 40
5.7617307
 50
94.479452
 51
126.00833
  0
LINE
  8
0
  6
CONTINUOUS
 62
     7
 10
53.238404
 20
129.35397
 11
53.238404
 21
130.58657
  0
LINE
  8
0
  6
CONTINUOUS
 62
     7
 10
54.138404
 20
129.35397
 11
54.138404
 21
130.58657
  0
LINE
  8
0
  6
CONTINUOUS
 62
     7
 10
54.138404
 20
137.12137
 11
54.138404
 21
138.35397
  0
LINE
  8
0
  6
CONTINUOUS
 62
     7
 10
53.238404
 20
137.12137
 11
53.238404
 21
138.35397
  0
LINE
  8
0
  6
CONTINUOUS
 62
     7
 10
54.138404
 20
131.48984
 11
54.138404
 21
133.85397
  0
LINE
  8
0
  6
CONTINUOUS
 62
     7
 10
53.238404
 20
131.48984
 11
53.238404
 21
133.85397
  0
ARC
  8
0
  6
CONTINUOUS
 62
     7
 10
51.888404
 20
133.85397
 40
1.8
 50
126.00833
 51
233.99168
  0
ARC
  8
0
  6
CONTINUOUS
 62
     7
 10
51.888404
 20
133.85397
 40
2.7
 50
126.00833
 51
233.99168
  0
ARC
  8
0
  6
CONTINUOUS
 62
     7
 10
55.488404
 20
133.85397
 40
1.8
 50
306.00833
 51
53.991686
  0
ARC
  8
0
  6
CONTINUOUS
 62
     7
 10
55.488404
 20
133.85397
 40
2.7
 50
306.00833
 51
53.991686
  0
ARC
  8
0
  6
CONTINUOUS
 62
     7
 10
53.688404
 20
136.3307
 40
5.7617307
 50
233.99168
 51
265.52056
  0
ARC
  8
0
  6
CONTINUOUS
 62
     7
 10
53.688404
 20
136.3307
 40
4.8617306
 50
233.99168
 51
264.68913
  0
ARC
  8
0
  6
CONTINUOUS
 62
     7
 10
53.688404
 20
131.37724
 40
4.8617306
 50
53.991676
 51
126.00833
  0
ARC
  8
0
  6
CONTINUOUS
 62
     7
 10
53.688404
 20
131.37724
 40
5.7617307
 50
53.991676
 51
85.520553
  0
ARC
  8
0
  6
CONTINUOUS
 62
     7
 10
53.688404
 20
129.69147
 40
0.5625
 50
216.8699
 51
323.1301
  0
ARC
  8
0
  6
CONTINUOUS
 62
     7
 10
53.688404
 20
133.51647
 40
0.5625
 50
36.869908
 51
143.13011
  0
ARC
  8
0
  6
CONTINUOUS
 62
     7
 10
53.688404
 20
138.01647
 40
0.5625
 50
36.869908
 51
143.13011
  0
ARC
  8
0
  6
CONTINUOUS
 62
     7
 10
53.688404
 20
136.3307
 40
5.7617307
 50
274.47946
 51
306.00833
  0
ARC
  8
0
  6
CONTINUOUS
 62
     7
 10
53.688404
 20
136.3307
 40
4.8617306
 50
275.31088
 51
306.00833
  0
ARC
  8
0
  6
CONTINUOUS
 62
     7
 10
53.688404
 20
131.37724
 40
5.7617307
 50
94.479452
 51
126.00833
  0
LINE
  8
0
  6
CONTINUOUS
 62
     7
 10
-179.93717
 20
10.912845
 11
-179.93717
 21
12.145444
  0
LINE
  8
0
  6
CONTINUOUS
 62
     7
 10
-179.03717
 20
10.912845
 11
-179.03717
 21
12.145444
  0
LINE
  8
0
  6
CONTINUOUS
 62
     7
 10
-179.03717
 20
18.680245
 11
-179.03717
 21
19.912845
  0
LINE
  8
0
  6
CONTINUOUS
 62
     7
 10
-179.93717
 20
18.680245
 11
-179.93717
 21
19.912845
  0
LINE
  8
0
  6
CONTINUOUS
 62
     7
 10
-179.03717
 20
13.048715
 11
-179.03717
 21
15.412845
  0
LINE
  8
0
  6
CONTINUOUS
 62
     7
 10
-179.93717
 20
13.048715
 11
-179.93717
 21
15.412845
  0
ARC
  8
0
  6
CONTINUOUS
 62
     7
 10
-181.28717
 20
15.412845
 40
1.8
 50
126.00833
 51
233.99168
  0
ARC
  8
0
  6
CONTINUOUS
 62
     7
 10
-181.28717
 20
15.412845
 40
2.7
 50
126.00833
 51
233.99168
  0
ARC
  8
0
  6
CONTINUOUS
 62
     7
 10
-177.68717
 20
15.412845
 40
1.8
 50
306.00833
 51
53.991686
  0
ARC
  8
0
  6
CONTINUOUS
 62
     7
 10
-177.68717
 20
15.412845
 40
2.7
 50
306.00833
 51
53.991686
  0
ARC
  8
0
  6
CONTINUOUS
 62
     7
 10
-179.48717
 20
17.889575
 40
5.7617307
 50
233.99168
 51
265.52056
  0
ARC
  8
0
  6
CONTINUOUS
 62
     7
 10
-179.48717
 20
17.889575
 40
4.8617306
 50
233.99168
 51
264.68913
  0
ARC
  8
0
  6
CONTINUOUS
 62
     7
 10
-179.48717
 20
12.936114
 40
4.8617306
 50
53.991676
 51
126.00833
  0
ARC
  8
0
  6
CONTINUOUS
 62
     7
 10
-179.48717
 20
12.936114
 40
5.7617307
 50
53.991676
 51
85.520553
  0
ARC
  8
0
  6
CONTINUOUS
 62
     7
 10
-179.48717
 20
11.250345
 40
0.5625
 50
216.8699
 51
323.1301
  0
ARC
  8
0
  6
CONTINUOUS
 62
     7
 10
-179.48717
 20
15.075345
 40
0.5625
 50
36.869908
 51
143.13011
  0
ARC
  8
0
  6
CONTINUOUS
 62
     7
 10
-179.48717
 20
19.575345
 40
0.5625
 50
36.869908
 51
143.13011
  0
ARC
  8
0
  6
CONTINUOUS
 62
     7
 10
-179.48717
 20
17.889575
 40
5.7617307
 50
274.47946
 51
306.00833
  0
ARC
  8
0
  6
CONTINUOUS
 62
     7
 10
-179.48717
 20
17.889575
 40
4.8617306
 50
275.31088
 51
306.00833
  0
ARC
  8
0
  6
CONTINUOUS
 62
     7
 10
-179.48717
 20
12.936114
 40
5.7617307
 50
94.479452
 51
126.00833
  0
LINE
  8
0
  6
CONTINUOUS
 62
     7
 10
96.626273
 20
7.9089679
 11
96.626273
 21
9.5524344
  0
LINE
  8
0
  6
CONTINUOUS
 62
     7
 10
97.826273
 20
7.908968
 11
97.826273
 21
9.5524345
  0
LINE
  8
0
  6
CONTINUOUS
 62
     7
 10
97.826272
 20
18.265502
 11
97.826272
 21
19.908968
  0
LINE
  8
0
  6
CONTINUOUS
 62
     7
 10
96.626272
 20
18.265501
 11
96.626272
 21
19.908968
  0
LINE
  8
0
  6
CONTINUOUS
 62
     7
 10
97.826273
 20
10.756796
 11
97.826273
 21
13.908968
  0
LINE
  8
0
  6
CONTINUOUS
 62
     7
 10
96.626273
 20
10.756796
 11
96.626273
 21
13.908968
  0
ARC
  8
0
  6
CONTINUOUS
 62
     7
 10
94.826272
 20
13.908968
 40
2.4000001
 50
126.00833
 51
233.99168
  0
ARC
  8
0
  6
CONTINUOUS
 62
     7
 10
94.826272
 20
13.908968
 40
3.5999999
 50
126.00833
 51
233.99168
  0
ARC
  8
0
  6
CONTINUOUS
 62
     7
 10
99.626273
 20
13.908968
 40
2.4000001
 50
306.00833
 51
53.991686
  0
ARC
  8
0
  6
CONTINUOUS
 62
     7
 10
99.626273
 20
13.908968
 40
3.5999999
 50
306.00833
 51
53.991686
  0
ARC
  8
0
  6
CONTINUOUS
 62
     7
 10
97.226272
 20
17.211276
 40
7.6823077
 50
233.99168
 51
265.52056
  0
ARC
  8
0
  6
CONTINUOUS
 62
     7
 10
97.226272
 20
17.211276
 40
6.4823079
 50
233.99168
 51
264.68913
  0
ARC
  8
0
  6
CONTINUOUS
 62
     7
 10
97.226273
 20
10.60666
 40
6.4823079
 50
53.991676
 51
126.00833
  0
ARC
  8
0
  6
CONTINUOUS
 62
     7
 10
97.226273
 20
10.60666
 40
7.6823077
 50
53.991676
 51
85.520553
  0
ARC
  8
0
  6
CONTINUOUS
 62
     7
 10
97.226273
 20
8.3589678
 40
0.75
 50
216.8699
 51
323.1301
  0
ARC
  8
0
  6
CONTINUOUS
 62
     7
 10
97.226273
 20
13.458968
 40
0.75
 50
36.869908
 51
143.13011
  0
ARC
  8
0
  6
CONTINUOUS
 62
     7
 10
97.226272
 20
19.458968
 40
0.75
 50
36.869908
 51
143.13011
  0
ARC
  8
0
  6
CONTINUOUS
 62
     7
 10
97.226272
 20
17.211276
 40
6.4823079
 50
275.31088
 51
306.00833
  0
ARC
  8
0
  6
CONTINUOUS
 62
     7
 10
97.226272
 20
17.211276
 40
7.6823077
 50
274.47946
 51
306.00833
  0
ARC
  8
0
  6
CONTINUOUS
 62
     7
 10
97.226273
 20
10.60666
 40
7.6823077
 50
94.479452
 51
126.00833
  0
LINE
  8
0
  6
CONTINUOUS
 62
     7
 10
-180.8581
 20
-127.44
 11
-180.8581
 21
-125.79654
  0
LINE
  8
0
  6
CONTINUOUS
 62
     7
 10
-179.6581
 20
-127.44
 11
-179.6581
 21
-125.79654
  0
LINE
  8
0
  6
CONTINUOUS
 62
     7
 10
-179.6581
 20
-117.08347
 11
-179.6581
 21
-115.44
  0
LINE
  8
0
  6
CONTINUOUS
 62
     7
 10
-180.8581
 20
-117.08347
 11
-180.8581
 21
-115.44
  0
LINE
  8
0
  6
CONTINUOUS
 62
     7
 10
-179.6581
 20
-124.59217
 11
-179.6581
 21
-121.44
  0
LINE
  8
0
  6
CONTINUOUS
 62
     7
 10
-180.8581
 20
-124.59217
 11
-180.8581
 21
-121.44
  0
ARC
  8
0
  6
CONTINUOUS
 62
     7
 10
-182.6581
 20
-121.44
 40
2.4000001
 50
126.00833
 51
233.99168
  0
ARC
  8
0
  6
CONTINUOUS
 62
     7
 10
-182.6581
 20
-121.44
 40
3.5999999
 50
126.00833
 51
233.99168
  0
ARC
  8
0
  6
CONTINUOUS
 62
     7
 10
-177.8581
 20
-121.44
 40
2.4000001
 50
306.00833
 51
53.991686
  0
ARC
  8
0
  6
CONTINUOUS
 62
     7
 10
-177.8581
 20
-121.44
 40
3.5999999
 50
306.00833
 51
53.991686
  0
ARC
  8
0
  6
CONTINUOUS
 62
     7
 10
-180.2581
 20
-118.13769
 40
7.6823077
 50
233.99168
 51
265.52056
  0
ARC
  8
0
  6
CONTINUOUS
 62
     7
 10
-180.2581
 20
-118.13769
 40
6.4823079
 50
233.99168
 51
264.68913
  0
ARC
  8
0
  6
CONTINUOUS
 62
     7
 10
-180.2581
 20
-124.74231
 40
6.4823079
 50
53.991676
 51
126.00833
  0
ARC
  8
0
  6
CONTINUOUS
 62
     7
 10
-180.2581
 20
-124.74231
 40
7.6823077
 50
53.991676
 51
85.520553
  0
ARC
  8
0
  6
CONTINUOUS
 62
     7
 10
-180.2581
 20
-126.99
 40
0.75
 50
216.8699
 51
323.1301
  0
ARC
  8
0
  6
CONTINUOUS
 62
     7
 10
-180.2581
 20
-121.89
 40
0.75
 50
36.869908
 51
143.13011
  0
ARC
  8
0
  6
CONTINUOUS
 62
     7
 10
-180.2581
 20
-115.89
 40
0.75
 50
36.869908
 51
143.13011
  0
ARC
  8
0
  6
CONTINUOUS
 62
     7
 10
-180.2581
 20
-118.13769
 40
6.4823079
 50
275.31088
 51
306.00833
  0
ARC
  8
0
  6
CONTINUOUS
 62
     7
 10
-180.2581
 20
-118.13769
 40
7.6823077
 50
274.47946
 51
306.00833
  0
ARC
  8
0
  6
CONTINUOUS
 62
     7
 10
-180.2581
 20
-124.74231
 40
7.6823077
 50
94.479452
 51
126.00833
  0
LINE
  8
0
  6
CONTINUOUS
 62
     7
 10
68.275865
 20
-125.93613
 11
68.275865
 21
-124.29266
  0
LINE
  8
0
  6
CONTINUOUS
 62
     7
 10
67.075865
 20
-125.93613
 11
67.075865
 21
-124.29266
  0
LINE
  8
0
  6
CONTINUOUS
 62
     7
 10
67.075865
 20
-115.57959
 11
67.075865
 21
-113.93613
  0
LINE
  8
0
  6
CONTINUOUS
 62
     7
 10
68.275865
 20
-115.57959
 11
68.275865
 21
-113.93613
  0
LINE
  8
0
  6
CONTINUOUS
 62
     7
 10
67.075865
 20
-123.0883
 11
67.075865
 21
-119.93613
  0
LINE
  8
0
  6
CONTINUOUS
 62
     7
 10
68.275865
 20
-123.0883
 11
68.275865
 21
-119.93613
  0
ARC
  8
0
  6
CONTINUOUS
 62
     7
 10
70.075865
 20
-119.93613
 40
2.4000001
 50
306.00832
 51
53.991676
  0
ARC
  8
0
  6
CONTINUOUS
 62
     7
 10
70.075865
 20
-119.93613
 40
3.5999999
 50
306.00832
 51
53.991676
  0
ARC
  8
0
  6
CONTINUOUS
 62
     7
 10
65.275865
 20
-119.93613
 40
2.4000001
 50
126.00833
 51
233.99168
  0
ARC
  8
0
  6
CONTINUOUS
 62
     7
 10
65.275865
 20
-119.93613
 40
3.5999999
 50
126.00833
 51
233.99168
  0
ARC
  8
0
  6
CONTINUOUS
 62
     7
 10
67.675865
 20
-116.63382
 40
7.6823077
 50
53.991676
 51
85.520553
  0
ARC
  8
0
  6
CONTINUOUS
 62
     7
 10
67.675865
 20
-116.63382
 40
6.4823079
 50
53.991676
 51
84.689121
  0
ARC
  8
0
  6
CONTINUOUS
 62
     7
 10
67.675865
 20
-123.23843
 40
6.4823079
 50
233.99167
 51
306.00832
  0
ARC
  8
0
  6
CONTINUOUS
 62
     7
 10
67.675865
 20
-123.23843
 40
7.6823077
 50
233.99167
 51
265.52055
  0
ARC
  8
0
  6
CONTINUOUS
 62
     7
 10
67.675865
 20
-125.48613
 40
0.75
 50
36.869897
 51
143.1301
  0
ARC
  8
0
  6
CONTINUOUS
 62
     7
 10
67.675865
 20
-120.38613
 40
0.75
 50
216.8699
 51
323.1301
  0
ARC
  8
0
  6
CONTINUOUS
 62
     7
 10
67.675865
 20
-114.38613
 40
0.75
 50
216.8699
 51
323.1301
  0
ARC
  8
0
  6
CONTINUOUS
 62
     7
 10
67.675865
 20
-116.63382
 40
6.4823079
 50
95.310878
 51
126.00833
  0
ARC
  8
0
  6
CONTINUOUS
 62
     7
 10
67.675865
 20
-116.63382
 40
7.6823077
 50
94.479452
 51
126.00833
  0
ARC
  8
0
  6
CONTINUOUS
 62
     7
 10
67.675865
 20
-123.23843
 40
7.6823077
 50
274.47945
 51
306.00832
  0
LINE
  8
0
  6
CONTINUOUS
 62
     7
 10
-201.25378
 20
-324.50641
 11
-201.25378
 21
-322.86294
  0
LINE
  8
0
  6
CONTINUOUS
 62
     7
 10
-202.45378
 20
-324.50641
 11
-202.45378
 21
-322.86294
  0
LINE
  8
0
  6
CONTINUOUS
 62
     7
 10
-202.45378
 20
-314.14988
 11
-202.45378
 21
-312.50641
  0
LINE
  8
0
  6
CONTINUOUS
 62
     7
 10
-201.25378
 20
-314.14988
 11
-201.25378
 21
-312.50641
  0
LINE
  8
0
  6
CONTINUOUS
 62
     7
 10
-202.45378
 20
-321.65858
 11
-202.45378
 21
-318.50641
  0
LINE
  8
0
  6
CONTINUOUS
 62
     7
 10
-201.25378
 20
-321.65858
 11
-201.25378
 21
-318.50641
  0
ARC
  8
0
  6
CONTINUOUS
 62
     7
 10
-199.45377
 20
-318.50641
 40
2.4000001
 50
306.00832
 51
53.991676
  0
ARC
  8
0
  6
CONTINUOUS
 62
     7
 10
-199.45377
 20
-318.50641
 40
3.5999999
 50
306.00832
 51
53.991676
  0
ARC
  8
0
  6
CONTINUOUS
 62
     7
 10
-204.25378
 20
-318.50641
 40
2.4000001
 50
126.00833
 51
233.99168
  0
ARC
  8
0
  6
CONTINUOUS
 62
     7
 10
-204.25378
 20
-318.50641
 40
3.5999999
 50
126.00833
 51
233.99168
  0
ARC
  8
0
  6
CONTINUOUS
 62
     7
 10
-201.85378
 20
-315.2041
 40
7.6823077
 50
53.991676
 51
85.520553
  0
ARC
  8
0
  6
CONTINUOUS
 62
     7
 10
-201.85378
 20
-315.2041
 40
6.4823079
 50
53.991676
 51
84.689121
  0
ARC
  8
0
  6
CONTINUOUS
 62
     7
 10
-201.85378
 20
-321.80872
 40
6.4823079
 50
233.99167
 51
306.00832
  0
ARC
  8
0
  6
CONTINUOUS
 62
     7
 10
-201.85378
 20
-321.80872
 40
7.6823077
 50
233.99167
 51
265.52055
  0
ARC
  8
0
  6
CONTINUOUS
 62
     7
 10
-201.85378
 20
-324.05641
 40
0.75
 50
36.869897
 51
143.1301
  0
ARC
  8
0
  6
CONTINUOUS
 62
     7
 10
-201.85378
 20
-318.95641
 40
0.75
 50
216.8699
 51
323.1301
  0
ARC
  8
0
  6
CONTINUOUS
 62
     7
 10
-201.85378
 20
-312.95641
 40
0.75
 50
216.8699
 51
323.1301
  0
ARC
  8
0
  6
CONTINUOUS
 62
     7
 10
-201.85378
 20
-315.2041
 40
6.4823079
 50
95.310878
 51
126.00833
  0
ARC
  8
0
  6
CONTINUOUS
 62
     7
 10
-201.85378
 20
-315.2041
 40
7.6823077
 50
94.479452
 51
126.00833
  0
ARC
  8
0
  6
CONTINUOUS
 62
     7
 10
-201.85378
 20
-321.80872
 40
7.6823077
 50
274.47945
 51
306.00832
  0
LINE
  8
0
  6
CONTINUOUS
 62
     7
 10
702.41787
 20
-342.8736
 11
702.41787
 21
-341.23013
  0
LINE
  8
0
  6
CONTINUOUS
 62
     7
 10
701.21787
 20
-342.8736
 11
701.21787
 21
-341.23013
  0
LINE
  8
0
  6
CONTINUOUS
 62
     7
 10
701.21787
 20
-332.51706
 11
701.21787
 21
-330.8736
  0
LINE
  8
0
  6
CONTINUOUS
 62
     7
 10
702.41787
 20
-332.51706
 11
702.41787
 21
-330.8736
  0
LINE
  8
0
  6
CONTINUOUS
 62
     7
 10
701.21787
 20
-340.02577
 11
701.21787
 21
-336.8736
  0
LINE
  8
0
  6
CONTINUOUS
 62
     7
 10
702.41787
 20
-340.02577
 11
702.41787
 21
-336.8736
  0
ARC
  8
0
  6
CONTINUOUS
 62
     7
 10
704.21787
 20
-336.8736
 40
2.4000001
 50
306.00832
 51
53.991676
  0
ARC
  8
0
  6
CONTINUOUS
 62
     7
 10
704.21787
 20
-336.8736
 40
3.5999999
 50
306.00832
 51
53.991676
  0
ARC
  8
0
  6
CONTINUOUS
 62
     7
 10
699.41787
 20
-336.8736
 40
2.4000001
 50
126.00833
 51
233.99168
  0
ARC
  8
0
  6
CONTINUOUS
 62
     7
 10
699.41787
 20
-336.8736
 40
3.5999999
 50
126.00833
 51
233.99168
  0
ARC
  8
0
  6
CONTINUOUS
 62
     7
 10
701.81787
 20
-333.57129
 40
7.6823077
 50
53.991676
 51
85.520553
  0
ARC
  8
0
  6
CONTINUOUS
 62
     7
 10
701.81787
 20
-333.57129
 40
6.4823079
 50
53.991676
 51
84.689121
  0
ARC
  8
0
  6
CONTINUOUS
 62
     7
 10
701.81787
 20
-340.1759
 40
6.4823079
 50
233.99167
 51
306.00832
  0
ARC
  8
0
  6
CONTINUOUS
 62
     7
 10
701.81787
 20
-340.1759
 40
7.6823077
 50
233.99167
 51
265.52055
  0
ARC
  8
0
  6
CONTINUOUS
 62
     7
 10
701.81787
 20
-342.4236
 40
0.75
 50
36.869897
 51
143.1301
  0
ARC
  8
0
  6
CONTINUOUS
 62
     7
 10
701.81787
 20
-337.3236
 40
0.75
 50
216.8699
 51
323.1301
  0
ARC
  8
0
  6
CONTINUOUS
 62
     7
 10
701.81787
 20
-331.3236
 40
0.75
 50
216.8699
 51
323.1301
  0
ARC
  8
0
  6
CONTINUOUS
 62
     7
 10
701.81787
 20
-333.57129
 40
6.4823079
 50
95.310878
 51
126.00833
  0
ARC
  8
0
  6
CONTINUOUS
 62
     7
 10
701.81787
 20
-333.57129
 40
7.6823077
 50
94.479452
 51
126.00833
  0
ARC
  8
0
  6
CONTINUOUS
 62
     7
 10
701.81787
 20
-340.1759
 40
7.6823077
 50
274.47945
 51
306.00832
  0
LINE
  8
0
  6
CONTINUOUS
 62
     7
 10
419.39239
 20
-528.12769
 11
419.39239
 21
-526.48422
  0
LINE
  8
0
  6
CONTINUOUS
 62
     7
 10
418.19239
 20
-528.12769
 11
418.19239
 21
-526.48422
  0
LINE
  8
0
  6
CONTINUOUS
 62
     7
 10
418.19239
 20
-517.77115
 11
418.19239
 21
-516.12769
  0
LINE
  8
0
  6
CONTINUOUS
 62
     7
 10
419.39239
 20
-517.77115
 11
419.39239
 21
-516.12769
  0
LINE
  8
0
  6
CONTINUOUS
 62
     7
 10
418.19239
 20
-525.27986
 11
418.19239
 21
-522.12769
  0
LINE
  8
0
  6
CONTINUOUS
 62
     7
 10
419.39239
 20
-525.27986
 11
419.39239
 21
-522.12769
  0
ARC
  8
0
  6
CONTINUOUS
 62
     7
 10
421.19239
 20
-522.12769
 40
2.4000001
 50
306.00832
 51
53.991676
  0
ARC
  8
0
  6
CONTINUOUS
 62
     7
 10
421.19239
 20
-522.12769
 40
3.5999999
 50
306.00832
 51
53.991676
  0
ARC
  8
0
  6
CONTINUOUS
 62
     7
 10
416.39239
 20
-522.12769
 40
2.4000001
 50
126.00833
 51
233.99168
  0
ARC
  8
0
  6
CONTINUOUS
 62
     7
 10
416.39239
 20
-522.12769
 40
3.5999999
 50
126.00833
 51
233.99168
  0
ARC
  8
0
  6
CONTINUOUS
 62
     7
 10
418.79239
 20
-518.82538
 40
7.6823077
 50
53.991676
 51
85.520553
  0
ARC
  8
0
  6
CONTINUOUS
 62
     7
 10
418.79239
 20
-518.82538
 40
6.4823079
 50
53.991676
 51
84.689121
  0
ARC
  8
0
  6
CONTINUOUS
 62
     7
 10
418.79239
 20
-525.42999
 40
6.4823079
 50
233.99167
 51
306.00832
  0
ARC
  8
0
  6
CONTINUOUS
 62
     7
 10
418.79239
 20
-525.42999
 40
7.6823077
 50
233.99167
 51
265.52055
  0
ARC
  8
0
  6
CONTINUOUS
 62
     7
 10
418.79239
 20
-527.67769
 40
0.75
 50
36.869897
 51
143.1301
  0
ARC
  8
0
  6
CONTINUOUS
 62
     7
 10
418.79239
 20
-522.57769
 40
0.75
 50
216.8699
 51
323.1301
  0
ARC
  8
0
  6
CONTINUOUS
 62
     7
 10
418.79239
 20
-516.57769
 40
0.75
 50
216.8699
 51
323.1301
  0
ARC
  8
0
  6
CONTINUOUS
 62
     7
 10
418.79239
 20
-518.82538
 40
6.4823079
 50
95.310878
 51
126.00833
  0
ARC
  8
0
  6
CONTINUOUS
 62
     7
 10
418.79239
 20
-518.82538
 40
7.6823077
 50
94.479452
 51
126.00833
  0
ARC
  8
0
  6
CONTINUOUS
 62
     7
 10
418.79239
 20
-525.42999
 40
7.6823077
 50
274.47945
 51
306.00832
  0
LINE
  8
0
  6
CONTINUOUS
 62
     7
 10
704.07418
 20
-521.08673
 11
704.07418
 21
-519.44326
  0
LINE
  8
0
  6
CONTINUOUS
 62
     7
 10
702.87418
 20
-521.08673
 11
702.87418
 21
-519.44326
  0
LINE
  8
0
  6
CONTINUOUS
 62
     7
 10
702.87418
 20
-510.7302
 11
702.87418
 21
-509.08673
  0
LINE
  8
0
  6
CONTINUOUS
 62
     7
 10
704.07418
 20
-510.7302
 11
704.07418
 21
-509.08673
  0
LINE
  8
0
  6
CONTINUOUS
 62
     7
 10
702.87418
 20
-518.2389
 11
702.87418
 21
-515.08673
  0
LINE
  8
0
  6
CONTINUOUS
 62
     7
 10
704.07418
 20
-518.2389
 11
704.07418
 21
-515.08673
  0
ARC
  8
0
  6
CONTINUOUS
 62
     7
 10
705.87418
 20
-515.08673
 40
2.4000001
 50
306.00832
 51
53.991676
  0
ARC
  8
0
  6
CONTINUOUS
 62
     7
 10
705.87418
 20
-515.08673
 40
3.5999999
 50
306.00832
 51
53.991676
  0
ARC
  8
0
  6
CONTINUOUS
 62
     7
 10
701.07418
 20
-515.08673
 40
2.4000001
 50
126.00833
 51
233.99168
  0
ARC
  8
0
  6
CONTINUOUS
 62
     7
 10
701.07418
 20
-515.08673
 40
3.5999999
 50
126.00833
 51
233.99168
  0
ARC
  8
0
  6
CONTINUOUS
 62
     7
 10
703.47418
 20
-511.78442
 40
7.6823077
 50
53.991676
 51
85.520553
  0
ARC
  8
0
  6
CONTINUOUS
 62
     7
 10
703.47418
 20
-511.78442
 40
6.4823079
 50
53.991676
 51
84.689121
  0
ARC
  8
0
  6
CONTINUOUS
 62
     7
 10
703.47418
 20
-518.38904
 40
6.4823079
 50
233.99167
 51
306.00832
  0
ARC
  8
0
  6
CONTINUOUS
 62
     7
 10
703.47418
 20
-518.38904
 40
7.6823077
 50
233.99167
 51
265.52055
  0
ARC
  8
0
  6
CONTINUOUS
 62
     7
 10
703.47418
 20
-520.63673
 40
0.75
 50
36.869897
 51
143.1301
  0
ARC
  8
0
  6
CONTINUOUS
 62
     7
 10
703.47418
 20
-515.53673
 40
0.75
 50
216.8699
 51
323.1301
  0
ARC
  8
0
  6
CONTINUOUS
 62
     7
 10
703.47418
 20
-509.53673
 40
0.75
 50
216.8699
 51
323.1301
  0
ARC
  8
0
  6
CONTINUOUS
 62
     7
 10
703.47418
 20
-511.78442
 40
6.4823079
 50
95.310878
 51
126.00833
  0
ARC
  8
0
  6
CONTINUOUS
 62
     7
 10
703.47418
 20
-511.78442
 40
7.6823077
 50
94.479452
 51
126.00833
  0
ARC
  8
0
  6
CONTINUOUS
 62
     7
 10
703.47418
 20
-518.38904
 40
7.6823077
 50
274.47945
 51
306.00832
  0
LINE
  8
0
  6
CONTINUOUS
 62
     7
 10
403.44839
 20
-777.15771
 11
403.44839
 21
-775.51425
  0
LINE
  8
0
  6
CONTINUOUS
 62
     7
 10
402.24839
 20
-777.15771
 11
402.24839
 21
-775.51425
  0
LINE
  8
0
  6
CONTINUOUS
 62
     7
 10
402.24839
 20
-766.80118
 11
402.24839
 21
-765.15771
  0
LINE
  8
0
  6
CONTINUOUS
 62
     7
 10
403.44839
 20
-766.80118
 11
403.44839
 21
-765.15771
  0
LINE
  8
0
  6
CONTINUOUS
 62
     7
 10
402.24839
 20
-774.30989
 11
402.24839
 21
-771.15771
  0
LINE
  8
0
  6
CONTINUOUS
 62
     7
 10
403.44839
 20
-774.30989
 11
403.44839
 21
-771.15771
  0
ARC
  8
0
  6
CONTINUOUS
 62
     7
 10
405.24839
 20
-771.15771
 40
2.4000001
 50
306.00832
 51
53.991676
  0
ARC
  8
0
  6
CONTINUOUS
 62
     7
 10
405.24839
 20
-771.15771
 40
3.5999999
 50
306.00832
 51
53.991676
  0
ARC
  8
0
  6
CONTINUOUS
 62
     7
 10
400.44839
 20
-771.15771
 40
2.4000001
 50
126.00833
 51
233.99168
  0
ARC
  8
0
  6
CONTINUOUS
 62
     7
 10
400.44839
 20
-771.15771
 40
3.5999999
 50
126.00833
 51
233.99168
  0
ARC
  8
0
  6
CONTINUOUS
 62
     7
 10
402.84839
 20
-767.85541
 40
7.6823077
 50
53.991676
 51
85.520553
  0
ARC
  8
0
  6
CONTINUOUS
 62
     7
 10
402.84839
 20
-767.85541
 40
6.4823079
 50
53.991676
 51
84.689121
  0
ARC
  8
0
  6
CONTINUOUS
 62
     7
 10
402.84839
 20
-774.46002
 40
6.4823079
 50
233.99167
 51
306.00832
  0
ARC
  8
0
  6
CONTINUOUS
 62
     7
 10
402.84839
 20
-774.46002
 40
7.6823077
 50
233.99167
 51
265.52055
  0
ARC
  8
0
  6
CONTINUOUS
 62
     7
 10
402.84839
 20
-776.70772
 40
0.75
 50
36.869897
 51
143.1301
  0
ARC
  8
0
  6
CONTINUOUS
 62
     7
 10
402.84839
 20
-771.60771
 40
0.75
 50
216.8699
 51
323.1301
  0
ARC
  8
0
  6
CONTINUOUS
 62
     7
 10
402.84839
 20
-765.60771
 40
0.75
 50
216.8699
 51
323.1301
  0
ARC
  8
0
  6
CONTINUOUS
 62
     7
 10
402.84839
 20
-767.85541
 40
6.4823079
 50
95.310878
 51
126.00833
  0
ARC
  8
0
  6
CONTINUOUS
 62
     7
 10
402.84839
 20
-767.85541
 40
7.6823077
 50
94.479452
 51
126.00833
  0
ARC
  8
0
  6
CONTINUOUS
 62
     7
 10
402.84839
 20
-774.46002
 40
7.6823077
 50
274.47945
 51
306.00832
  0
LINE
  8
0
  6
CONTINUOUS
 62
     7
 10
692.71804
 20
-775.63928
 11
692.71804
 21
-773.99582
  0
LINE
  8
0
  6
CONTINUOUS
 62
     7
 10
691.51804
 20
-775.63928
 11
691.51804
 21
-773.99582
  0
LINE
  8
0
  6
CONTINUOUS
 62
     7
 10
691.51804
 20
-765.28275
 11
691.51804
 21
-763.63928
  0
LINE
  8
0
  6
CONTINUOUS
 62
     7
 10
692.71804
 20
-765.28275
 11
692.71804
 21
-763.63928
  0
LINE
  8
0
  6
CONTINUOUS
 62
     7
 10
691.51804
 20
-772.79145
 11
691.51804
 21
-769.63928
  0
LINE
  8
0
  6
CONTINUOUS
 62
     7
 10
692.71804
 20
-772.79145
 11
692.71804
 21
-769.63928
  0
ARC
  8
0
  6
CONTINUOUS
 62
     7
 10
694.51804
 20
-769.63928
 40
2.4000001
 50
306.00832
 51
53.991676
  0
ARC
  8
0
  6
CONTINUOUS
 62
     7
 10
694.51804
 20
-769.63928
 40
3.5999999
 50
306.00832
 51
53.991676
  0
ARC
  8
0
  6
CONTINUOUS
 62
     7
 10
689.71804
 20
-769.63928
 40
2.4000001
 50
126.00833
 51
233.99168
  0
ARC
  8
0
  6
CONTINUOUS
 62
     7
 10
689.71804
 20
-769.63928
 40
3.5999999
 50
126.00833
 51
233.99168
  0
ARC
  8
0
  6
CONTINUOUS
 62
     7
 10
692.11804
 20
-766.33697
 40
7.6823077
 50
53.991676
 51
85.520553
  0
ARC
  8
0
  6
CONTINUOUS
 62
     7
 10
692.11804
 20
-766.33697
 40
6.4823079
 50
53.991676
 51
84.689121
  0
ARC
  8
0
  6
CONTINUOUS
 62
     7
 10
692.11804
 20
-772.94159
 40
6.4823079
 50
233.99167
 51
306.00832
  0
ARC
  8
0
  6
CONTINUOUS
 62
     7
 10
692.11804
 20
-772.94159
 40
7.6823077
 50
233.99167
 51
265.52055
  0
ARC
  8
0
  6
CONTINUOUS
 62
     7
 10
692.11804
 20
-775.18928
 40
0.75
 50
36.869897
 51
143.1301
  0
ARC
  8
0
  6
CONTINUOUS
 62
     7
 10
692.11804
 20
-770.08928
 40
0.75
 50
216.8699
 51
323.1301
  0
ARC
  8
0
  6
CONTINUOUS
 62
     7
 10
692.11804
 20
-764.08928
 40
0.75
 50
216.8699
 51
323.1301
  0
ARC
  8
0
  6
CONTINUOUS
 62
     7
 10
692.11804
 20
-766.33697
 40
6.4823079
 50
95.310878
 51
126.00833
  0
ARC
  8
0
  6
CONTINUOUS
 62
     7
 10
692.11804
 20
-766.33697
 40
7.6823077
 50
94.479452
 51
126.00833
  0
ARC
  8
0
  6
CONTINUOUS
 62
     7
 10
692.11804
 20
-772.94159
 40
7.6823077
 50
274.47945
 51
306.00832
  0
LINE
  8
0
  6
CONTINUOUS
 62
     7
 10
422.42932
 20
-986.7074
 11
422.42932
 21
-985.06393
  0
LINE
  8
0
  6
CONTINUOUS
 62
     7
 10
421.22932
 20
-986.7074
 11
421.22932
 21
-985.06393
  0
LINE
  8
0
  6
CONTINUOUS
 62
     7
 10
421.22932
 20
-976.35086
 11
421.22932
 21
-974.7074
  0
LINE
  8
0
  6
CONTINUOUS
 62
     7
 10
422.42932
 20
-976.35086
 11
422.42932
 21
-974.7074
  0
LINE
  8
0
  6
CONTINUOUS
 62
     7
 10
421.22932
 20
-983.85957
 11
421.22932
 21
-980.7074
  0
LINE
  8
0
  6
CONTINUOUS
 62
     7
 10
422.42932
 20
-983.85957
 11
422.42932
 21
-980.7074
  0
ARC
  8
0
  6
CONTINUOUS
 62
     7
 10
424.22932
 20
-980.7074
 40
2.4000001
 50
306.00832
 51
53.991676
  0
ARC
  8
0
  6
CONTINUOUS
 62
     7
 10
424.22932
 20
-980.7074
 40
3.5999999
 50
306.00832
 51
53.991676
  0
ARC
  8
0
  6
CONTINUOUS
 62
     7
 10
419.42932
 20
-980.7074
 40
2.4000001
 50
126.00833
 51
233.99168
  0
ARC
  8
0
  6
CONTINUOUS
 62
     7
 10
419.42932
 20
-980.7074
 40
3.5999999
 50
126.00833
 51
233.99168
  0
ARC
  8
0
  6
CONTINUOUS
 62
     7
 10
421.82932
 20
-977.40509
 40
7.6823077
 50
53.991676
 51
85.520553
  0
ARC
  8
0
  6
CONTINUOUS
 62
     7
 10
421.82932
 20
-977.40509
 40
6.4823079
 50
53.991676
 51
84.689121
  0
ARC
  8
0
  6
CONTINUOUS
 62
     7
 10
421.82932
 20
-984.00971
 40
6.4823079
 50
233.99167
 51
306.00832
  0
ARC
  8
0
  6
CONTINUOUS
 62
     7
 10
421.82932
 20
-984.00971
 40
7.6823077
 50
233.99167
 51
265.52055
  0
ARC
  8
0
  6
CONTINUOUS
 62
     7
 10
421.82932
 20
-986.2574
 40
0.75
 50
36.869897
 51
143.1301
  0
ARC
  8
0
  6
CONTINUOUS
 62
     7
 10
421.82932
 20
-981.1574
 40
0.75
 50
216.8699
 51
323.1301
  0
ARC
  8
0
  6
CONTINUOUS
 62
     7
 10
421.82932
 20
-975.1574
 40
0.75
 50
216.8699
 51
323.1301
  0
ARC
  8
0
  6
CONTINUOUS
 62
     7
 10
421.82932
 20
-977.40509
 40
6.4823079
 50
95.310878
 51
126.00833
  0
ARC
  8
0
  6
CONTINUOUS
 62
     7
 10
421.82932
 20
-977.40509
 40
7.6823077
 50
94.479452
 51
126.00833
  0
ARC
  8
0
  6
CONTINUOUS
 62
     7
 10
421.82932
 20
-984.00971
 40
7.6823077
 50
274.47945
 51
306.00832
  0
LINE
  8
0
  6
CONTINUOUS
 62
     7
 10
709.88033
 20
-986.7074
 11
709.88033
 21
-985.06393
  0
LINE
  8
0
  6
CONTINUOUS
 62
     7
 10
708.68033
 20
-986.7074
 11
708.68033
 21
-985.06393
  0
LINE
  8
0
  6
CONTINUOUS
 62
     7
 10
708.68033
 20
-976.35086
 11
708.68033
 21
-974.7074
  0
LINE
  8
0
  6
CONTINUOUS
 62
     7
 10
709.88033
 20
-976.35086
 11
709.88033
 21
-974.7074
  0
LINE
  8
0
  6
CONTINUOUS
 62
     7
 10
708.68033
 20
-983.85957
 11
708.68033
 21
-980.7074
  0
LINE
  8
0
  6
CONTINUOUS
 62
     7
 10
709.88033
 20
-983.85957
 11
709.88033
 21
-980.7074
  0
ARC
  8
0
  6
CONTINUOUS
 62
     7
 10
711.68033
 20
-980.7074
 40
2.4000001
 50
306.00832
 51
53.991676
  0
ARC
  8
0
  6
CONTINUOUS
 62
     7
 10
711.68033
 20
-980.7074
 40
3.5999999
 50
306.00832
 51
53.991676
  0
ARC
  8
0
  6
CONTINUOUS
 62
     7
 10
706.88033
 20
-980.7074
 40
2.4000001
 50
126.00833
 51
233.99168
  0
ARC
  8
0
  6
CONTINUOUS
 62
     7
 10
706.88033
 20
-980.7074
 40
3.5999999
 50
126.00833
 51
233.99168
  0
ARC
  8
0
  6
CONTINUOUS
 62
     7
 10
709.28033
 20
-977.40509
 40
7.6823077
 50
53.991676
 51
85.520553
  0
ARC
  8
0
  6
CONTINUOUS
 62
     7
 10
709.28033
 20
-977.40509
 40
6.4823079
 50
53.991676
 51
84.689121
  0
ARC
  8
0
  6
CONTINUOUS
 62
     7
 10
709.28033
 20
-984.00971
 40
6.4823079
 50
233.99167
 51
306.00832
  0
ARC
  8
0
  6
CONTINUOUS
 62
     7
 10
709.28033
 20
-984.00971
 40
7.6823077
 50
233.99167
 51
265.52055
  0
ARC
  8
0
  6
CONTINUOUS
 62
     7
 10
709.28033
 20
-986.2574
 40
0.75
 50
36.869897
 51
143.1301
  0
ARC
  8
0
  6
CONTINUOUS
 62
     7
 10
709.28033
 20
-981.1574
 40
0.75
 50
216.8699
 51
323.1301
  0
ARC
  8
0
  6
CONTINUOUS
 62
     7
 10
709.28033
 20
-975.1574
 40
0.75
 50
216.8699
 51
323.1301
  0
ARC
  8
0
  6
CONTINUOUS
 62
     7
 10
709.28033
 20
-977.40509
 40
6.4823079
 50
95.310878
 51
126.00833
  0
ARC
  8
0
  6
CONTINUOUS
 62
     7
 10
709.28033
 20
-977.40509
 40
7.6823077
 50
94.479452
 51
126.00833
  0
ARC
  8
0
  6
CONTINUOUS
 62
     7
 10
709.28033
 20
-984.00971
 40
7.6823077
 50
274.47945
 51
306.00832
  0
LINE
  8
0
  6
CONTINUOUS
 62
     7
 10
530.24111
 20
-1215.9973
 11
530.24111
 21
-1214.3538
  0
LINE
  8
0
  6
CONTINUOUS
 62
     7
 10
529.04111
 20
-1215.9973
 11
529.04111
 21
-1214.3538
  0
LINE
  8
0
  6
CONTINUOUS
 62
     7
 10
529.04111
 20
-1205.6408
 11
529.04111
 21
-1203.9973
  0
LINE
  8
0
  6
CONTINUOUS
 62
     7
 10
530.24111
 20
-1205.6408
 11
530.24111
 21
-1203.9973
  0
LINE
  8
0
  6
CONTINUOUS
 62
     7
 10
529.04111
 20
-1213.1495
 11
529.04111
 21
-1209.9973
  0
LINE
  8
0
  6
CONTINUOUS
 62
     7
 10
530.24111
 20
-1213.1495
 11
530.24111
 21
-1209.9973
  0
ARC
  8
0
  6
CONTINUOUS
 62
     7
 10
532.04111
 20
-1209.9973
 40
2.4000001
 50
306.00832
 51
53.991676
  0
ARC
  8
0
  6
CONTINUOUS
 62
     7
 10
532.04111
 20
-1209.9973
 40
3.5999999
 50
306.00832
 51
53.991676
  0
ARC
  8
0
  6
CONTINUOUS
 62
     7
 10
527.24111
 20
-1209.9973
 40
2.4000001
 50
126.00833
 51
233.99168
  0
ARC
  8
0
  6
CONTINUOUS
 62
     7
 10
527.24111
 20
-1209.9973
 40
3.5999999
 50
126.00833
 51
233.99168
  0
ARC
  8
0
  6
CONTINUOUS
 62
     7
 10
529.64111
 20
-1206.695
 40
7.6823077
 50
53.991676
 51
85.520553
  0
ARC
  8
0
  6
CONTINUOUS
 62
     7
 10
529.64111
 20
-1206.695
 40
6.4823079
 50
53.991676
 51
84.689121
  0
ARC
  8
0
  6
CONTINUOUS
 62
     7
 10
529.64111
 20
-1213.2996
 40
6.4823079
 50
233.99167
 51
306.00832
  0
ARC
  8
0
  6
CONTINUOUS
 62
     7
 10
529.64111
 20
-1213.2996
 40
7.6823077
 50
233.99167
 51
265.52055
  0
ARC
  8
0
  6
CONTINUOUS
 62
     7
 10
529.64111
 20
-1215.5473
 40
0.75
 50
36.869897
 51
143.1301
  0
ARC
  8
0
  6
CONTINUOUS
 62
     7
 10
529.64111
 20
-1210.4473
 40
0.75
 50
216.8699
 51
323.1301
  0
ARC
  8
0
  6
CONTINUOUS
 62
     7
 10
529.64111
 20
-1204.4473
 40
0.75
 50
216.8699
 51
323.1301
  0
ARC
  8
0
  6
CONTINUOUS
 62
     7
 10
529.64111
 20
-1206.695
 40
6.4823079
 50
95.310878
 51
126.00833
  0
ARC
  8
0
  6
CONTINUOUS
 62
     7
 10
529.64111
 20
-1206.695
 40
7.6823077
 50
94.479452
 51
126.00833
  0
ARC
  8
0
  6
CONTINUOUS
 62
     7
 10
529.64111
 20
-1213.2996
 40
7.6823077
 50
274.47945
 51
306.00832
  0
LINE
  8
0
  6
CONTINUOUS
 62
     7
 10
530.39111
 20
-1414.8992
 11
530.39111
 21
-1412.8448
  0
LINE
  8
0
  6
CONTINUOUS
 62
     7
 10
528.89111
 20
-1414.8992
 11
528.89111
 21
-1412.8448
  0
LINE
  8
0
  6
CONTINUOUS
 62
     7
 10
528.89111
 20
-1401.9535
 11
528.89111
 21
-1399.8992
  0
LINE
  8
0
  6
CONTINUOUS
 62
     7
 10
530.39111
 20
-1401.9535
 11
530.39111
 21
-1399.8992
  0
LINE
  8
0
  6
CONTINUOUS
 62
     7
 10
528.89111
 20
-1411.3394
 11
528.89111
 21
-1407.3992
  0
LINE
  8
0
  6
CONTINUOUS
 62
     7
 10
530.39111
 20
-1411.3394
 11
530.39111
 21
-1407.3992
  0
ARC
  8
0
  6
CONTINUOUS
 62
     7
 10
532.64111
 20
-1407.3992
 40
3
 50
306.00832
 51
53.991676
  0
ARC
  8
0
  6
CONTINUOUS
 62
     7
 10
532.64111
 20
-1407.3992
 40
4.5
 50
306.00832
 51
53.991676
  0
ARC
  8
0
  6
CONTINUOUS
 62
     7
 10
526.64111
 20
-1407.3992
 40
3
 50
126.00833
 51
233.99168
  0
ARC
  8
0
  6
CONTINUOUS
 62
     7
 10
526.64111
 20
-1407.3992
 40
4.5
 50
126.00833
 51
233.99168
  0
ARC
  8
0
  6
CONTINUOUS
 62
     7
 10
529.64111
 20
-1403.2713
 40
9.6028843
 50
53.991676
 51
85.520553
  0
ARC
  8
0
  6
CONTINUOUS
 62
     7
 10
529.64111
 20
-1403.2713
 40
8.1028843
 50
53.991676
 51
84.689121
  0
ARC
  8
0
  6
CONTINUOUS
 62
     7
 10
529.64111
 20
-1411.5271
 40
8.1028843
 50
233.99167
 51
306.00832
  0
ARC
  8
0
  6
CONTINUOUS
 62
     7
 10
529.64111
 20
-1411.5271
 40
9.6028843
 50
233.99167
 51
265.52055
  0
ARC
  8
0
  6
CONTINUOUS
 62
     7
 10
529.64111
 20
-1414.3367
 40
0.9375
 50
36.869897
 51
143.1301
  0
ARC
  8
0
  6
CONTINUOUS
 62
     7
 10
529.64111
 20
-1407.9617
 40
0.9375
 50
216.8699
 51
323.1301
  0
ARC
  8
0
  6
CONTINUOUS
 62
     7
 10
529.64111
 20
-1400.4617
 40
0.9375
 50
216.8699
 51
323.1301
  0
ARC
  8
0
  6
CONTINUOUS
 62
     7
 10
529.64111
 20
-1403.2713
 40
9.6028843
 50
94.479452
 51
126.00833
  0
ARC
  8
0
  6
CONTINUOUS
 62
     7
 10
529.64111
 20
-1403.2713
 40
8.1028843
 50
95.310878
 51
126.00833
  0
ARC
  8
0
  6
CONTINUOUS
 62
     7
 10
529.64111
 20
-1411.5271
 40
9.6028843
 50
274.47945
 51
306.00832
  0
LINE
  8
0
  6
CONTINUOUS
 62
     7
 10
528.1134
 20
-1759.5933
 11
528.1134
 21
-1757.5389
  0
LINE
  8
0
  6
CONTINUOUS
 62
     7
 10
526.6134
 20
-1759.5933
 11
526.6134
 21
-1757.5389
  0
LINE
  8
0
  6
CONTINUOUS
 62
     7
 10
526.6134
 20
-1746.6476
 11
526.6134
 21
-1744.5933
  0
LINE
  8
0
  6
CONTINUOUS
 62
     7
 10
528.1134
 20
-1746.6476
 11
528.1134
 21
-1744.5933
  0
LINE
  8
0
  6
CONTINUOUS
 62
     7
 10
526.6134
 20
-1756.0335
 11
526.6134
 21
-1752.0933
  0
LINE
  8
0
  6
CONTINUOUS
 62
     7
 10
528.1134
 20
-1756.0335
 11
528.1134
 21
-1752.0933
  0
ARC
  8
0
  6
CONTINUOUS
 62
     7
 10
530.3634
 20
-1752.0933
 40
3
 50
306.00832
 51
53.991676
  0
ARC
  8
0
  6
CONTINUOUS
 62
     7
 10
530.3634
 20
-1752.0933
 40
4.5
 50
306.00832
 51
53.991676
  0
ARC
  8
0
  6
CONTINUOUS
 62
     7
 10
524.3634
 20
-1752.0933
 40
3
 50
126.00833
 51
233.99168
  0
ARC
  8
0
  6
CONTINUOUS
 62
     7
 10
524.3634
 20
-1752.0933
 40
4.5
 50
126.00833
 51
233.99168
  0
ARC
  8
0
  6
CONTINUOUS
 62
     7
 10
527.3634
 20
-1747.9654
 40
9.6028843
 50
53.991676
 51
85.520553
  0
ARC
  8
0
  6
CONTINUOUS
 62
     7
 10
527.3634
 20
-1747.9654
 40
8.1028843
 50
53.991676
 51
84.689121
  0
ARC
  8
0
  6
CONTINUOUS
 62
     7
 10
527.3634
 20
-1756.2211
 40
8.1028843
 50
233.99167
 51
306.00832
  0
ARC
  8
0
  6
CONTINUOUS
 62
     7
 10
527.3634
 20
-1756.2211
 40
9.6028843
 50
233.99167
 51
265.52055
  0
ARC
  8
0
  6
CONTINUOUS
 62
     7
 10
527.3634
 20
-1759.0308
 40
0.9375
 50
36.869897
 51
143.1301
  0
ARC
  8
0
  6
CONTINUOUS
 62
     7
 10
527.3634
 20
-1752.6558
 40
0.9375
 50
216.8699
 51
323.1301
  0
ARC
  8
0
  6
CONTINUOUS
 62
     7
 10
527.3634
 20
-1745.1558
 40
0.9375
 50
216.8699
 51
323.1301
  0
ARC
  8
0
  6
CONTINUOUS
 62
     7
 10
527.3634
 20
-1747.9654
 40
9.6028843
 50
94.479452
 51
126.00833
  0
ARC
  8
0
  6
CONTINUOUS
 62
     7
 10
527.3634
 20
-1747.9654
 40
8.1028843
 50
95.310878
 51
126.00833
  0
ARC
  8
0
  6
CONTINUOUS
 62
     7
 10
527.3634
 20
-1756.2211
 40
9.6028843
 50
274.47945
 51
306.00832
  0
LINE
  8
0
  6
CONTINUOUS
 62
     7
 10
442.41188
 20
130.89999
 11
442.41188
 21
132.13259
  0
LINE
  8
0
  6
CONTINUOUS
 62
     7
 10
443.31188
 20
130.89999
 11
443.31188
 21
132.13259
  0
LINE
  8
0
  6
CONTINUOUS
 62
     7
 10
443.31188
 20
138.66739
 11
443.31188
 21
139.89999
  0
LINE
  8
0
  6
CONTINUOUS
 62
     7
 10
442.41188
 20
138.66739
 11
442.41188
 21
139.89999
  0
LINE
  8
0
  6
CONTINUOUS
 62
     7
 10
443.31188
 20
133.03586
 11
443.31188
 21
135.39999
  0
LINE
  8
0
  6
CONTINUOUS
 62
     7
 10
442.41188
 20
133.03586
 11
442.41188
 21
135.39999
  0
ARC
  8
0
  6
CONTINUOUS
 62
     7
 10
441.06188
 20
135.39999
 40
1.8
 50
126.00833
 51
233.99168
  0
ARC
  8
0
  6
CONTINUOUS
 62
     7
 10
441.06188
 20
135.39999
 40
2.7
 50
126.00833
 51
233.99168
  0
ARC
  8
0
  6
CONTINUOUS
 62
     7
 10
444.66188
 20
135.39999
 40
1.8
 50
306.00833
 51
53.991686
  0
ARC
  8
0
  6
CONTINUOUS
 62
     7
 10
444.66188
 20
135.39999
 40
2.7
 50
306.00833
 51
53.991686
  0
ARC
  8
0
  6
CONTINUOUS
 62
     7
 10
442.86188
 20
137.87672
 40
5.7617307
 50
233.99168
 51
265.52056
  0
ARC
  8
0
  6
CONTINUOUS
 62
     7
 10
442.86188
 20
137.87672
 40
4.8617306
 50
233.99168
 51
264.68913
  0
ARC
  8
0
  6
CONTINUOUS
 62
     7
 10
442.86188
 20
132.92326
 40
4.8617306
 50
53.991676
 51
126.00833
  0
ARC
  8
0
  6
CONTINUOUS
 62
     7
 10
442.86188
 20
132.92326
 40
5.7617307
 50
53.991676
 51
85.520553
  0
ARC
  8
0
  6
CONTINUOUS
 62
     7
 10
442.86188
 20
131.23749
 40
0.5625
 50
216.8699
 51
323.1301
  0
ARC
  8
0
  6
CONTINUOUS
 62
     7
 10
442.86188
 20
135.06249
 40
0.5625
 50
36.869908
 51
143.13011
  0
ARC
  8
0
  6
CONTINUOUS
 62
     7
 10
442.86188
 20
139.56249
 40
0.5625
 50
36.869908
 51
143.13011
  0
ARC
  8
0
  6
CONTINUOUS
 62
     7
 10
442.86188
 20
137.87672
 40
5.7617307
 50
274.47946
 51
306.00833
  0
ARC
  8
0
  6
CONTINUOUS
 62
     7
 10
442.86188
 20
137.87672
 40
4.8617306
 50
275.31088
 51
306.00833
  0
ARC
  8
0
  6
CONTINUOUS
 62
     7
 10
442.86188
 20
132.92326
 40
5.7617307
 50
94.479452
 51
126.00833
  0
LINE
  8
0
  6
CONTINUOUS
 62
     7
 10
706.98689
 20
130.89999
 11
706.98689
 21
132.13259
  0
LINE
  8
0
  6
CONTINUOUS
 62
     7
 10
707.88689
 20
130.89999
 11
707.88689
 21
132.13259
  0
LINE
  8
0
  6
CONTINUOUS
 62
     7
 10
707.88689
 20
138.66739
 11
707.88689
 21
139.89999
  0
LINE
  8
0
  6
CONTINUOUS
 62
     7
 10
706.98689
 20
138.66739
 11
706.98689
 21
139.89999
  0
LINE
  8
0
  6
CONTINUOUS
 62
     7
 10
707.88689
 20
133.03586
 11
707.88689
 21
135.39999
  0
LINE
  8
0
  6
CONTINUOUS
 62
     7
 10
706.98689
 20
133.03586
 11
706.98689
 21
135.39999
  0
ARC
  8
0
  6
CONTINUOUS
 62
     7
 10
705.63689
 20
135.39999
 40
1.8
 50
126.00833
 51
233.99168
  0
ARC
  8
0
  6
CONTINUOUS
 62
     7
 10
705.63689
 20
135.39999
 40
2.7
 50
126.00833
 51
233.99168
  0
ARC
  8
0
  6
CONTINUOUS
 62
     7
 10
709.23689
 20
135.39999
 40
1.8
 50
306.00833
 51
53.991686
  0
ARC
  8
0
  6
CONTINUOUS
 62
     7
 10
709.23689
 20
135.39999
 40
2.7
 50
306.00833
 51
53.991686
  0
ARC
  8
0
  6
CONTINUOUS
 62
     7
 10
707.43689
 20
137.87672
 40
5.7617307
 50
233.99168
 51
265.52056
  0
ARC
  8
0
  6
CONTINUOUS
 62
     7
 10
707.43689
 20
137.87672
 40
4.8617306
 50
233.99168
 51
264.68913
  0
ARC
  8
0
  6
CONTINUOUS
 62
     7
 10
707.43689
 20
132.92326
 40
4.8617306
 50
53.991676
 51
126.00833
  0
ARC
  8
0
  6
CONTINUOUS
 62
     7
 10
707.43689
 20
132.92326
 40
5.7617307
 50
53.991676
 51
85.520553
  0
ARC
  8
0
  6
CONTINUOUS
 62
     7
 10
707.43689
 20
131.23749
 40
0.5625
 50
216.8699
 51
323.1301
  0
ARC
  8
0
  6
CONTINUOUS
 62
     7
 10
707.43689
 20
135.06249
 40
0.5625
 50
36.869908
 51
143.13011
  0
ARC
  8
0
  6
CONTINUOUS
 62
     7
 10
707.43689
 20
139.56249
 40
0.5625
 50
36.869908
 51
143.13011
  0
ARC
  8
0
  6
CONTINUOUS
 62
     7
 10
707.43689
 20
137.87672
 40
5.7617307
 50
274.47946
 51
306.00833
  0
ARC
  8
0
  6
CONTINUOUS
 62
     7
 10
707.43689
 20
137.87672
 40
4.8617306
 50
275.31088
 51
306.00833
  0
ARC
  8
0
  6
CONTINUOUS
 62
     7
 10
707.43689
 20
132.92326
 40
5.7617307
 50
94.479452
 51
126.00833
  0
LINE
  8
0
  6
CONTINUOUS
 62
     7
 10
410.86265
 20
6.1007757
 11
410.86265
 21
7.3333754
  0
LINE
  8
0
  6
CONTINUOUS
 62
     7
 10
411.76265
 20
6.1007758
 11
411.76265
 21
7.3333755
  0
LINE
  8
0
  6
CONTINUOUS
 62
     7
 10
411.76265
 20
13.868176
 11
411.76265
 21
15.100776
  0
LINE
  8
0
  6
CONTINUOUS
 62
     7
 10
410.86265
 20
13.868176
 11
410.86265
 21
15.100776
  0
LINE
  8
0
  6
CONTINUOUS
 62
     7
 10
411.76265
 20
8.2366465
 11
411.76265
 21
10.600776
  0
LINE
  8
0
  6
CONTINUOUS
 62
     7
 10
410.86265
 20
8.2366464
 11
410.86265
 21
10.600776
  0
ARC
  8
0
  6
CONTINUOUS
 62
     7
 10
409.51265
 20
10.600776
 40
1.8
 50
126.00833
 51
233.99168
  0
ARC
  8
0
  6
CONTINUOUS
 62
     7
 10
409.51265
 20
10.600776
 40
2.7
 50
126.00833
 51
233.99168
  0
ARC
  8
0
  6
CONTINUOUS
 62
     7
 10
413.11265
 20
10.600776
 40
1.8
 50
306.00833
 51
53.991686
  0
ARC
  8
0
  6
CONTINUOUS
 62
     7
 10
413.11265
 20
10.600776
 40
2.7
 50
306.00833
 51
53.991686
  0
ARC
  8
0
  6
CONTINUOUS
 62
     7
 10
411.31265
 20
13.077507
 40
5.7617307
 50
233.99168
 51
265.52056
  0
ARC
  8
0
  6
CONTINUOUS
 62
     7
 10
411.31265
 20
13.077507
 40
4.8617306
 50
233.99168
 51
264.68913
  0
ARC
  8
0
  6
CONTINUOUS
 62
     7
 10
411.31265
 20
8.1240449
 40
4.8617306
 50
53.991676
 51
126.00833
  0
ARC
  8
0
  6
CONTINUOUS
 62
     7
 10
411.31265
 20
8.1240449
 40
5.7617307
 50
53.991676
 51
85.520553
  0
ARC
  8
0
  6
CONTINUOUS
 62
     7
 10
411.31265
 20
6.4382758
 40
0.5625
 50
216.8699
 51
323.1301
  0
ARC
  8
0
  6
CONTINUOUS
 62
     7
 10
411.31265
 20
10.263276
 40
0.5625
 50
36.869908
 51
143.13011
  0
ARC
  8
0
  6
CONTINUOUS
 62
     7
 10
411.31265
 20
14.763276
 40
0.5625
 50
36.869908
 51
143.13011
  0
ARC
  8
0
  6
CONTINUOUS
 62
     7
 10
411.31265
 20
13.077507
 40
5.7617307
 50
274.47946
 51
306.00833
  0
ARC
  8
0
  6
CONTINUOUS
 62
     7
 10
411.31265
 20
13.077507
 40
4.8617306
 50
275.31088
 51
306.00833
  0
ARC
  8
0
  6
CONTINUOUS
 62
     7
 10
411.31265
 20
8.1240449
 40
5.7617307
 50
94.479452
 51
126.00833
  0
LINE
  8
0
  6
CONTINUOUS
 62
     7
 10
706.33549
 20
-4.0769699
 11
706.33549
 21
-2.4335034
  0
LINE
  8
0
  6
CONTINUOUS
 62
     7
 10
707.53549
 20
-4.0769698
 11
707.53549
 21
-2.4335033
  0
LINE
  8
0
  6
CONTINUOUS
 62
     7
 10
707.53549
 20
6.2795637
 11
707.53549
 21
7.9230302
  0
LINE
  8
0
  6
CONTINUOUS
 62
     7
 10
706.33549
 20
6.2795636
 11
706.33549
 21
7.9230301
  0
LINE
  8
0
  6
CONTINUOUS
 62
     7
 10
707.53549
 20
-1.2291421
 11
707.53549
 21
1.9230302
  0
LINE
  8
0
  6
CONTINUOUS
 62
     7
 10
706.33549
 20
-1.2291422
 11
706.33549
 21
1.9230301
  0
ARC
  8
0
  6
CONTINUOUS
 62
     7
 10
704.53549
 20
1.9230299
 40
2.4000001
 50
126.00833
 51
233.99168
  0
ARC
  8
0
  6
CONTINUOUS
 62
     7
 10
704.53549
 20
1.9230299
 40
3.5999999
 50
126.00833
 51
233.99168
  0
ARC
  8
0
  6
CONTINUOUS
 62
     7
 10
709.33549
 20
1.9230303
 40
2.4000001
 50
306.00833
 51
53.991686
  0
ARC
  8
0
  6
CONTINUOUS
 62
     7
 10
709.33549
 20
1.9230303
 40
3.5999999
 50
306.00833
 51
53.991686
  0
ARC
  8
0
  6
CONTINUOUS
 62
     7
 10
706.93549
 20
5.2253377
 40
7.6823077
 50
233.99168
 51
265.52056
  0
ARC
  8
0
  6
CONTINUOUS
 62
     7
 10
706.93549
 20
5.2253377
 40
6.4823079
 50
233.99168
 51
264.68913
  0
ARC
  8
0
  6
CONTINUOUS
 62
     7
 10
706.93549
 20
-1.3792775
 40
6.4823079
 50
53.991676
 51
126.00833
  0
ARC
  8
0
  6
CONTINUOUS
 62
     7
 10
706.93549
 20
-1.3792775
 40
7.6823077
 50
53.991676
 51
85.520553
  0
ARC
  8
0
  6
CONTINUOUS
 62
     7
 10
706.93549
 20
-3.6269701
 40
0.75
 50
216.8699
 51
323.1301
  0
ARC
  8
0
  6
CONTINUOUS
 62
     7
 10
706.93549
 20
1.4730301
 40
0.75
 50
36.869908
 51
143.13011
  0
ARC
  8
0
  6
CONTINUOUS
 62
     7
 10
706.93549
 20
7.4730303
 40
0.75
 50
36.869908
 51
143.13011
  0
ARC
  8
0
  6
CONTINUOUS
 62
     7
 10
706.93549
 20
5.2253377
 40
6.4823079
 50
275.31088
 51
306.00833
  0
ARC
  8
0
  6
CONTINUOUS
 62
     7
 10
706.93549
 20
5.2253377
 40
7.6823077
 50
274.47946
 51
306.00833
  0
ARC
  8
0
  6
CONTINUOUS
 62
     7
 10
706.93549
 20
-1.3792775
 40
7.6823077
 50
94.479452
 51
126.00833
  0
LINE
  8
0
  6
CONTINUOUS
 62
     7
 10
415.92216
 20
-135.9787
 11
415.92216
 21
-134.33523
  0
LINE
  8
0
  6
CONTINUOUS
 62
     7
 10
417.12216
 20
-135.9787
 11
417.12216
 21
-134.33523
  0
LINE
  8
0
  6
CONTINUOUS
 62
     7
 10
417.12216
 20
-125.62217
 11
417.12216
 21
-123.9787
  0
LINE
  8
0
  6
CONTINUOUS
 62
     7
 10
415.92216
 20
-125.62217
 11
415.92216
 21
-123.9787
  0
LINE
  8
0
  6
CONTINUOUS
 62
     7
 10
417.12216
 20
-133.13087
 11
417.12216
 21
-129.9787
  0
LINE
  8
0
  6
CONTINUOUS
 62
     7
 10
415.92216
 20
-133.13087
 11
415.92216
 21
-129.9787
  0
ARC
  8
0
  6
CONTINUOUS
 62
     7
 10
414.12216
 20
-129.9787
 40
2.4000001
 50
126.00833
 51
233.99168
  0
ARC
  8
0
  6
CONTINUOUS
 62
     7
 10
414.12216
 20
-129.9787
 40
3.5999999
 50
126.00833
 51
233.99168
  0
ARC
  8
0
  6
CONTINUOUS
 62
     7
 10
418.92216
 20
-129.9787
 40
2.4000001
 50
306.00833
 51
53.991686
  0
ARC
  8
0
  6
CONTINUOUS
 62
     7
 10
418.92216
 20
-129.9787
 40
3.5999999
 50
306.00833
 51
53.991686
  0
ARC
  8
0
  6
CONTINUOUS
 62
     7
 10
416.52216
 20
-126.67639
 40
7.6823077
 50
233.99168
 51
265.52056
  0
ARC
  8
0
  6
CONTINUOUS
 62
     7
 10
416.52216
 20
-126.67639
 40
6.4823079
 50
233.99168
 51
264.68913
  0
ARC
  8
0
  6
CONTINUOUS
 62
     7
 10
416.52216
 20
-133.28101
 40
6.4823079
 50
53.991676
 51
126.00833
  0
ARC
  8
0
  6
CONTINUOUS
 62
     7
 10
416.52216
 20
-133.28101
 40
7.6823077
 50
53.991676
 51
85.520553
  0
ARC
  8
0
  6
CONTINUOUS
 62
     7
 10
416.52216
 20
-135.5287
 40
0.75
 50
216.8699
 51
323.1301
  0
ARC
  8
0
  6
CONTINUOUS
 62
     7
 10
416.52216
 20
-130.4287
 40
0.75
 50
36.869908
 51
143.13011
  0
ARC
  8
0
  6
CONTINUOUS
 62
     7
 10
416.52216
 20
-124.4287
 40
0.75
 50
36.869908
 51
143.13011
  0
ARC
  8
0
  6
CONTINUOUS
 62
     7
 10
416.52216
 20
-126.67639
 40
6.4823079
 50
275.31088
 51
306.00833
  0
ARC
  8
0
  6
CONTINUOUS
 62
     7
 10
416.52216
 20
-126.67639
 40
7.6823077
 50
274.47946
 51
306.00833
  0
ARC
  8
0
  6
CONTINUOUS
 62
     7
 10
416.52216
 20
-133.28101
 40
7.6823077
 50
94.479452
 51
126.00833
  0
LINE
  8
0
  6
CONTINUOUS
 62
     7
 10
697.12216
 20
-135.9787
 11
697.12216
 21
-134.33523
  0
LINE
  8
0
  6
CONTINUOUS
 62
     7
 10
695.92216
 20
-135.9787
 11
695.92216
 21
-134.33523
  0
LINE
  8
0
  6
CONTINUOUS
 62
     7
 10
695.92216
 20
-125.62217
 11
695.92216
 21
-123.9787
  0
LINE
  8
0
  6
CONTINUOUS
 62
     7
 10
697.12216
 20
-125.62217
 11
697.12216
 21
-123.9787
  0
LINE
  8
0
  6
CONTINUOUS
 62
     7
 10
695.92216
 20
-133.13087
 11
695.92216
 21
-129.9787
  0
LINE
  8
0
  6
CONTINUOUS
 62
     7
 10
697.12216
 20
-133.13087
 11
697.12216
 21
-129.9787
  0
ARC
  8
0
  6
CONTINUOUS
 62
     7
 10
698.92216
 20
-129.9787
 40
2.4000001
 50
306.00832
 51
53.991676
  0
ARC
  8
0
  6
CONTINUOUS
 62
     7
 10
698.92216
 20
-129.9787
 40
3.5999999
 50
306.00832
 51
53.991676
  0
ARC
  8
0
  6
CONTINUOUS
 62
     7
 10
694.12216
 20
-129.9787
 40
2.4000001
 50
126.00833
 51
233.99168
  0
ARC
  8
0
  6
CONTINUOUS
 62
     7
 10
694.12216
 20
-129.9787
 40
3.5999999
 50
126.00833
 51
233.99168
  0
ARC
  8
0
  6
CONTINUOUS
 62
     7
 10
696.52216
 20
-126.67639
 40
7.6823077
 50
53.991676
 51
85.520553
  0
ARC
  8
0
  6
CONTINUOUS
 62
     7
 10
696.52216
 20
-126.67639
 40
6.4823079
 50
53.991676
 51
84.689121
  0
ARC
  8
0
  6
CONTINUOUS
 62
     7
 10
696.52216
 20
-133.28101
 40
6.4823079
 50
233.99167
 51
306.00832
  0
ARC
  8
0
  6
CONTINUOUS
 62
     7
 10
696.52216
 20
-133.28101
 40
7.6823077
 50
233.99167
 51
265.52055
  0
ARC
  8
0
  6
CONTINUOUS
 62
     7
 10
696.52216
 20
-135.5287
 40
0.75
 50
36.869897
 51
143.1301
  0
ARC
  8
0
  6
CONTINUOUS
 62
     7
 10
696.52216
 20
-130.4287
 40
0.75
 50
216.8699
 51
323.1301
  0
ARC
  8
0
  6
CONTINUOUS
 62
     7
 10
696.52216
 20
-124.4287
 40
0.75
 50
216.8699
 51
323.1301
  0
ARC
  8
0
  6
CONTINUOUS
 62
     7
 10
696.52216
 20
-126.67639
 40
6.4823079
 50
95.310878
 51
126.00833
  0
ARC
  8
0
  6
CONTINUOUS
 62
     7
 10
696.52216
 20
-126.67639
 40
7.6823077
 50
94.479452
 51
126.00833
  0
ARC
  8
0
  6
CONTINUOUS
 62
     7
 10
696.52216
 20
-133.28101
 40
7.6823077
 50
274.47945
 51
306.00832
  0
LINE
  8
0
  6
CONTINUOUS
 62
     7
 10
423.38363
 20
-344.31729
 11
423.38363
 21
-342.67382
  0
LINE
  8
0
  6
CONTINUOUS
 62
     7
 10
422.18363
 20
-344.31729
 11
422.18363
 21
-342.67382
  0
LINE
  8
0
  6
CONTINUOUS
 62
     7
 10
422.18363
 20
-333.96076
 11
422.18363
 21
-332.31729
  0
LINE
  8
0
  6
CONTINUOUS
 62
     7
 10
423.38363
 20
-333.96076
 11
423.38363
 21
-332.31729
  0
LINE
  8
0
  6
CONTINUOUS
 62
     7
 10
422.18363
 20
-341.46946
 11
422.18363
 21
-338.31729
  0
LINE
  8
0
  6
CONTINUOUS
 62
     7
 10
423.38363
 20
-341.46946
 11
423.38363
 21
-338.31729
  0
ARC
  8
0
  6
CONTINUOUS
 62
     7
 10
425.18363
 20
-338.31729
 40
2.4000001
 50
306.00832
 51
53.991676
  0
ARC
  8
0
  6
CONTINUOUS
 62
     7
 10
425.18363
 20
-338.31729
 40
3.5999999
 50
306.00832
 51
53.991676
  0
ARC
  8
0
  6
CONTINUOUS
 62
     7
 10
420.38363
 20
-338.31729
 40
2.4000001
 50
126.00833
 51
233.99168
  0
ARC
  8
0
  6
CONTINUOUS
 62
     7
 10
420.38363
 20
-338.31729
 40
3.5999999
 50
126.00833
 51
233.99168
  0
ARC
  8
0
  6
CONTINUOUS
 62
     7
 10
422.78363
 20
-335.01498
 40
7.6823077
 50
53.991676
 51
85.520553
  0
ARC
  8
0
  6
CONTINUOUS
 62
     7
 10
422.78363
 20
-335.01498
 40
6.4823079
 50
53.991676
 51
84.689121
  0
ARC
  8
0
  6
CONTINUOUS
 62
     7
 10
422.78363
 20
-341.6196
 40
6.4823079
 50
233.99167
 51
306.00832
  0
ARC
  8
0
  6
CONTINUOUS
 62
     7
 10
422.78363
 20
-341.6196
 40
7.6823077
 50
233.99167
 51
265.52055
  0
ARC
  8
0
  6
CONTINUOUS
 62
     7
 10
422.78363
 20
-343.86729
 40
0.75
 50
36.869897
 51
143.1301
  0
ARC
  8
0
  6
CONTINUOUS
 62
     7
 10
422.78363
 20
-338.76729
 40
0.75
 50
216.8699
 51
323.1301
  0
ARC
  8
0
  6
CONTINUOUS
 62
     7
 10
422.78363
 20
-332.76729
 40
0.75
 50
216.8699
 51
323.1301
  0
ARC
  8
0
  6
CONTINUOUS
 62
     7
 10
422.78363
 20
-335.01498
 40
6.4823079
 50
95.310878
 51
126.00833
  0
ARC
  8
0
  6
CONTINUOUS
 62
     7
 10
422.78363
 20
-335.01498
 40
7.6823077
 50
94.479452
 51
126.00833
  0
ARC
  8
0
  6
CONTINUOUS
 62
     7
 10
422.78363
 20
-341.6196
 40
7.6823077
 50
274.47945
 51
306.00832
  0
ENDSEC
  0
EOF
