  0
SECTION
  2
HEADER
  9
$EXTMAX
 10
297
 20
210
  9
$EXTMIN
 10
-297
 20
-210
  0
ENDSEC
  0
SECTION
  2
TABLES
  0
TABLE
  2
LTYPE
 70
    22
  0
LTYPE
  2
CONTINUOUS
 70
    64
  3
Solid line
 72
    65
 73
     0
 40
0.000000
  0
LTYPE
  2
DASHED
 70
    64
  3
__ __ __ __ __ __ __ __ __ __ __ __ __ __ __
 72
    65
 73
     2
 40
3.500000
 49
2.000000
 49
-1.500000
  0
LTYPE
  2
CENTER
 70
    64
  3
____ _ ____ _ ____ _ ____ _ ____ _ ____ _ ____
 72
    65
 73
     4
 40
17.500000
 49
13.000000
 49
-1.500000
 49
1.500000
 49
-1.500000
  0
LTYPE
  2
PHANTOM
 70
    64
  3
_____ _ _ _____ _ _ _____ _ _ _____ _ _ ____  
 72
    65
 73
     6
 40
15.500000
 49
8.000000
 49
-1.500000
 49
1.500000
 49
-1.500000
 49
1.500000
 49
-1.500000
  0
LTYPE
  2
DOT
 70
    64
  3
. . . . . . . . . . . . . . . . . . . . . . . .
 72
    65
 73
     2
 40
0.25
 49
0.0
 49
-0.25
  0
ENDTAB
  0
TABLE
  2
LAYER
 70
     1
  0
LAYER
  2
0
 70
     0
 62
     7
  6
CONTINUOUS
  0
ENDTAB
  0
TABLE
  2
STYLE
 70
     1
  0
STYLE
  2
STANDARD
 70
     0
 40
0.000000
 41
1.000000
 50
0.000000
 71
     0
 42
0.200000
  3
txt
  4
BIGFONT
  0
ENDTAB
  0
TABLE
  2
VIEW
 70
     0
  0
ENDTAB
  0
ENDSEC
  0
SECTION
  2
BLOCKS
  0
ENDSEC
  0
SECTION
  2
ENTITIES
  0
POINT
  8
0
  6
CONTINUOUS
 62
     7
 10
-190.24185
 20
152.98849
  0
POINT
  8
0
  6
CONTINUOUS
 62
     7
 10
87.202187
 20
164.3391
  0
POINT
  8
0
  6
CONTINUOUS
 62
     7
 10
-56.397026
 20
-41.190533
  0
POINT
  8
0
  6
CONTINUOUS
 62
     7
 10
-169.43697
 20
-309.25754
  0
POINT
  8
0
  6
CONTINUOUS
 62
     7
 10
-139.17868
 20
-768.62128
  0
POINT
  8
0
  6
CONTINUOUS
 62
     7
 10
86.463257
 20
-453.50482
  0
POINT
  8
0
  6
CONTINUOUS
 62
     7
 10
-190.24185
 20
62.988491
  0
POINT
  8
0
  6
CONTINUOUS
 62
     7
 10
87.202187
 20
64.339096
  0
POINT
  8
0
  6
CONTINUOUS
 62
     7
 10
-169.43697
 20
-439.25754
  0
POINT
  8
0
  6
CONTINUOUS
 62
     7
 10
-56.397026
 20
-161.19054
  0
POINT
  8
0
  6
CONTINUOUS
 62
     7
 10
86.463257
 20
-583.50482
  0
POINT
  8
0
  6
CONTINUOUS
 62
     7
 10
-139.17868
 20
-928.62128
  0
POINT
  8
0
  6
CONTINUOUS
 62
     7
 10
-100.24186
 20
152.98849
  0
POINT
  8
0
  6
CONTINUOUS
 62
     7
 10
63.602974
 20
-41.190533
  0
POINT
  8
0
  6
CONTINUOUS
 62
     7
 10
-56.397026
 20
-41.190533
  0
POINT
  8
0
  6
CONTINUOUS
 62
     7
 10
187.20218
 20
164.3391
  0
POINT
  8
0
  6
CONTINUOUS
 62
     7
 10
-29.43696
 20
-309.25754
  0
POINT
  8
0
  6
CONTINUOUS
 62
     7
 10
226.46326
 20
-453.50482
  0
POINT
  8
0
  6
CONTINUOUS
 62
     7
 10
40.821289
 20
-768.62128
  0
POINT
  8
0
  6
CONTINUOUS
 62
     7
 10
317
 20
210
  0
POINT
  8
0
  6
CONTINUOUS
 62
     7
 10
429.23999
 20
136.6395
  0
POINT
  8
0
  6
CONTINUOUS
 62
     7
 10
690.60248
 20
136.6395
  0
POINT
  8
0
  6
CONTINUOUS
 62
     7
 10
502.8512
 20
-50.332924
  0
POINT
  8
0
  6
CONTINUOUS
 62
     7
 10
417.65015
 20
-316.89731
  0
POINT
  8
0
  6
CONTINUOUS
 62
     7
 10
455.65735
 20
-783.11053
  0
POINT
  8
0
  6
CONTINUOUS
 62
     7
 10
704.38086
 20
-443.25323
  0
POINT
  8
0
  6
CONTINUOUS
 62
     7
 10
429.23999
 20
36.639496
  0
POINT
  8
0
  6
CONTINUOUS
 62
     7
 10
690.60248
 20
26.639498
  0
POINT
  8
0
  6
CONTINUOUS
 62
     7
 10
502.8512
 20
-170.33293
  0
POINT
  8
0
  6
CONTINUOUS
 62
     7
 10
417.65015
 20
-456.89731
  0
POINT
  8
0
  6
CONTINUOUS
 62
     7
 10
704.38086
 20
-583.25323
  0
POINT
  8
0
  6
CONTINUOUS
 62
     7
 10
455.65735
 20
-943.11053
  0
POINT
  8
0
  6
CONTINUOUS
 62
     7
 10
529.23999
 20
136.6395
  0
POINT
  8
0
  6
CONTINUOUS
 62
     7
 10
810.60248
 20
136.6395
  0
POINT
  8
0
  6
CONTINUOUS
 62
     7
 10
622.8512
 20
-50.332924
  0
POINT
  8
0
  6
CONTINUOUS
 62
     7
 10
557.65015
 20
-316.89731
  0
POINT
  8
0
  6
CONTINUOUS
 62
     7
 10
844.38086
 20
-443.25323
  0
POINT
  8
0
  6
CONTINUOUS
 62
     7
 10
615.65735
 20
-783.11053
  0
POINT
  8
0
  6
CONTINUOUS
 62
     7
 10
382.23999
 20
136.6395
  0
POINT
  8
0
  6
CONTINUOUS
 62
     7
 10
382.23999
 20
136.6395
  0
POINT
  8
0
  6
CONTINUOUS
 62
     7
 10
476.23999
 20
136.6395
  0
POINT
  8
0
  6
CONTINUOUS
 62
     7
 10
476.23999
 20
136.6395
  0
POINT
  8
0
  6
CONTINUOUS
 62
     7
 10
352.15015
 20
-316.89731
  0
POINT
  8
0
  6
CONTINUOUS
 62
     7
 10
483.15015
 20
-316.89731
  0
POINT
  8
0
  6
CONTINUOUS
 62
     7
 10
417.65015
 20
-385.89731
  0
POINT
  8
0
  6
CONTINUOUS
 62
     7
 10
352.15015
 20
-316.89731
  0
POINT
  8
0
  6
CONTINUOUS
 62
     7
 10
483.15015
 20
-316.89731
  0
POINT
  8
0
  6
CONTINUOUS
 62
     7
 10
417.65015
 20
-385.89731
  0
POINT
  8
0
  6
CONTINUOUS
 62
     7
 10
375.15735
 20
-783.11053
  0
POINT
  8
0
  6
CONTINUOUS
 62
     7
 10
536.15735
 20
-783.11053
  0
POINT
  8
0
  6
CONTINUOUS
 62
     7
 10
375.15735
 20
-783.11053
  0
POINT
  8
0
  6
CONTINUOUS
 62
     7
 10
536.15735
 20
-783.11053
  0
POINT
  8
0
  6
CONTINUOUS
 62
     7
 10
455.65735
 20
-868.11053
  0
POINT
  8
0
  6
CONTINUOUS
 62
     7
 10
455.65735
 20
-868.11053
  0
LINE
  8
0
  6
CONTINUOUS
 62
     7
 10
-297
 20
-650
 11
-297
 21
-230
  0
LINE
  8
0
  6
CONTINUOUS
 62
     7
 10
-297
 20
-230
 11
297
 21
-230
  0
LINE
  8
0
  6
CONTINUOUS
 62
     7
 10
297
 20
-650
 11
-297
 21
-650
  0
LINE
  8
0
  6
CONTINUOUS
 62
     7
 10
297
 20
-230
 11
297
 21
-650
  0
LINE
  8
0
  6
CONTINUOUS
 62
     7
 10
-169.51157
 20
137.48849
 11
-171.74185
 21
137.48849
  0
LINE
  8
0
  6
CONTINUOUS
 62
     7
 10
-174.74185
 20
128.75821
 11
-174.74185
 21
134.48849
  0
LINE
  8
0
  6
CENTER
 62
     7
 10
-190.24185
 20
176.25375
 11
-190.24185
 21
99.188492
  0
LINE
  8
0
  6
CONTINUOUS
 62
     7
 10
-169.51157
 20
168.48849
 11
-210.97214
 21
168.48849
  0
LINE
  8
0
  6
CONTINUOUS
 62
     7
 10
-210.97214
 20
137.48849
 11
-209.74185
 21
137.48849
  0
LINE
  8
0
  6
CENTER
 62
     7
 10
-135.72934
 20
152.98849
 11
-245.45435
 21
152.98849
  0
LINE
  8
0
  6
CONTINUOUS
 62
     7
 10
-205.74185
 20
133.48849
 11
-205.74185
 21
128.75821
  0
LINE
  8
0
  6
CONTINUOUS
 62
     7
 10
-147.74185
 20
171.98849
 11
-147.74185
 21
133.98849
  0
LINE
  8
0
  6
CONTINUOUS
 62
     7
 10
-163.24185
 20
173.98849
 11
-149.74185
 21
173.98849
  0
LINE
  8
0
  6
CONTINUOUS
 62
     7
 10
-163.24185
 20
131.98849
 11
-149.74185
 21
131.98849
  0
LINE
  8
0
  6
CONTINUOUS
 62
     7
 10
-165.24185
 20
171.98849
 11
-165.24185
 21
133.98849
  0
LINE
  8
0
  6
CONTINUOUS
 62
     7
 10
-164.24185
 20
161.68698
 11
-148.74185
 21
161.68698
  0
LINE
  8
0
  6
CONTINUOUS
 62
     7
 10
-164.24185
 20
144.29001
 11
-148.74185
 21
144.29001
  0
LINE
  8
0
  6
CONTINUOUS
 62
     7
 10
-163.24185
 20
173.98848
 11
-165.24185
 21
171.98848
  0
LINE
  8
0
  6
CONTINUOUS
 62
     7
 10
-149.74184
 20
173.98848
 11
-147.74185
 21
171.98849
  0
LINE
  8
0
  6
CONTINUOUS
 62
     7
 10
-147.74185
 20
133.98848
 11
-149.74184
 21
131.98848
  0
LINE
  8
0
  6
CONTINUOUS
 62
     7
 10
-165.24185
 20
133.98848
 11
-163.24185
 21
131.98848
  0
LINE
  8
0
  6
CONTINUOUS
 62
     7
 10
-232.74185
 20
171.98849
 11
-232.74185
 21
133.98849
  0
LINE
  8
0
  6
CONTINUOUS
 62
     7
 10
-217.24185
 20
173.98849
 11
-230.74185
 21
173.98849
  0
LINE
  8
0
  6
CONTINUOUS
 62
     7
 10
-217.24185
 20
131.98849
 11
-230.74185
 21
131.98849
  0
LINE
  8
0
  6
CONTINUOUS
 62
     7
 10
-215.24185
 20
171.98849
 11
-215.24185
 21
133.98849
  0
LINE
  8
0
  6
CONTINUOUS
 62
     7
 10
-216.24185
 20
161.68698
 11
-231.74185
 21
161.68698
  0
LINE
  8
0
  6
CONTINUOUS
 62
     7
 10
-216.24185
 20
144.29001
 11
-231.74185
 21
144.29001
  0
LINE
  8
0
  6
CONTINUOUS
 62
     7
 10
-217.24185
 20
173.98849
 11
-215.24185
 21
171.98849
  0
LINE
  8
0
  6
CONTINUOUS
 62
     7
 10
-230.74185
 20
173.98848
 11
-232.74184
 21
171.98848
  0
LINE
  8
0
  6
CONTINUOUS
 62
     7
 10
-232.74185
 20
133.98848
 11
-230.74187
 21
131.98849
  0
LINE
  8
0
  6
CONTINUOUS
 62
     7
 10
-215.24185
 20
133.98849
 11
-217.24185
 21
131.98849
  0
LINE
  8
0
  6
CONTINUOUS
 62
     7
 10
-171.24185
 20
106.98849
 11
-209.24185
 21
106.98849
  0
LINE
  8
0
  6
CONTINUOUS
 62
     7
 10
-169.24185
 20
122.48849
 11
-169.24185
 21
108.98849
  0
LINE
  8
0
  6
CONTINUOUS
 62
     7
 10
-211.24185
 20
122.48849
 11
-211.24185
 21
108.98849
  0
LINE
  8
0
  6
CONTINUOUS
 62
     7
 10
-171.24185
 20
124.48849
 11
-209.24185
 21
124.48849
  0
LINE
  8
0
  6
CONTINUOUS
 62
     7
 10
-181.54337
 20
123.48849
 11
-181.54337
 21
107.98849
  0
LINE
  8
0
  6
CONTINUOUS
 62
     7
 10
-198.94032
 20
123.48849
 11
-198.94032
 21
107.98849
  0
LINE
  8
0
  6
CONTINUOUS
 62
     7
 10
-169.24185
 20
122.48849
 11
-171.24185
 21
124.48849
  0
LINE
  8
0
  6
CONTINUOUS
 62
     7
 10
-169.24185
 20
108.98849
 11
-171.24185
 21
106.98849
  0
LINE
  8
0
  6
CONTINUOUS
 62
     7
 10
-209.24185
 20
106.98848
 11
-211.24184
 21
108.98846
  0
LINE
  8
0
  6
CONTINUOUS
 62
     7
 10
-209.24184
 20
124.48848
 11
-211.24184
 21
122.48848
  0
LINE
  8
0
  6
CENTER
 62
     7
 10
26.302191
 20
164.3391
 11
147.40219
 21
164.3391
  0
LINE
  8
0
  6
CENTER
 62
     7
 10
87.202187
 20
191.06409
 11
87.202187
 21
108.11409
  0
LINE
  8
0
  6
CONTINUOUS
 62
     7
 10
60.667336
 20
182.5891
 11
113.73705
 21
182.5891
  0
LINE
  8
0
  6
CONTINUOUS
 62
     7
 10
109.45219
 20
146.0891
 11
113.73705
 21
146.0891
  0
LINE
  8
0
  6
CONTINUOUS
 62
     7
 10
64.952187
 20
146.0891
 11
60.667336
 21
146.0891
  0
LINE
  8
0
  6
CONTINUOUS
 62
     7
 10
68.952187
 20
142.0891
 11
68.952187
 21
134.80423
  0
LINE
  8
0
  6
CONTINUOUS
 62
     7
 10
105.45219
 20
142.0891
 11
105.45219
 21
134.80423
  0
LINE
  8
0
  6
CONTINUOUS
 62
     7
 10
135.70219
 20
186.8391
 11
135.70219
 21
141.8391
  0
LINE
  8
0
  6
CONTINUOUS
 62
     7
 10
117.20219
 20
186.8391
 11
117.20219
 21
141.8391
  0
LINE
  8
0
  6
CONTINUOUS
 62
     7
 10
119.20219
 20
188.8391
 11
133.70219
 21
188.8391
  0
LINE
  8
0
  6
CONTINUOUS
 62
     7
 10
119.20219
 20
139.8391
 11
133.70219
 21
139.8391
  0
LINE
  8
0
  6
CONTINUOUS
 62
     7
 10
117.20219
 20
186.83908
 11
119.20219
 21
188.83908
  0
LINE
  8
0
  6
CONTINUOUS
 62
     7
 10
119.20219
 20
139.83908
 11
117.20219
 21
141.83908
  0
LINE
  8
0
  6
CONTINUOUS
 62
     7
 10
133.70219
 20
188.83908
 11
135.70219
 21
186.83908
  0
LINE
  8
0
  6
CONTINUOUS
 62
     7
 10
135.70218
 20
141.83908
 11
133.70219
 21
139.8391
  0
LINE
  8
0
  6
CONTINUOUS
 62
     7
 10
118.20219
 20
174.48021
 11
134.70219
 21
174.48021
  0
LINE
  8
0
  6
CONTINUOUS
 62
     7
 10
118.20219
 20
154.19798
 11
134.70219
 21
154.19798
  0
LINE
  8
0
  6
CONTINUOUS
 62
     7
 10
109.70219
 20
112.8391
 11
64.702187
 21
112.8391
  0
LINE
  8
0
  6
CONTINUOUS
 62
     7
 10
109.70219
 20
131.3391
 11
64.702187
 21
131.3391
  0
LINE
  8
0
  6
CONTINUOUS
 62
     7
 10
111.70219
 20
129.3391
 11
111.70219
 21
114.8391
  0
LINE
  8
0
  6
CONTINUOUS
 62
     7
 10
62.702187
 20
129.3391
 11
62.702187
 21
114.8391
  0
LINE
  8
0
  6
CONTINUOUS
 62
     7
 10
109.70219
 20
131.33908
 11
111.7022
 21
129.33908
  0
LINE
  8
0
  6
CONTINUOUS
 62
     7
 10
62.70219
 20
129.33908
 11
64.702194
 21
131.33908
  0
LINE
  8
0
  6
CONTINUOUS
 62
     7
 10
111.70219
 20
114.83909
 11
109.70219
 21
112.83909
  0
LINE
  8
0
  6
CONTINUOUS
 62
     7
 10
64.702194
 20
112.83908
 11
62.702194
 21
114.83909
  0
LINE
  8
0
  6
CONTINUOUS
 62
     7
 10
97.3433
 20
130.3391
 11
97.3433
 21
113.8391
  0
LINE
  8
0
  6
CONTINUOUS
 62
     7
 10
77.061081
 20
130.3391
 11
77.061081
 21
113.8391
  0
LINE
  8
0
  6
CONTINUOUS
 62
     7
 10
38.702187
 20
186.8391
 11
38.702187
 21
141.8391
  0
LINE
  8
0
  6
CONTINUOUS
 62
     7
 10
57.202187
 20
186.8391
 11
57.202187
 21
141.8391
  0
LINE
  8
0
  6
CONTINUOUS
 62
     7
 10
55.202187
 20
188.8391
 11
40.702187
 21
188.8391
  0
LINE
  8
0
  6
CONTINUOUS
 62
     7
 10
55.202187
 20
139.8391
 11
40.702187
 21
139.8391
  0
LINE
  8
0
  6
CONTINUOUS
 62
     7
 10
57.202187
 20
186.8391
 11
55.202183
 21
188.8391
  0
LINE
  8
0
  6
CONTINUOUS
 62
     7
 10
55.202175
 20
139.8391
 11
57.202175
 21
141.8391
  0
LINE
  8
0
  6
CONTINUOUS
 62
     7
 10
40.702179
 20
188.8391
 11
38.702175
 21
186.8391
  0
LINE
  8
0
  6
CONTINUOUS
 62
     7
 10
38.702183
 20
141.8391
 11
40.702187
 21
139.8391
  0
LINE
  8
0
  6
CONTINUOUS
 62
     7
 10
56.202187
 20
174.48021
 11
39.702187
 21
174.48021
  0
LINE
  8
0
  6
CONTINUOUS
 62
     7
 10
56.202187
 20
154.19798
 11
39.702187
 21
154.19798
  0
LINE
  8
0
  6
CENTER
 62
     7
 10
-56.397026
 20
-15.874708
 11
-56.397026
 21
-109.14054
  0
LINE
  8
0
  6
CENTER
 62
     7
 10
-119.42204
 20
-41.190533
 11
9.0279598
 21
-41.190533
  0
LINE
  8
0
  6
CONTINUOUS
 62
     7
 10
-34.147026
 20
-68.440536
 11
-34.147026
 21
-76.725403
  0
LINE
  8
0
  6
CONTINUOUS
 62
     7
 10
-78.647026
 20
-68.440536
 11
-78.647026
 21
-76.725403
  0
LINE
  8
0
  6
CONTINUOUS
 62
     7
 10
-83.647026
 20
-63.440533
 11
-87.431892
 21
-63.440533
  0
LINE
  8
0
  6
CONTINUOUS
 62
     7
 10
-87.431892
 20
-18.940535
 11
-25.362177
 21
-18.940535
  0
LINE
  8
0
  6
CONTINUOUS
 62
     7
 10
-29.147028
 20
-63.440533
 11
-25.362177
 21
-63.440533
  0
LINE
  8
0
  6
CONTINUOUS
 62
     7
 10
-3.397028
 20
-14.190535
 11
-3.397028
 21
-68.190536
  0
LINE
  8
0
  6
CONTINUOUS
 62
     7
 10
-21.897028
 20
-14.190535
 11
-21.897028
 21
-68.190536
  0
LINE
  8
0
  6
CONTINUOUS
 62
     7
 10
-19.897028
 20
-70.190536
 11
-5.397028
 21
-70.190536
  0
LINE
  8
0
  6
CONTINUOUS
 62
     7
 10
-19.897028
 20
-12.190535
 11
-5.397028
 21
-12.190535
  0
LINE
  8
0
  6
CONTINUOUS
 62
     7
 10
-21.897043
 20
-14.190536
 11
-19.897041
 21
-12.190535
  0
LINE
  8
0
  6
CONTINUOUS
 62
     7
 10
-5.3970256
 20
-12.190524
 11
-3.3970289
 21
-14.190521
  0
LINE
  8
0
  6
CONTINUOUS
 62
     7
 10
-21.897028
 20
-68.190536
 11
-19.897032
 21
-70.190536
  0
LINE
  8
0
  6
CONTINUOUS
 62
     7
 10
-5.397027
 20
-70.190536
 11
-3.3970251
 21
-68.190529
  0
LINE
  8
0
  6
CONTINUOUS
 62
     7
 10
-20.897028
 20
-29.178343
 11
-4.397028
 21
-29.178343
  0
LINE
  8
0
  6
CONTINUOUS
 62
     7
 10
-20.897028
 20
-53.202724
 11
-4.397028
 21
-53.202724
  0
LINE
  8
0
  6
CONTINUOUS
 62
     7
 10
-109.39703
 20
-14.190535
 11
-109.39703
 21
-68.190536
  0
LINE
  8
0
  6
CONTINUOUS
 62
     7
 10
-90.897026
 20
-14.190535
 11
-90.897026
 21
-68.190536
  0
LINE
  8
0
  6
CONTINUOUS
 62
     7
 10
-92.897026
 20
-70.190536
 11
-107.39703
 21
-70.190536
  0
LINE
  8
0
  6
CONTINUOUS
 62
     7
 10
-92.897026
 20
-12.190535
 11
-107.39703
 21
-12.190535
  0
LINE
  8
0
  6
CONTINUOUS
 62
     7
 10
-90.897041
 20
-14.190528
 11
-92.897026
 21
-12.190536
  0
LINE
  8
0
  6
CONTINUOUS
 62
     7
 10
-107.39703
 20
-12.190535
 11
-109.39703
 21
-14.190526
  0
LINE
  8
0
  6
CONTINUOUS
 62
     7
 10
-90.897026
 20
-68.190529
 11
-92.897026
 21
-70.190529
  0
LINE
  8
0
  6
CONTINUOUS
 62
     7
 10
-107.39703
 20
-70.190536
 11
-109.39703
 21
-68.190536
  0
LINE
  8
0
  6
CONTINUOUS
 62
     7
 10
-91.897026
 20
-29.178343
 11
-108.39703
 21
-29.178343
  0
LINE
  8
0
  6
CONTINUOUS
 62
     7
 10
-91.897026
 20
-53.202724
 11
-108.39703
 21
-53.202724
  0
LINE
  8
0
  6
CONTINUOUS
 62
     7
 10
-29.397028
 20
-98.690536
 11
-83.397026
 21
-98.690536
  0
LINE
  8
0
  6
CONTINUOUS
 62
     7
 10
-29.397028
 20
-80.190536
 11
-83.397026
 21
-80.190536
  0
LINE
  8
0
  6
CONTINUOUS
 62
     7
 10
-85.397026
 20
-82.190536
 11
-85.397026
 21
-96.690536
  0
LINE
  8
0
  6
CONTINUOUS
 62
     7
 10
-27.397028
 20
-82.190536
 11
-27.397028
 21
-96.690536
  0
LINE
  8
0
  6
CONTINUOUS
 62
     7
 10
-29.397026
 20
-80.190529
 11
-27.397024
 21
-82.190536
  0
LINE
  8
0
  6
CONTINUOUS
 62
     7
 10
-27.397032
 20
-96.690536
 11
-29.397034
 21
-98.690536
  0
LINE
  8
0
  6
CONTINUOUS
 62
     7
 10
-83.397041
 20
-80.190536
 11
-85.397026
 21
-82.190529
  0
LINE
  8
0
  6
CONTINUOUS
 62
     7
 10
-85.397026
 20
-96.690521
 11
-83.397026
 21
-98.690521
  0
LINE
  8
0
  6
CONTINUOUS
 62
     7
 10
-44.384834
 20
-81.190536
 11
-44.384834
 21
-97.690536
  0
LINE
  8
0
  6
CONTINUOUS
 62
     7
 10
-68.409233
 20
-81.190536
 11
-68.409233
 21
-97.690536
  0
LINE
  8
0
  6
CENTER
 62
     7
 10
-243.72447
 20
-309.25754
 11
-94.974449
 21
-309.25754
  0
LINE
  8
0
  6
CENTER
 62
     7
 10
-169.43697
 20
-280.04141
 11
-169.43697
 21
-381.70752
  0
LINE
  8
0
  6
CONTINUOUS
 62
     7
 10
-142.93697
 20
-340.75754
 11
-142.93697
 21
-351.4274
  0
LINE
  8
0
  6
CONTINUOUS
 62
     7
 10
-195.93697
 20
-340.75754
 11
-195.93697
 21
-351.4274
  0
LINE
  8
0
  6
CONTINUOUS
 62
     7
 10
-200.93697
 20
-335.75754
 11
-208.10683
 21
-335.75754
  0
LINE
  8
0
  6
CONTINUOUS
 62
     7
 10
-208.10683
 20
-282.75754
 11
-130.76709
 21
-282.75754
  0
LINE
  8
0
  6
CONTINUOUS
 62
     7
 10
-137.93697
 20
-335.75754
 11
-130.76709
 21
-335.75754
  0
LINE
  8
0
  6
CONTINUOUS
 62
     7
 10
-108.43696
 20
-278.25754
 11
-108.43696
 21
-340.25754
  0
LINE
  8
0
  6
CONTINUOUS
 62
     7
 10
-127.43696
 20
-278.25754
 11
-127.43696
 21
-340.25754
  0
LINE
  8
0
  6
CONTINUOUS
 62
     7
 10
-125.43696
 20
-276.25754
 11
-110.43696
 21
-276.25754
  0
LINE
  8
0
  6
CONTINUOUS
 62
     7
 10
-125.43696
 20
-342.25754
 11
-110.43696
 21
-342.25754
  0
LINE
  8
0
  6
CONTINUOUS
 62
     7
 10
-127.43696
 20
-278.25754
 11
-125.43695
 21
-276.25754
  0
LINE
  8
0
  6
CONTINUOUS
 62
     7
 10
-110.43695
 20
-276.25754
 11
-108.43696
 21
-278.25754
  0
LINE
  8
0
  6
CONTINUOUS
 62
     7
 10
-108.43695
 20
-340.25754
 11
-110.43695
 21
-342.25754
  0
LINE
  8
0
  6
CONTINUOUS
 62
     7
 10
-127.43696
 20
-340.25754
 11
-125.43696
 21
-342.25754
  0
LINE
  8
0
  6
CONTINUOUS
 62
     7
 10
-126.43696
 20
-295.5885
 11
-109.43696
 21
-295.5885
  0
LINE
  8
0
  6
CONTINUOUS
 62
     7
 10
-126.43696
 20
-322.92657
 11
-109.43696
 21
-322.92657
  0
LINE
  8
0
  6
CONTINUOUS
 62
     7
 10
-138.43697
 20
-373.75754
 11
-200.43697
 21
-373.75754
  0
LINE
  8
0
  6
CONTINUOUS
 62
     7
 10
-138.43697
 20
-354.75754
 11
-200.43697
 21
-354.75754
  0
LINE
  8
0
  6
CONTINUOUS
 62
     7
 10
-136.43697
 20
-356.75754
 11
-136.43697
 21
-371.75754
  0
LINE
  8
0
  6
CONTINUOUS
 62
     7
 10
-202.43697
 20
-356.75754
 11
-202.43697
 21
-371.75754
  0
LINE
  8
0
  6
CONTINUOUS
 62
     7
 10
-138.43697
 20
-354.75754
 11
-136.43697
 21
-356.75754
  0
LINE
  8
0
  6
CONTINUOUS
 62
     7
 10
-136.43695
 20
-371.75757
 11
-138.43697
 21
-373.75757
  0
LINE
  8
0
  6
CONTINUOUS
 62
     7
 10
-200.43695
 20
-373.75754
 11
-202.43695
 21
-371.75754
  0
LINE
  8
0
  6
CONTINUOUS
 62
     7
 10
-200.43695
 20
-354.75754
 11
-202.43695
 21
-356.75754
  0
LINE
  8
0
  6
CONTINUOUS
 62
     7
 10
-155.76791
 20
-355.75754
 11
-155.76791
 21
-372.75754
  0
LINE
  8
0
  6
CONTINUOUS
 62
     7
 10
-183.106
 20
-355.75754
 11
-183.106
 21
-372.75754
  0
LINE
  8
0
  6
CONTINUOUS
 62
     7
 10
-230.43697
 20
-278.25754
 11
-230.43697
 21
-340.25754
  0
LINE
  8
0
  6
CONTINUOUS
 62
     7
 10
-211.43697
 20
-278.25754
 11
-211.43697
 21
-340.25754
  0
LINE
  8
0
  6
CONTINUOUS
 62
     7
 10
-213.43697
 20
-276.25754
 11
-228.43697
 21
-276.25754
  0
LINE
  8
0
  6
CONTINUOUS
 62
     7
 10
-213.43697
 20
-342.25754
 11
-228.43697
 21
-342.25754
  0
LINE
  8
0
  6
CONTINUOUS
 62
     7
 10
-211.43695
 20
-278.25754
 11
-213.43697
 21
-276.25754
  0
LINE
  8
0
  6
CONTINUOUS
 62
     7
 10
-228.43695
 20
-276.25754
 11
-230.43695
 21
-278.25754
  0
LINE
  8
0
  6
CONTINUOUS
 62
     7
 10
-230.43694
 20
-340.25754
 11
-228.43694
 21
-342.25754
  0
LINE
  8
0
  6
CONTINUOUS
 62
     7
 10
-211.43695
 20
-340.25754
 11
-213.43695
 21
-342.25754
  0
LINE
  8
0
  6
CONTINUOUS
 62
     7
 10
-212.43697
 20
-295.5885
 11
-229.43697
 21
-295.5885
  0
LINE
  8
0
  6
CONTINUOUS
 62
     7
 10
-212.43697
 20
-322.92657
 11
-229.43697
 21
-322.92657
  0
LINE
  8
0
  6
CENTER
 62
     7
 10
86.463257
 20
-414.2048
 11
86.463257
 21
-531.80481
  0
LINE
  8
0
  6
CENTER
 62
     7
 10
8.5882397
 20
-453.50482
 11
167.83826
 21
-453.50482
  0
LINE
  8
0
  6
CONTINUOUS
 62
     7
 10
116.46326
 20
-489.50482
 11
116.46326
 21
-500.17468
  0
LINE
  8
0
  6
CONTINUOUS
 62
     7
 10
56.463257
 20
-489.50482
 11
56.463257
 21
-500.17468
  0
LINE
  8
0
  6
CONTINUOUS
 62
     7
 10
50.463257
 20
-483.50482
 11
44.293381
 21
-483.50482
  0
LINE
  8
0
  6
CONTINUOUS
 62
     7
 10
44.293381
 20
-423.50482
 11
128.63313
 21
-423.50482
  0
LINE
  8
0
  6
CONTINUOUS
 62
     7
 10
122.46326
 20
-483.50482
 11
128.63313
 21
-483.50482
  0
LINE
  8
0
  6
CONTINUOUS
 62
     7
 10
152.96326
 20
-419.00482
 11
152.96326
 21
-488.00482
  0
LINE
  8
0
  6
CONTINUOUS
 62
     7
 10
131.96326
 20
-453.50482
 11
151.96326
 21
-453.50482
  0
LINE
  8
0
  6
CONTINUOUS
 62
     7
 10
130.96326
 20
-419.00482
 11
130.96326
 21
-488.00482
  0
LINE
  8
0
  6
CONTINUOUS
 62
     7
 10
132.96326
 20
-417.00482
 11
150.96326
 21
-417.00482
  0
LINE
  8
0
  6
CONTINUOUS
 62
     7
 10
132.96326
 20
-490.00482
 11
150.96326
 21
-490.00482
  0
LINE
  8
0
  6
CONTINUOUS
 62
     7
 10
131.96326
 20
-430.94656
 11
151.96326
 21
-430.94656
  0
LINE
  8
0
  6
CONTINUOUS
 62
     7
 10
131.96326
 20
-476.06305
 11
151.96326
 21
-476.06305
  0
LINE
  8
0
  6
CONTINUOUS
 62
     7
 10
130.96324
 20
-419.00479
 11
132.96324
 21
-417.00479
  0
LINE
  8
0
  6
CONTINUOUS
 62
     7
 10
150.96324
 20
-417.00482
 11
152.96324
 21
-419.00482
  0
LINE
  8
0
  6
CONTINUOUS
 62
     7
 10
130.96326
 20
-488.00482
 11
132.96326
 21
-490.00482
  0
LINE
  8
0
  6
CONTINUOUS
 62
     7
 10
152.96326
 20
-488.00482
 11
150.96326
 21
-490.00482
  0
LINE
  8
0
  6
CONTINUOUS
 62
     7
 10
120.96326
 20
-524.50482
 11
51.963257
 21
-524.50482
  0
LINE
  8
0
  6
CONTINUOUS
 62
     7
 10
86.463257
 20
-503.50482
 11
86.463257
 21
-523.50482
  0
LINE
  8
0
  6
CONTINUOUS
 62
     7
 10
120.96326
 20
-502.50482
 11
51.963257
 21
-502.50482
  0
LINE
  8
0
  6
CONTINUOUS
 62
     7
 10
122.96326
 20
-504.50482
 11
122.96326
 21
-522.50482
  0
LINE
  8
0
  6
CONTINUOUS
 62
     7
 10
49.963257
 20
-504.50482
 11
49.963257
 21
-522.50482
  0
LINE
  8
0
  6
CONTINUOUS
 62
     7
 10
109.0215
 20
-503.50482
 11
109.0215
 21
-523.50482
  0
LINE
  8
0
  6
CONTINUOUS
 62
     7
 10
63.905014
 20
-503.50482
 11
63.905014
 21
-523.50482
  0
LINE
  8
0
  6
CONTINUOUS
 62
     7
 10
120.96325
 20
-502.50479
 11
122.96326
 21
-504.50479
  0
LINE
  8
0
  6
CONTINUOUS
 62
     7
 10
122.96326
 20
-522.50482
 11
120.96325
 21
-524.50482
  0
LINE
  8
0
  6
CONTINUOUS
 62
     7
 10
51.963264
 20
-502.50479
 11
49.963261
 21
-504.50479
  0
LINE
  8
0
  6
CONTINUOUS
 62
     7
 10
51.963242
 20
-524.50482
 11
49.963238
 21
-522.50482
  0
LINE
  8
0
  6
CONTINUOUS
 62
     7
 10
19.96324
 20
-419.00482
 11
19.96324
 21
-488.00482
  0
LINE
  8
0
  6
CONTINUOUS
 62
     7
 10
40.963242
 20
-453.50482
 11
20.96324
 21
-453.50482
  0
LINE
  8
0
  6
CONTINUOUS
 62
     7
 10
41.963242
 20
-419.00482
 11
41.963242
 21
-488.00482
  0
LINE
  8
0
  6
CONTINUOUS
 62
     7
 10
39.963242
 20
-417.00482
 11
21.96324
 21
-417.00482
  0
LINE
  8
0
  6
CONTINUOUS
 62
     7
 10
39.963242
 20
-490.00482
 11
21.96324
 21
-490.00482
  0
LINE
  8
0
  6
CONTINUOUS
 62
     7
 10
40.963242
 20
-430.94656
 11
20.96324
 21
-430.94656
  0
LINE
  8
0
  6
CONTINUOUS
 62
     7
 10
40.963242
 20
-476.06305
 11
20.96324
 21
-476.06305
  0
LINE
  8
0
  6
CONTINUOUS
 62
     7
 10
41.963249
 20
-419.00482
 11
39.963245
 21
-417.00482
  0
LINE
  8
0
  6
CONTINUOUS
 62
     7
 10
21.96327
 20
-417.00482
 11
19.963268
 21
-419.00482
  0
LINE
  8
0
  6
CONTINUOUS
 62
     7
 10
41.963253
 20
-488.00479
 11
39.963253
 21
-490.00479
  0
LINE
  8
0
  6
CONTINUOUS
 62
     7
 10
19.963249
 20
-488.00482
 11
21.963251
 21
-490.00482
  0
LINE
  8
0
  6
CENTER
 62
     7
 10
-230.31619
 20
-768.62128
 11
-49.366211
 21
-768.62128
  0
LINE
  8
0
  6
CENTER
 62
     7
 10
-139.17868
 20
-728.37134
 11
-139.17868
 21
-853.11768
  0
LINE
  8
0
  6
CONTINUOUS
 62
     7
 10
-182.67868
 20
-805.12134
 11
-189.34857
 21
-805.12134
  0
LINE
  8
0
  6
CONTINUOUS
 62
     7
 10
-189.34857
 20
-732.12134
 11
-89.008789
 21
-732.12134
  0
LINE
  8
0
  6
CONTINUOUS
 62
     7
 10
-95.678711
 20
-805.12134
 11
-89.008789
 21
-805.12134
  0
LINE
  8
0
  6
CONTINUOUS
 62
     7
 10
-102.67871
 20
-812.12134
 11
-102.67871
 21
-823.2912
  0
LINE
  8
0
  6
CONTINUOUS
 62
     7
 10
-175.67868
 20
-812.12134
 11
-175.67868
 21
-823.2912
  0
LINE
  8
0
  6
CONTINUOUS
 62
     7
 10
-64.178711
 20
-727.12134
 11
-64.178711
 21
-810.12134
  0
LINE
  8
0
  6
CONTINUOUS
 62
     7
 10
-86.678711
 20
-768.62128
 11
-65.178711
 21
-768.62128
  0
LINE
  8
0
  6
CONTINUOUS
 62
     7
 10
-87.678711
 20
-727.12134
 11
-87.678711
 21
-810.12134
  0
LINE
  8
0
  6
CONTINUOUS
 62
     7
 10
-85.678711
 20
-725.12134
 11
-66.178711
 21
-725.12134
  0
LINE
  8
0
  6
CONTINUOUS
 62
     7
 10
-85.678711
 20
-812.12134
 11
-66.178711
 21
-812.12134
  0
LINE
  8
0
  6
CONTINUOUS
 62
     7
 10
-87.67868
 20
-727.12128
 11
-85.67868
 21
-725.12128
  0
LINE
  8
0
  6
CONTINUOUS
 62
     7
 10
-66.178688
 20
-725.12128
 11
-64.178688
 21
-727.12128
  0
LINE
  8
0
  6
CONTINUOUS
 62
     7
 10
-87.67868
 20
-810.12128
 11
-85.678703
 21
-812.12128
  0
LINE
  8
0
  6
CONTINUOUS
 62
     7
 10
-66.178711
 20
-812.12128
 11
-64.178711
 21
-810.12122
  0
LINE
  8
0
  6
CONTINUOUS
 62
     7
 10
-65.178711
 20
-741.73682
 11
-86.678711
 21
-741.73682
  0
LINE
  8
0
  6
CONTINUOUS
 62
     7
 10
-65.178711
 20
-795.5058
 11
-86.678711
 21
-795.5058
  0
LINE
  8
0
  6
CONTINUOUS
 62
     7
 10
-97.678711
 20
-848.12134
 11
-180.67868
 21
-848.12134
  0
LINE
  8
0
  6
CONTINUOUS
 62
     7
 10
-139.17868
 20
-825.62134
 11
-139.17868
 21
-847.12134
  0
LINE
  8
0
  6
CONTINUOUS
 62
     7
 10
-97.678711
 20
-824.62134
 11
-180.67868
 21
-824.62134
  0
LINE
  8
0
  6
CONTINUOUS
 62
     7
 10
-95.678711
 20
-826.62134
 11
-95.678711
 21
-846.12134
  0
LINE
  8
0
  6
CONTINUOUS
 62
     7
 10
-182.67868
 20
-826.62134
 11
-182.67868
 21
-846.12134
  0
LINE
  8
0
  6
CONTINUOUS
 62
     7
 10
-97.678696
 20
-824.62128
 11
-95.678696
 21
-826.62128
  0
LINE
  8
0
  6
CONTINUOUS
 62
     7
 10
-95.678696
 20
-846.12128
 11
-97.678696
 21
-848.12128
  0
LINE
  8
0
  6
CONTINUOUS
 62
     7
 10
-180.67868
 20
-824.62128
 11
-182.67868
 21
-826.62128
  0
LINE
  8
0
  6
CONTINUOUS
 62
     7
 10
-182.67868
 20
-846.12128
 11
-180.67867
 21
-848.12128
  0
LINE
  8
0
  6
CONTINUOUS
 62
     7
 10
-112.29419
 20
-847.12134
 11
-112.29419
 21
-825.62134
  0
LINE
  8
0
  6
CONTINUOUS
 62
     7
 10
-166.06317
 20
-847.12134
 11
-166.06317
 21
-825.62134
  0
LINE
  8
0
  6
CONTINUOUS
 62
     7
 10
-214.17868
 20
-727.12134
 11
-214.17868
 21
-810.12134
  0
LINE
  8
0
  6
CONTINUOUS
 62
     7
 10
-191.67868
 20
-768.62128
 11
-213.17868
 21
-768.62128
  0
LINE
  8
0
  6
CONTINUOUS
 62
     7
 10
-190.67868
 20
-727.12134
 11
-190.67868
 21
-810.12134
  0
LINE
  8
0
  6
CONTINUOUS
 62
     7
 10
-192.67868
 20
-725.12134
 11
-212.17868
 21
-725.12134
  0
LINE
  8
0
  6
CONTINUOUS
 62
     7
 10
-192.67868
 20
-812.12134
 11
-212.17868
 21
-812.12134
  0
LINE
  8
0
  6
CONTINUOUS
 62
     7
 10
-190.6787
 20
-727.12128
 11
-192.6787
 21
-725.12128
  0
LINE
  8
0
  6
CONTINUOUS
 62
     7
 10
-212.1787
 20
-725.12128
 11
-214.1787
 21
-727.12128
  0
LINE
  8
0
  6
CONTINUOUS
 62
     7
 10
-190.6787
 20
-810.12128
 11
-192.6787
 21
-812.12128
  0
LINE
  8
0
  6
CONTINUOUS
 62
     7
 10
-212.17873
 20
-812.12134
 11
-214.17873
 21
-810.12134
  0
LINE
  8
0
  6
CONTINUOUS
 62
     7
 10
-213.17868
 20
-741.73682
 11
-191.67868
 21
-741.73682
  0
LINE
  8
0
  6
CONTINUOUS
 62
     7
 10
-213.17868
 20
-795.5058
 11
-191.67868
 21
-795.5058
  0
LINE
  8
0
  6
CONTINUOUS
 62
     7
 10
297
 20
-1090
 11
-297
 21
-1090
  0
LINE
  8
0
  6
CONTINUOUS
 62
     7
 10
-297
 20
-1090
 11
-297
 21
-670
  0
LINE
  8
0
  6
CONTINUOUS
 62
     7
 10
297
 20
-670
 11
297
 21
-1090
  0
LINE
  8
0
  6
CONTINUOUS
 62
     7
 10
-297
 20
-670
 11
297
 21
-670
  0
LINE
  8
0
  6
CONTINUOUS
 62
     7
 10
-169.24187
 20
71.686966
 11
-181.54338
 21
83.988487
  0
LINE
  8
0
  6
CONTINUOUS
 62
     7
 10
-181.54338
 20
83.988495
 11
-198.94034
 21
83.988495
  0
LINE
  8
0
  6
CONTINUOUS
 62
     7
 10
-211.24187
 20
71.686966
 11
-198.94035
 21
83.98848
  0
LINE
  8
0
  6
CONTINUOUS
 62
     7
 10
-211.24185
 20
54.290005
 11
-211.24185
 21
71.686966
  0
LINE
  8
0
  6
CONTINUOUS
 62
     7
 10
-198.94035
 20
41.98848
 11
-211.24187
 21
54.289997
  0
LINE
  8
0
  6
CONTINUOUS
 62
     7
 10
-181.54338
 20
41.988491
 11
-198.94034
 21
41.988491
  0
LINE
  8
0
  6
CONTINUOUS
 62
     7
 10
-169.24187
 20
54.289997
 11
-181.54338
 21
41.98848
  0
LINE
  8
0
  6
CONTINUOUS
 62
     7
 10
-169.24185
 20
71.686966
 11
-169.24185
 21
54.290005
  0
LINE
  8
0
  6
CENTER
 62
     7
 10
-190.24185
 20
86.274384
 11
-190.24185
 21
39.702587
  0
LINE
  8
0
  6
CONTINUOUS
 62
     7
 10
111.68499
 20
74.480202
 11
97.3433
 21
88.821899
  0
LINE
  8
0
  6
CONTINUOUS
 62
     7
 10
97.3433
 20
88.821899
 11
77.061073
 21
88.821899
  0
LINE
  8
0
  6
CONTINUOUS
 62
     7
 10
62.719368
 20
74.480194
 11
77.061066
 21
88.821892
  0
LINE
  8
0
  6
CONTINUOUS
 62
     7
 10
62.719376
 20
54.197979
 11
62.719376
 21
74.480194
  0
LINE
  8
0
  6
CONTINUOUS
 62
     7
 10
77.061058
 20
39.85627
 11
62.71936
 21
54.197964
  0
LINE
  8
0
  6
CONTINUOUS
 62
     7
 10
97.3433
 20
39.856274
 11
77.061073
 21
39.856274
  0
LINE
  8
0
  6
CONTINUOUS
 62
     7
 10
111.68499
 20
54.197975
 11
97.343285
 21
39.856274
  0
LINE
  8
0
  6
CONTINUOUS
 62
     7
 10
111.68501
 20
74.480194
 11
111.68501
 21
54.197979
  0
LINE
  8
0
  6
CENTER
 62
     7
 10
87.202187
 20
90.374985
 11
87.202187
 21
38.303188
  0
LINE
  8
0
  6
CONTINUOUS
 62
     7
 10
-27.397017
 20
-149.17834
 11
-44.38483
 21
-132.19054
  0
LINE
  8
0
  6
CONTINUOUS
 62
     7
 10
-44.384834
 20
-132.19054
 11
-68.409218
 21
-132.19054
  0
LINE
  8
0
  6
CONTINUOUS
 62
     7
 10
-85.397026
 20
-149.17833
 11
-68.409218
 21
-132.19054
  0
LINE
  8
0
  6
CONTINUOUS
 62
     7
 10
-85.397026
 20
-173.20273
 11
-85.397026
 21
-149.17834
  0
LINE
  8
0
  6
CONTINUOUS
 62
     7
 10
-68.40921
 20
-190.19054
 11
-85.397026
 21
-173.20273
  0
LINE
  8
0
  6
CONTINUOUS
 62
     7
 10
-44.384834
 20
-190.19054
 11
-68.409218
 21
-190.19054
  0
LINE
  8
0
  6
CONTINUOUS
 62
     7
 10
-27.397017
 20
-173.20273
 11
-44.384819
 21
-190.19054
  0
LINE
  8
0
  6
CONTINUOUS
 62
     7
 10
-27.397028
 20
-149.17834
 11
-27.397028
 21
-173.20273
  0
LINE
  8
0
  6
CENTER
 62
     7
 10
-56.397026
 20
-126.08165
 11
-56.397026
 21
-195.31883
  0
LINE
  8
0
  6
CONTINUOUS
 62
     7
 10
-136.43694
 20
-425.58847
 11
-155.7679
 21
-406.25751
  0
LINE
  8
0
  6
CONTINUOUS
 62
     7
 10
-155.76791
 20
-406.25754
 11
-183.10602
 21
-406.25754
  0
LINE
  8
0
  6
CONTINUOUS
 62
     7
 10
-202.43697
 20
-425.5885
 11
-183.106
 21
-406.25754
  0
LINE
  8
0
  6
CONTINUOUS
 62
     7
 10
-202.43697
 20
-452.92657
 11
-202.43697
 21
-425.5885
  0
LINE
  8
0
  6
CONTINUOUS
 62
     7
 10
-183.10599
 20
-472.25754
 11
-202.43695
 21
-452.92657
  0
LINE
  8
0
  6
CONTINUOUS
 62
     7
 10
-155.76791
 20
-472.25754
 11
-183.10602
 21
-472.25754
  0
LINE
  8
0
  6
CONTINUOUS
 62
     7
 10
-136.43695
 20
-452.92657
 11
-155.76791
 21
-472.25754
  0
LINE
  8
0
  6
CONTINUOUS
 62
     7
 10
-136.43697
 20
-425.5885
 11
-136.43697
 21
-452.92657
  0
LINE
  8
0
  6
CENTER
 62
     7
 10
-169.43697
 20
-405.37164
 11
-169.43697
 21
-473.14343
  0
LINE
  8
0
  6
CENTER
 62
     7
 10
44.638245
 20
-583.50482
 11
128.98824
 21
-583.50482
  0
LINE
  8
0
  6
CONTINUOUS
 62
     7
 10
86.463249
 20
-545.12646
 11
63.905029
 21
-552.45605
  0
LINE
  8
0
  6
CONTINUOUS
 62
     7
 10
63.90501
 20
-552.45605
 11
49.963245
 21
-571.64526
  0
LINE
  8
0
  6
CONTINUOUS
 62
     7
 10
49.963257
 20
-595.36438
 11
49.963257
 21
-571.64526
  0
LINE
  8
0
  6
CONTINUOUS
 62
     7
 10
63.905018
 20
-614.55359
 11
49.963253
 21
-595.36438
  0
LINE
  8
0
  6
CONTINUOUS
 62
     7
 10
86.463226
 20
-621.88324
 11
63.904995
 21
-614.55359
  0
LINE
  8
0
  6
CONTINUOUS
 62
     7
 10
109.02149
 20
-614.55359
 11
86.463272
 21
-621.88318
  0
LINE
  8
0
  6
CONTINUOUS
 62
     7
 10
122.96325
 20
-595.36438
 11
109.02148
 21
-614.55359
  0
LINE
  8
0
  6
CONTINUOUS
 62
     7
 10
122.96325
 20
-571.64526
 11
122.96325
 21
-595.36438
  0
LINE
  8
0
  6
CONTINUOUS
 62
     7
 10
109.02149
 20
-552.45605
 11
122.96326
 21
-571.64526
  0
LINE
  8
0
  6
CONTINUOUS
 62
     7
 10
86.463242
 20
-545.12646
 11
109.02148
 21
-552.45605
  0
LINE
  8
0
  6
CONTINUOUS
 62
     7
 10
-139.17871
 20
-882.88263
 11
-166.06322
 21
-891.61798
  0
LINE
  8
0
  6
CONTINUOUS
 62
     7
 10
-166.06319
 20
-891.61798
 11
-182.6787
 21
-914.4873
  0
LINE
  8
0
  6
CONTINUOUS
 62
     7
 10
-182.67868
 20
-942.75531
 11
-182.67868
 21
-914.4873
  0
LINE
  8
0
  6
CONTINUOUS
 62
     7
 10
-166.06316
 20
-965.62457
 11
-182.67868
 21
-942.75531
  0
LINE
  8
0
  6
CONTINUOUS
 62
     7
 10
-139.17873
 20
-974.35992
 11
-166.06319
 21
-965.62463
  0
LINE
  8
0
  6
CONTINUOUS
 62
     7
 10
-112.29421
 20
-965.62463
 11
-139.17871
 21
-974.35992
  0
LINE
  8
0
  6
CONTINUOUS
 62
     7
 10
-95.678703
 20
-942.75531
 11
-112.29422
 21
-965.62463
  0
LINE
  8
0
  6
CONTINUOUS
 62
     7
 10
-95.678711
 20
-914.4873
 11
-95.678711
 21
-942.75531
  0
LINE
  8
0
  6
CONTINUOUS
 62
     7
 10
-112.29424
 20
-891.61798
 11
-95.678726
 21
-914.4873
  0
LINE
  8
0
  6
CONTINUOUS
 62
     7
 10
-139.17871
 20
-882.88269
 11
-112.29424
 21
-891.61798
  0
LINE
  8
0
  6
CENTER
 62
     7
 10
-192.37869
 20
-928.62128
 11
-88.078735
 21
-928.62128
  0
LINE
  8
0
  6
CENTER
 62
     7
 10
-139.17868
 20
-978.91431
 11
-139.17868
 21
-876.99158
  0
LINE
  8
0
  6
CENTER
 62
     7
 10
86.463257
 20
-626.33868
 11
86.463257
 21
-540.64941
  0
LINE
  8
0
  6
CENTER
 62
     7
 10
-211.44115
 20
-439.25754
 11
-127.92451
 21
-439.25754
  0
LINE
  8
0
  6
CENTER
 62
     7
 10
-91.939018
 20
-161.19054
 11
-19.777994
 21
-161.19054
  0
LINE
  8
0
  6
CENTER
 62
     7
 10
-217.70909
 20
62.988491
 11
-164.2119
 21
62.988491
  0
LINE
  8
0
  6
CENTER
 62
     7
 10
54.18
 20
64.339096
 11
117.36198
 21
64.339096
  0
LINE
  8
0
  6
CONTINUOUS
 62
     7
 10
-79.241867
 20
161.68697
 11
-91.543381
 21
173.98848
  0
LINE
  8
0
  6
CONTINUOUS
 62
     7
 10
-91.543388
 20
173.98849
 11
-108.94035
 21
173.98849
  0
LINE
  8
0
  6
CONTINUOUS
 62
     7
 10
-121.24187
 20
161.68697
 11
-108.94035
 21
173.98848
  0
LINE
  8
0
  6
CONTINUOUS
 62
     7
 10
-121.24186
 20
144.29001
 11
-121.24186
 21
161.68697
  0
LINE
  8
0
  6
CONTINUOUS
 62
     7
 10
-108.94035
 20
131.98848
 11
-121.24187
 21
144.28999
  0
LINE
  8
0
  6
CONTINUOUS
 62
     7
 10
-91.543388
 20
131.98849
 11
-108.94035
 21
131.98849
  0
LINE
  8
0
  6
CONTINUOUS
 62
     7
 10
-79.241867
 20
144.28999
 11
-91.543388
 21
131.98848
  0
LINE
  8
0
  6
CONTINUOUS
 62
     7
 10
-79.241859
 20
161.68697
 11
-79.241859
 21
144.29001
  0
LINE
  8
0
  6
CENTER
 62
     7
 10
-100.24186
 20
176.27438
 11
-100.24186
 21
129.70259
  0
LINE
  8
0
  6
CENTER
 62
     7
 10
-127.70909
 20
152.98849
 11
-74.211906
 21
152.98849
  0
LINE
  8
0
  6
CONTINUOUS
 62
     7
 10
92.602982
 20
-29.178345
 11
75.615166
 21
-12.19053
  0
LINE
  8
0
  6
CONTINUOUS
 62
     7
 10
75.615166
 20
-12.19053
 11
51.590782
 21
-12.19053
  0
LINE
  8
0
  6
CONTINUOUS
 62
     7
 10
34.602974
 20
-29.178335
 11
51.590778
 21
-12.19053
  0
LINE
  8
0
  6
CONTINUOUS
 62
     7
 10
34.602974
 20
-53.202732
 11
34.602974
 21
-29.178343
  0
LINE
  8
0
  6
CONTINUOUS
 62
     7
 10
51.59079
 20
-70.190536
 11
34.602974
 21
-53.202724
  0
LINE
  8
0
  6
CONTINUOUS
 62
     7
 10
75.615166
 20
-70.190536
 11
51.590782
 21
-70.190536
  0
LINE
  8
0
  6
CONTINUOUS
 62
     7
 10
92.602982
 20
-53.202736
 11
75.615181
 21
-70.190536
  0
LINE
  8
0
  6
CONTINUOUS
 62
     7
 10
92.602974
 20
-29.178343
 11
92.602974
 21
-53.202732
  0
LINE
  8
0
  6
CENTER
 62
     7
 10
63.602974
 20
-6.0816503
 11
63.602974
 21
-75.318832
  0
LINE
  8
0
  6
CENTER
 62
     7
 10
28.06098
 20
-41.190533
 11
100.22201
 21
-41.190533
  0
LINE
  8
0
  6
CENTER
 62
     7
 10
-91.939018
 20
-41.190533
 11
-19.777994
 21
-41.190533
  0
LINE
  8
0
  6
CONTINUOUS
 62
     7
 10
211.685
 20
174.48021
 11
197.34329
 21
188.8219
  0
LINE
  8
0
  6
CONTINUOUS
 62
     7
 10
197.34329
 20
188.8219
 11
177.06107
 21
188.8219
  0
LINE
  8
0
  6
CONTINUOUS
 62
     7
 10
162.71936
 20
174.48019
 11
177.06107
 21
188.8219
  0
LINE
  8
0
  6
CONTINUOUS
 62
     7
 10
162.71938
 20
154.19798
 11
162.71938
 21
174.48019
  0
LINE
  8
0
  6
CONTINUOUS
 62
     7
 10
177.06105
 20
139.85628
 11
162.71936
 21
154.19797
  0
LINE
  8
0
  6
CONTINUOUS
 62
     7
 10
197.34329
 20
139.85628
 11
177.06107
 21
139.85628
  0
LINE
  8
0
  6
CONTINUOUS
 62
     7
 10
211.68498
 20
154.19797
 11
197.34329
 21
139.85628
  0
LINE
  8
0
  6
CONTINUOUS
 62
     7
 10
211.685
 20
174.48019
 11
211.685
 21
154.19798
  0
LINE
  8
0
  6
CENTER
 62
     7
 10
187.20218
 20
190.37498
 11
187.20218
 21
138.30319
  0
LINE
  8
0
  6
CENTER
 62
     7
 10
154.17999
 20
164.3391
 11
217.36197
 21
164.3391
  0
LINE
  8
0
  6
CONTINUOUS
 62
     7
 10
3.5630581
 20
-295.5885
 11
-15.7679
 21
-276.25754
  0
LINE
  8
0
  6
CONTINUOUS
 62
     7
 10
-15.767909
 20
-276.25754
 11
-43.106014
 21
-276.25754
  0
LINE
  8
0
  6
CONTINUOUS
 62
     7
 10
-62.436947
 20
-295.5885
 11
-43.105988
 21
-276.25754
  0
LINE
  8
0
  6
CONTINUOUS
 62
     7
 10
-62.436962
 20
-322.92657
 11
-62.436962
 21
-295.5885
  0
LINE
  8
0
  6
CONTINUOUS
 62
     7
 10
-43.105988
 20
-342.25754
 11
-62.436947
 21
-322.92657
  0
LINE
  8
0
  6
CONTINUOUS
 62
     7
 10
-15.767909
 20
-342.25754
 11
-43.106014
 21
-342.25754
  0
LINE
  8
0
  6
CONTINUOUS
 62
     7
 10
3.5630581
 20
-322.92657
 11
-15.7679
 21
-342.25754
  0
LINE
  8
0
  6
CONTINUOUS
 62
     7
 10
3.5630388
 20
-295.5885
 11
3.5630388
 21
-322.92657
  0
LINE
  8
0
  6
CENTER
 62
     7
 10
-29.43696
 20
-275.37164
 11
-29.43696
 21
-343.14343
  0
LINE
  8
0
  6
CENTER
 62
     7
 10
-71.441139
 20
-309.25754
 11
12.07549
 21
-309.25754
  0
LINE
  8
0
  6
CENTER
 62
     7
 10
226.46326
 20
-411.67981
 11
226.46326
 21
-496.02979
  0
LINE
  8
0
  6
CONTINUOUS
 62
     7
 10
264.84161
 20
-453.50482
 11
257.51202
 21
-430.94659
  0
LINE
  8
0
  6
CONTINUOUS
 62
     7
 10
257.51199
 20
-430.94656
 11
238.32281
 21
-417.00479
  0
LINE
  8
0
  6
CONTINUOUS
 62
     7
 10
214.60368
 20
-417.00482
 11
238.32281
 21
-417.00482
  0
LINE
  8
0
  6
CONTINUOUS
 62
     7
 10
195.41451
 20
-430.94656
 11
214.60368
 21
-417.00479
  0
LINE
  8
0
  6
CONTINUOUS
 62
     7
 10
188.08488
 20
-453.50482
 11
195.41451
 21
-430.94656
  0
LINE
  8
0
  6
CONTINUOUS
 62
     7
 10
195.41451
 20
-476.06308
 11
188.08488
 21
-453.50482
  0
LINE
  8
0
  6
CONTINUOUS
 62
     7
 10
214.60368
 20
-490.00479
 11
195.41449
 21
-476.06305
  0
LINE
  8
0
  6
CONTINUOUS
 62
     7
 10
238.32281
 20
-490.00479
 11
214.60368
 21
-490.00479
  0
LINE
  8
0
  6
CONTINUOUS
 62
     7
 10
257.51202
 20
-476.06305
 11
238.32285
 21
-490.00482
  0
LINE
  8
0
  6
CONTINUOUS
 62
     7
 10
264.84161
 20
-453.50482
 11
257.51202
 21
-476.06305
  0
LINE
  8
0
  6
CENTER
 62
     7
 10
183.62936
 20
-453.50482
 11
269.31863
 21
-453.50482
  0
LINE
  8
0
  6
CONTINUOUS
 62
     7
 10
-297
 20
-210
 11
-297
 21
210
  0
LINE
  8
0
  6
CONTINUOUS
 62
     7
 10
297
 20
-210
 11
-297
 21
-210
  0
LINE
  8
0
  6
CONTINUOUS
 62
     7
 10
-297
 20
210
 11
297
 21
210
  0
LINE
  8
0
  6
CONTINUOUS
 62
     7
 10
297
 20
210
 11
297
 21
-210
  0
LINE
  8
0
  6
CONTINUOUS
 62
     7
 10
86.559944
 20
-768.62128
 11
77.824631
 21
-741.73676
  0
LINE
  8
0
  6
CONTINUOUS
 62
     7
 10
77.824638
 20
-741.73676
 11
54.955338
 21
-725.12128
  0
LINE
  8
0
  6
CONTINUOUS
 62
     7
 10
26.687317
 20
-725.12134
 11
54.955322
 21
-725.12134
  0
LINE
  8
0
  6
CONTINUOUS
 62
     7
 10
3.818049
 20
-741.73682
 11
26.687346
 21
-725.12134
  0
LINE
  8
0
  6
CONTINUOUS
 62
     7
 10
-4.9172845
 20
-768.62134
 11
3.8180287
 21
-741.73682
  0
LINE
  8
0
  6
CONTINUOUS
 62
     7
 10
3.8180246
 20
-795.5058
 11
-4.9172883
 21
-768.62128
  0
LINE
  8
0
  6
CONTINUOUS
 62
     7
 10
26.687321
 20
-812.12128
 11
3.8180232
 21
-795.50574
  0
LINE
  8
0
  6
CONTINUOUS
 62
     7
 10
54.955322
 20
-812.12128
 11
26.687317
 21
-812.12128
  0
LINE
  8
0
  6
CONTINUOUS
 62
     7
 10
77.824623
 20
-795.50574
 11
54.95533
 21
-812.12128
  0
LINE
  8
0
  6
CONTINUOUS
 62
     7
 10
86.559959
 20
-768.62128
 11
77.824646
 21
-795.5058
  0
LINE
  8
0
  6
CENTER
 62
     7
 10
40.821289
 20
-715.42126
 11
40.821289
 21
-819.72125
  0
LINE
  8
0
  6
CENTER
 62
     7
 10
-9.4716797
 20
-768.62128
 11
92.45105
 21
-768.62128
  0
LINE
  8
0
  6
CONTINUOUS
 62
     7
 10
317
 20
-1090
 11
317
 21
-670
  0
LINE
  8
0
  6
CONTINUOUS
 62
     7
 10
317
 20
-670
 11
911
 21
-670
  0
LINE
  8
0
  6
CONTINUOUS
 62
     7
 10
911
 20
-1090
 11
317
 21
-1090
  0
LINE
  8
0
  6
CONTINUOUS
 62
     7
 10
911
 20
-670
 11
911
 21
-1090
  0
LINE
  8
0
  6
CONTINUOUS
 62
     7
 10
449.97028
 20
121.1395
 11
447.73999
 21
121.1395
  0
LINE
  8
0
  6
CONTINUOUS
 62
     7
 10
444.73999
 20
112.40921
 11
444.73999
 21
118.1395
  0
LINE
  8
0
  6
CENTER
 62
     7
 10
429.23999
 20
154.90475
 11
429.23999
 21
77.839493
  0
LINE
  8
0
  6
CONTINUOUS
 62
     7
 10
449.97028
 20
152.1395
 11
408.5097
 21
152.1395
  0
LINE
  8
0
  6
CONTINUOUS
 62
     7
 10
408.5097
 20
121.1395
 11
409.73999
 21
121.1395
  0
LINE
  8
0
  6
CENTER
 62
     7
 10
483.7525
 20
136.6395
 11
374.0275
 21
136.6395
  0
LINE
  8
0
  6
CONTINUOUS
 62
     7
 10
413.73999
 20
117.1395
 11
413.73999
 21
112.40921
  0
LINE
  8
0
  6
CONTINUOUS
 62
     7
 10
411.23999
 20
103.1395
 11
411.23999
 21
108.07909
  0
LINE
  8
0
  6
CONTINUOUS
 62
     7
 10
447.23999
 20
103.1395
 11
447.23999
 21
108.07909
  0
LINE
  8
0
  6
CONTINUOUS
 62
     7
 10
458.73999
 20
118.6395
 11
454.30042
 21
118.6395
  0
LINE
  8
0
  6
CONTINUOUS
 62
     7
 10
458.73999
 20
154.6395
 11
454.30042
 21
154.6395
  0
LINE
  8
0
  6
CONTINUOUS
 62
     7
 10
476.23999
 20
155.6395
 11
476.23999
 21
117.6395
  0
LINE
  8
0
  6
CONTINUOUS
 62
     7
 10
460.73999
 20
157.6395
 11
474.23999
 21
157.6395
  0
LINE
  8
0
  6
CONTINUOUS
 62
     7
 10
460.73999
 20
115.6395
 11
474.23999
 21
115.6395
  0
LINE
  8
0
  6
CONTINUOUS
 62
     7
 10
458.73999
 20
155.6395
 11
458.73999
 21
117.6395
  0
LINE
  8
0
  6
CONTINUOUS
 62
     7
 10
459.73999
 20
145.33798
 11
475.23999
 21
145.33798
  0
LINE
  8
0
  6
CONTINUOUS
 62
     7
 10
459.73999
 20
127.94101
 11
475.23999
 21
127.94101
  0
LINE
  8
0
  6
CONTINUOUS
 62
     7
 10
460.73999
 20
157.6395
 11
458.74002
 21
155.63951
  0
LINE
  8
0
  6
CONTINUOUS
 62
     7
 10
474.24002
 20
157.6395
 11
476.24002
 21
155.63951
  0
LINE
  8
0
  6
CONTINUOUS
 62
     7
 10
476.24002
 20
117.6395
 11
474.24002
 21
115.6395
  0
LINE
  8
0
  6
CONTINUOUS
 62
     7
 10
458.74002
 20
117.6395
 11
460.74002
 21
115.6395
  0
LINE
  8
0
  6
CONTINUOUS
 62
     7
 10
478.23999
 20
149.3895
 11
478.23999
 21
123.8895
  0
LINE
  8
0
  6
CONTINUOUS
 62
     7
 10
476.23999
 20
149.92542
 11
478.23999
 21
149.38951
  0
LINE
  8
0
  6
CONTINUOUS
 62
     7
 10
476.23996
 20
123.3536
 11
478.23999
 21
123.8895
  0
LINE
  8
0
  6
CONTINUOUS
 62
     7
 10
382.24002
 20
123.35359
 11
380.24002
 21
123.8895
  0
LINE
  8
0
  6
CONTINUOUS
 62
     7
 10
399.73999
 20
118.6395
 11
404.17957
 21
118.6395
  0
LINE
  8
0
  6
CONTINUOUS
 62
     7
 10
399.73999
 20
154.6395
 11
404.17957
 21
154.6395
  0
LINE
  8
0
  6
CONTINUOUS
 62
     7
 10
382.23999
 20
155.6395
 11
382.23999
 21
117.6395
  0
LINE
  8
0
  6
CONTINUOUS
 62
     7
 10
397.73999
 20
157.6395
 11
384.23999
 21
157.6395
  0
LINE
  8
0
  6
CONTINUOUS
 62
     7
 10
397.73999
 20
115.6395
 11
384.23999
 21
115.6395
  0
LINE
  8
0
  6
CONTINUOUS
 62
     7
 10
399.73999
 20
155.6395
 11
399.73999
 21
117.6395
  0
LINE
  8
0
  6
CONTINUOUS
 62
     7
 10
398.73999
 20
145.33798
 11
383.23999
 21
145.33798
  0
LINE
  8
0
  6
CONTINUOUS
 62
     7
 10
398.73999
 20
127.94101
 11
383.23999
 21
127.94101
  0
LINE
  8
0
  6
CONTINUOUS
 62
     7
 10
397.73999
 20
157.6395
 11
399.73999
 21
155.6395
  0
LINE
  8
0
  6
CONTINUOUS
 62
     7
 10
384.24002
 20
157.63948
 11
382.24002
 21
155.63948
  0
LINE
  8
0
  6
CONTINUOUS
 62
     7
 10
382.24002
 20
117.63948
 11
384.23999
 21
115.6395
  0
LINE
  8
0
  6
CONTINUOUS
 62
     7
 10
399.73999
 20
117.6395
 11
397.73999
 21
115.6395
  0
LINE
  8
0
  6
CONTINUOUS
 62
     7
 10
380.23999
 20
149.3895
 11
380.23999
 21
123.8895
  0
LINE
  8
0
  6
CONTINUOUS
 62
     7
 10
382.23999
 20
149.9254
 11
380.23999
 21
149.38951
  0
LINE
  8
0
  6
CONTINUOUS
 62
     7
 10
454.30042
 20
154.6395
 11
454.30042
 21
118.6395
  0
LINE
  8
0
  6
CONTINUOUS
 62
     7
 10
404.17957
 20
154.6395
 11
404.17957
 21
118.6395
  0
LINE
  8
0
  6
CONTINUOUS
 62
     7
 10
411.23999
 20
108.07909
 11
447.23999
 21
108.07909
  0
LINE
  8
0
  6
CONTINUOUS
 62
     7
 10
448.23999
 20
85.639496
 11
410.23999
 21
85.639496
  0
LINE
  8
0
  6
CONTINUOUS
 62
     7
 10
450.23999
 20
101.1395
 11
450.23999
 21
87.639496
  0
LINE
  8
0
  6
CONTINUOUS
 62
     7
 10
408.23999
 20
101.1395
 11
408.23999
 21
87.639496
  0
LINE
  8
0
  6
CONTINUOUS
 62
     7
 10
448.23999
 20
103.1395
 11
410.23999
 21
103.1395
  0
LINE
  8
0
  6
CONTINUOUS
 62
     7
 10
437.93848
 20
102.1395
 11
437.93848
 21
86.639496
  0
LINE
  8
0
  6
CONTINUOUS
 62
     7
 10
420.5415
 20
102.1395
 11
420.5415
 21
86.639496
  0
LINE
  8
0
  6
CONTINUOUS
 62
     7
 10
450.23999
 20
101.13949
 11
448.23999
 21
103.13949
  0
LINE
  8
0
  6
CONTINUOUS
 62
     7
 10
450.24002
 20
87.639488
 11
448.24002
 21
85.639488
  0
LINE
  8
0
  6
CONTINUOUS
 62
     7
 10
410.24002
 20
85.639496
 11
408.24002
 21
87.639488
  0
LINE
  8
0
  6
CONTINUOUS
 62
     7
 10
410.23999
 20
103.13949
 11
408.24002
 21
101.1395
  0
LINE
  8
0
  6
CONTINUOUS
 62
     7
 10
441.98999
 20
83.639496
 11
416.48999
 21
83.639496
  0
LINE
  8
0
  6
CONTINUOUS
 62
     7
 10
442.52591
 20
85.639481
 11
441.99002
 21
83.639496
  0
LINE
  8
0
  6
CONTINUOUS
 62
     7
 10
415.9541
 20
85.639496
 11
416.49002
 21
83.639503
  0
LINE
  8
0
  6
CENTER
 62
     7
 10
629.70251
 20
136.6395
 11
750.80249
 21
136.6395
  0
LINE
  8
0
  6
CENTER
 62
     7
 10
690.60248
 20
158.86449
 11
690.60248
 21
75.91449
  0
LINE
  8
0
  6
CONTINUOUS
 62
     7
 10
711.60248
 20
102.6395
 11
711.60248
 21
99.139496
  0
LINE
  8
0
  6
CONTINUOUS
 62
     7
 10
711.60248
 20
102.6395
 11
669.60248
 21
102.6395
  0
LINE
  8
0
  6
CONTINUOUS
 62
     7
 10
664.06763
 20
154.8895
 11
717.13733
 21
154.8895
  0
LINE
  8
0
  6
CONTINUOUS
 62
     7
 10
712.85248
 20
118.3895
 11
717.13733
 21
118.3895
  0
LINE
  8
0
  6
CONTINUOUS
 62
     7
 10
669.60248
 20
102.6395
 11
669.60248
 21
99.139496
  0
LINE
  8
0
  6
CONTINUOUS
 62
     7
 10
668.35248
 20
118.3895
 11
664.06763
 21
118.3895
  0
LINE
  8
0
  6
CONTINUOUS
 62
     7
 10
659.60248
 20
157.6395
 11
659.60248
 21
115.6395
  0
LINE
  8
0
  6
CONTINUOUS
 62
     7
 10
721.60248
 20
157.6395
 11
721.60248
 21
115.6395
  0
LINE
  8
0
  6
CONTINUOUS
 62
     7
 10
721.60248
 20
157.6395
 11
725.10248
 21
157.6395
  0
LINE
  8
0
  6
CONTINUOUS
 62
     7
 10
721.60248
 20
115.6395
 11
725.10248
 21
115.6395
  0
LINE
  8
0
  6
CONTINUOUS
 62
     7
 10
672.35248
 20
114.3895
 11
672.35248
 21
107.10463
  0
LINE
  8
0
  6
CONTINUOUS
 62
     7
 10
708.85248
 20
114.3895
 11
708.85248
 21
107.10463
  0
LINE
  8
0
  6
CONTINUOUS
 62
     7
 10
743.60248
 20
159.1395
 11
743.60248
 21
114.1395
  0
LINE
  8
0
  6
CONTINUOUS
 62
     7
 10
725.10248
 20
159.1395
 11
725.10248
 21
114.1395
  0
LINE
  8
0
  6
CONTINUOUS
 62
     7
 10
727.10248
 20
161.1395
 11
741.60248
 21
161.1395
  0
LINE
  8
0
  6
CONTINUOUS
 62
     7
 10
727.10248
 20
112.1395
 11
741.60248
 21
112.1395
  0
LINE
  8
0
  6
CONTINUOUS
 62
     7
 10
725.10254
 20
159.1395
 11
727.10254
 21
161.1395
  0
LINE
  8
0
  6
CONTINUOUS
 62
     7
 10
727.10248
 20
112.13949
 11
725.10248
 21
114.1395
  0
LINE
  8
0
  6
CONTINUOUS
 62
     7
 10
741.60254
 20
161.1395
 11
743.60254
 21
159.1395
  0
LINE
  8
0
  6
CONTINUOUS
 62
     7
 10
743.60248
 20
114.1395
 11
741.60248
 21
112.13949
  0
LINE
  8
0
  6
CONTINUOUS
 62
     7
 10
726.10248
 20
146.78061
 11
742.60248
 21
146.78061
  0
LINE
  8
0
  6
CONTINUOUS
 62
     7
 10
726.10248
 20
126.49838
 11
742.60248
 21
126.49838
  0
LINE
  8
0
  6
CONTINUOUS
 62
     7
 10
745.60248
 20
152.1395
 11
745.60248
 21
121.1395
  0
LINE
  8
0
  6
CONTINUOUS
 62
     7
 10
743.60254
 20
152.67537
 11
745.60254
 21
152.13948
  0
LINE
  8
0
  6
CONTINUOUS
 62
     7
 10
743.60248
 20
120.60359
 11
745.60254
 21
121.13949
  0
LINE
  8
0
  6
CONTINUOUS
 62
     7
 10
713.10248
 20
80.639496
 11
668.10248
 21
80.639496
  0
LINE
  8
0
  6
CONTINUOUS
 62
     7
 10
713.10248
 20
99.139496
 11
668.10248
 21
99.139496
  0
LINE
  8
0
  6
CONTINUOUS
 62
     7
 10
715.10248
 20
97.139496
 11
715.10248
 21
82.639496
  0
LINE
  8
0
  6
CONTINUOUS
 62
     7
 10
666.10248
 20
97.139496
 11
666.10248
 21
82.639496
  0
LINE
  8
0
  6
CONTINUOUS
 62
     7
 10
713.10254
 20
99.139503
 11
715.10254
 21
97.139496
  0
LINE
  8
0
  6
CONTINUOUS
 62
     7
 10
666.10248
 20
97.139503
 11
668.10248
 21
99.139503
  0
LINE
  8
0
  6
CONTINUOUS
 62
     7
 10
715.10248
 20
82.639511
 11
713.10248
 21
80.639511
  0
LINE
  8
0
  6
CONTINUOUS
 62
     7
 10
668.10248
 20
80.639496
 11
666.10248
 21
82.639496
  0
LINE
  8
0
  6
CONTINUOUS
 62
     7
 10
700.74359
 20
98.139496
 11
700.74359
 21
81.639496
  0
LINE
  8
0
  6
CONTINUOUS
 62
     7
 10
680.46136
 20
98.139496
 11
680.46136
 21
81.639496
  0
LINE
  8
0
  6
CONTINUOUS
 62
     7
 10
706.10248
 20
78.639496
 11
675.10248
 21
78.639496
  0
LINE
  8
0
  6
CONTINUOUS
 62
     7
 10
706.63843
 20
80.639503
 11
706.10254
 21
78.639496
  0
LINE
  8
0
  6
CONTINUOUS
 62
     7
 10
674.56659
 20
80.639496
 11
675.10248
 21
78.639488
  0
LINE
  8
0
  6
CONTINUOUS
 62
     7
 10
637.60254
 20
120.60358
 11
635.60254
 21
121.13948
  0
LINE
  8
0
  6
CONTINUOUS
 62
     7
 10
659.60248
 20
157.6395
 11
656.10248
 21
157.6395
  0
LINE
  8
0
  6
CONTINUOUS
 62
     7
 10
659.60248
 20
115.6395
 11
656.10248
 21
115.6395
  0
LINE
  8
0
  6
CONTINUOUS
 62
     7
 10
637.60248
 20
159.1395
 11
637.60248
 21
114.1395
  0
LINE
  8
0
  6
CONTINUOUS
 62
     7
 10
656.10248
 20
159.1395
 11
656.10248
 21
114.1395
  0
LINE
  8
0
  6
CONTINUOUS
 62
     7
 10
654.10248
 20
161.1395
 11
639.60248
 21
161.1395
  0
LINE
  8
0
  6
CONTINUOUS
 62
     7
 10
654.10248
 20
112.1395
 11
639.60248
 21
112.1395
  0
LINE
  8
0
  6
CONTINUOUS
 62
     7
 10
656.10254
 20
159.1395
 11
654.10254
 21
161.1395
  0
LINE
  8
0
  6
CONTINUOUS
 62
     7
 10
654.10248
 20
112.13949
 11
656.10248
 21
114.13949
  0
LINE
  8
0
  6
CONTINUOUS
 62
     7
 10
639.60248
 20
161.1395
 11
637.60248
 21
159.1395
  0
LINE
  8
0
  6
CONTINUOUS
 62
     7
 10
637.60248
 20
114.13949
 11
639.60248
 21
112.13949
  0
LINE
  8
0
  6
CONTINUOUS
 62
     7
 10
655.10248
 20
146.78061
 11
638.60248
 21
146.78061
  0
LINE
  8
0
  6
CONTINUOUS
 62
     7
 10
655.10248
 20
126.49838
 11
638.60248
 21
126.49838
  0
LINE
  8
0
  6
CONTINUOUS
 62
     7
 10
635.60248
 20
152.1395
 11
635.60248
 21
121.1395
  0
LINE
  8
0
  6
CONTINUOUS
 62
     7
 10
637.60248
 20
152.6754
 11
635.60248
 21
152.1395
  0
LINE
  8
0
  6
CENTER
 62
     7
 10
502.8512
 20
-26.182932
 11
502.8512
 21
-122.78293
  0
LINE
  8
0
  6
CENTER
 62
     7
 10
439.82617
 20
-50.332924
 11
568.27618
 21
-50.332924
  0
LINE
  8
0
  6
CONTINUOUS
 62
     7
 10
527.8512
 20
-90.332924
 11
527.8512
 21
-93.832924
  0
LINE
  8
0
  6
CONTINUOUS
 62
     7
 10
527.8512
 20
-90.332924
 11
477.8512
 21
-90.332924
  0
LINE
  8
0
  6
CONTINUOUS
 62
     7
 10
525.1012
 20
-77.582924
 11
525.1012
 21
-85.86779
  0
LINE
  8
0
  6
CONTINUOUS
 62
     7
 10
480.6012
 20
-77.582924
 11
480.6012
 21
-85.86779
  0
LINE
  8
0
  6
CONTINUOUS
 62
     7
 10
477.8512
 20
-90.332924
 11
477.8512
 21
-93.832924
  0
LINE
  8
0
  6
CONTINUOUS
 62
     7
 10
467.3512
 20
-25.332926
 11
467.3512
 21
-75.332924
  0
LINE
  8
0
  6
CONTINUOUS
 62
     7
 10
475.6012
 20
-72.582924
 11
471.81631
 21
-72.582924
  0
LINE
  8
0
  6
CONTINUOUS
 62
     7
 10
538.3512
 20
-25.332926
 11
538.3512
 21
-75.332924
  0
LINE
  8
0
  6
CONTINUOUS
 62
     7
 10
538.3512
 20
-25.332926
 11
541.8512
 21
-25.332926
  0
LINE
  8
0
  6
CONTINUOUS
 62
     7
 10
538.3512
 20
-75.332924
 11
541.8512
 21
-75.332924
  0
LINE
  8
0
  6
CONTINUOUS
 62
     7
 10
471.81631
 20
-28.082926
 11
533.88605
 21
-28.082926
  0
LINE
  8
0
  6
CONTINUOUS
 62
     7
 10
530.1012
 20
-72.582924
 11
533.88605
 21
-72.582924
  0
LINE
  8
0
  6
CONTINUOUS
 62
     7
 10
560.3512
 20
-23.332926
 11
560.3512
 21
-77.332924
  0
LINE
  8
0
  6
CONTINUOUS
 62
     7
 10
541.8512
 20
-23.332926
 11
541.8512
 21
-77.332924
  0
LINE
  8
0
  6
CONTINUOUS
 62
     7
 10
543.8512
 20
-79.332924
 11
558.3512
 21
-79.332924
  0
LINE
  8
0
  6
CONTINUOUS
 62
     7
 10
543.8512
 20
-21.332926
 11
558.3512
 21
-21.332926
  0
LINE
  8
0
  6
CONTINUOUS
 62
     7
 10
541.8512
 20
-23.332951
 11
543.8512
 21
-21.332947
  0
LINE
  8
0
  6
CONTINUOUS
 62
     7
 10
558.3512
 20
-21.332949
 11
560.35114
 21
-23.33293
  0
LINE
  8
0
  6
CONTINUOUS
 62
     7
 10
541.8512
 20
-77.332916
 11
543.8512
 21
-79.332924
  0
LINE
  8
0
  6
CONTINUOUS
 62
     7
 10
558.3512
 20
-79.332924
 11
560.3512
 21
-77.332916
  0
LINE
  8
0
  6
CONTINUOUS
 62
     7
 10
542.8512
 20
-38.320732
 11
559.3512
 21
-38.320732
  0
LINE
  8
0
  6
CONTINUOUS
 62
     7
 10
542.8512
 20
-62.345116
 11
559.3512
 21
-62.345116
  0
LINE
  8
0
  6
CONTINUOUS
 62
     7
 10
562.3512
 20
-31.432932
 11
562.3512
 21
-69.232933
  0
LINE
  8
0
  6
CONTINUOUS
 62
     7
 10
562.35114
 20
-31.432924
 11
560.35114
 21
-30.897026
  0
LINE
  8
0
  6
CONTINUOUS
 62
     7
 10
562.35114
 20
-69.232933
 11
560.3512
 21
-69.768814
  0
LINE
  8
0
  6
CONTINUOUS
 62
     7
 10
443.35117
 20
-69.232925
 11
445.35117
 21
-69.768829
  0
LINE
  8
0
  6
CONTINUOUS
 62
     7
 10
467.3512
 20
-25.332926
 11
463.8512
 21
-25.332926
  0
LINE
  8
0
  6
CONTINUOUS
 62
     7
 10
467.3512
 20
-75.332924
 11
463.8512
 21
-75.332924
  0
LINE
  8
0
  6
CONTINUOUS
 62
     7
 10
445.3512
 20
-23.332926
 11
445.3512
 21
-77.332924
  0
LINE
  8
0
  6
CONTINUOUS
 62
     7
 10
463.8512
 20
-23.332926
 11
463.8512
 21
-77.332924
  0
LINE
  8
0
  6
CONTINUOUS
 62
     7
 10
461.8512
 20
-79.332924
 11
447.3512
 21
-79.332924
  0
LINE
  8
0
  6
CONTINUOUS
 62
     7
 10
461.8512
 20
-21.332926
 11
447.3512
 21
-21.332926
  0
LINE
  8
0
  6
CONTINUOUS
 62
     7
 10
463.85117
 20
-23.332907
 11
461.8512
 21
-21.332928
  0
LINE
  8
0
  6
CONTINUOUS
 62
     7
 10
447.3512
 20
-21.332928
 11
445.3512
 21
-23.33293
  0
LINE
  8
0
  6
CONTINUOUS
 62
     7
 10
463.85117
 20
-77.332916
 11
461.85117
 21
-79.332924
  0
LINE
  8
0
  6
CONTINUOUS
 62
     7
 10
447.3512
 20
-79.332939
 11
445.3512
 21
-77.332939
  0
LINE
  8
0
  6
CONTINUOUS
 62
     7
 10
462.8512
 20
-38.320732
 11
446.3512
 21
-38.320732
  0
LINE
  8
0
  6
CONTINUOUS
 62
     7
 10
462.8512
 20
-62.345116
 11
446.3512
 21
-62.345116
  0
LINE
  8
0
  6
CONTINUOUS
 62
     7
 10
443.3512
 20
-31.432932
 11
443.3512
 21
-69.232933
  0
LINE
  8
0
  6
CONTINUOUS
 62
     7
 10
443.35117
 20
-31.432932
 11
445.35117
 21
-30.897032
  0
LINE
  8
0
  6
CONTINUOUS
 62
     7
 10
529.8512
 20
-112.33292
 11
475.8512
 21
-112.33292
  0
LINE
  8
0
  6
CONTINUOUS
 62
     7
 10
529.8512
 20
-93.832924
 11
475.8512
 21
-93.832924
  0
LINE
  8
0
  6
CONTINUOUS
 62
     7
 10
473.8512
 20
-95.832924
 11
473.8512
 21
-110.33292
  0
LINE
  8
0
  6
CONTINUOUS
 62
     7
 10
531.8512
 20
-95.832924
 11
531.8512
 21
-110.33292
  0
LINE
  8
0
  6
CONTINUOUS
 62
     7
 10
529.8512
 20
-93.832947
 11
531.85114
 21
-95.832932
  0
LINE
  8
0
  6
CONTINUOUS
 62
     7
 10
531.8512
 20
-110.33292
 11
529.8512
 21
-112.33292
  0
LINE
  8
0
  6
CONTINUOUS
 62
     7
 10
475.8512
 20
-93.832932
 11
473.8512
 21
-95.832932
  0
LINE
  8
0
  6
CONTINUOUS
 62
     7
 10
473.8512
 20
-110.33294
 11
475.85117
 21
-112.33292
  0
LINE
  8
0
  6
CONTINUOUS
 62
     7
 10
514.8634
 20
-94.832924
 11
514.8634
 21
-111.33292
  0
LINE
  8
0
  6
CONTINUOUS
 62
     7
 10
490.83899
 20
-94.832924
 11
490.83899
 21
-111.33292
  0
LINE
  8
0
  6
CONTINUOUS
 62
     7
 10
521.75116
 20
-114.33292
 11
483.95117
 21
-114.33292
  0
LINE
  8
0
  6
CONTINUOUS
 62
     7
 10
521.75116
 20
-114.33292
 11
522.28705
 21
-112.33292
  0
LINE
  8
0
  6
CONTINUOUS
 62
     7
 10
483.95117
 20
-114.33294
 11
483.41525
 21
-112.33293
  0
LINE
  8
0
  6
CENTER
 62
     7
 10
343.36264
 20
-316.89731
 11
492.11264
 21
-316.89731
  0
LINE
  8
0
  6
CENTER
 62
     7
 10
417.65015
 20
-282.99731
 11
417.65015
 21
-393.84732
  0
LINE
  8
0
  6
CONTINUOUS
 62
     7
 10
446.65015
 20
-363.39731
 11
446.65015
 21
-366.89731
  0
LINE
  8
0
  6
CONTINUOUS
 62
     7
 10
446.65015
 20
-363.39731
 11
388.65015
 21
-363.39731
  0
LINE
  8
0
  6
CONTINUOUS
 62
     7
 10
444.15015
 20
-348.39731
 11
444.15015
 21
-359.0672
  0
LINE
  8
0
  6
CONTINUOUS
 62
     7
 10
391.15015
 20
-348.39731
 11
391.15015
 21
-359.0672
  0
LINE
  8
0
  6
CONTINUOUS
 62
     7
 10
388.65015
 20
-363.39731
 11
388.65015
 21
-366.89731
  0
LINE
  8
0
  6
CONTINUOUS
 62
     7
 10
374.65015
 20
-287.89731
 11
374.65015
 21
-345.89731
  0
LINE
  8
0
  6
CONTINUOUS
 62
     7
 10
386.15015
 20
-343.39731
 11
378.98029
 21
-343.39731
  0
LINE
  8
0
  6
CONTINUOUS
 62
     7
 10
460.65015
 20
-287.89731
 11
460.65015
 21
-345.89731
  0
LINE
  8
0
  6
CONTINUOUS
 62
     7
 10
378.98029
 20
-290.39731
 11
456.32004
 21
-290.39731
  0
LINE
  8
0
  6
CONTINUOUS
 62
     7
 10
449.15015
 20
-343.39731
 11
456.32004
 21
-343.39731
  0
LINE
  8
0
  6
CONTINUOUS
 62
     7
 10
460.65015
 20
-345.89731
 11
464.15015
 21
-345.89731
  0
LINE
  8
0
  6
CONTINUOUS
 62
     7
 10
460.65015
 20
-287.89731
 11
464.15015
 21
-287.89731
  0
LINE
  8
0
  6
CONTINUOUS
 62
     7
 10
483.15015
 20
-285.89731
 11
483.15015
 21
-347.89731
  0
LINE
  8
0
  6
CONTINUOUS
 62
     7
 10
464.15015
 20
-285.89731
 11
464.15015
 21
-347.89731
  0
LINE
  8
0
  6
CONTINUOUS
 62
     7
 10
485.15015
 20
-293.54733
 11
485.15015
 21
-340.24731
  0
LINE
  8
0
  6
CONTINUOUS
 62
     7
 10
466.15015
 20
-283.89731
 11
481.15015
 21
-283.89731
  0
LINE
  8
0
  6
CONTINUOUS
 62
     7
 10
466.15015
 20
-349.89731
 11
481.15015
 21
-349.89731
  0
LINE
  8
0
  6
CONTINUOUS
 62
     7
 10
464.15018
 20
-285.89731
 11
466.15018
 21
-283.89731
  0
LINE
  8
0
  6
CONTINUOUS
 62
     7
 10
481.15015
 20
-283.89728
 11
483.15015
 21
-285.89728
  0
LINE
  8
0
  6
CONTINUOUS
 62
     7
 10
483.15018
 20
-347.89728
 11
481.15015
 21
-349.89728
  0
LINE
  8
0
  6
CONTINUOUS
 62
     7
 10
464.15018
 20
-347.89731
 11
466.15018
 21
-349.89731
  0
LINE
  8
0
  6
CONTINUOUS
 62
     7
 10
465.15015
 20
-303.22827
 11
482.15015
 21
-303.22827
  0
LINE
  8
0
  6
CONTINUOUS
 62
     7
 10
465.15015
 20
-330.56638
 11
482.15015
 21
-330.56638
  0
LINE
  8
0
  6
CONTINUOUS
 62
     7
 10
485.15018
 20
-293.54733
 11
483.15018
 21
-293.01141
  0
LINE
  8
0
  6
CONTINUOUS
 62
     7
 10
485.15015
 20
-340.24734
 11
483.15015
 21
-340.78323
  0
LINE
  8
0
  6
CONTINUOUS
 62
     7
 10
448.65015
 20
-385.89731
 11
386.65015
 21
-385.89731
  0
LINE
  8
0
  6
CONTINUOUS
 62
     7
 10
448.65015
 20
-366.89731
 11
386.65015
 21
-366.89731
  0
LINE
  8
0
  6
CONTINUOUS
 62
     7
 10
441.00015
 20
-387.89731
 11
394.30017
 21
-387.89731
  0
LINE
  8
0
  6
CONTINUOUS
 62
     7
 10
450.65015
 20
-368.89731
 11
450.65015
 21
-383.89731
  0
LINE
  8
0
  6
CONTINUOUS
 62
     7
 10
384.65015
 20
-368.89731
 11
384.65015
 21
-383.89731
  0
LINE
  8
0
  6
CONTINUOUS
 62
     7
 10
448.65021
 20
-366.89734
 11
450.65015
 21
-368.89731
  0
LINE
  8
0
  6
CONTINUOUS
 62
     7
 10
450.65018
 20
-383.89734
 11
448.65018
 21
-385.89734
  0
LINE
  8
0
  6
CONTINUOUS
 62
     7
 10
386.65018
 20
-385.89731
 11
384.65018
 21
-383.89731
  0
LINE
  8
0
  6
CONTINUOUS
 62
     7
 10
386.65021
 20
-366.89731
 11
384.65021
 21
-368.89734
  0
LINE
  8
0
  6
CONTINUOUS
 62
     7
 10
431.31921
 20
-367.89731
 11
431.31921
 21
-384.89731
  0
LINE
  8
0
  6
CONTINUOUS
 62
     7
 10
403.98111
 20
-367.89731
 11
403.98111
 21
-384.89731
  0
LINE
  8
0
  6
CONTINUOUS
 62
     7
 10
441.00021
 20
-387.89734
 11
441.5361
 21
-385.89734
  0
LINE
  8
0
  6
CONTINUOUS
 62
     7
 10
394.30014
 20
-387.89734
 11
393.76425
 21
-385.89734
  0
LINE
  8
0
  6
CONTINUOUS
 62
     7
 10
350.15015
 20
-340.24734
 11
352.15015
 21
-340.78323
  0
LINE
  8
0
  6
CONTINUOUS
 62
     7
 10
374.65015
 20
-345.89731
 11
371.15015
 21
-345.89731
  0
LINE
  8
0
  6
CONTINUOUS
 62
     7
 10
374.65015
 20
-287.89731
 11
371.15015
 21
-287.89731
  0
LINE
  8
0
  6
CONTINUOUS
 62
     7
 10
352.15015
 20
-285.89731
 11
352.15015
 21
-347.89731
  0
LINE
  8
0
  6
CONTINUOUS
 62
     7
 10
371.15015
 20
-285.89731
 11
371.15015
 21
-347.89731
  0
LINE
  8
0
  6
CONTINUOUS
 62
     7
 10
350.15015
 20
-293.54733
 11
350.15015
 21
-340.24731
  0
LINE
  8
0
  6
CONTINUOUS
 62
     7
 10
369.15015
 20
-283.89731
 11
354.15015
 21
-283.89731
  0
LINE
  8
0
  6
CONTINUOUS
 62
     7
 10
369.15015
 20
-349.89731
 11
354.15015
 21
-349.89731
  0
LINE
  8
0
  6
CONTINUOUS
 62
     7
 10
371.15015
 20
-285.89731
 11
369.15015
 21
-283.89731
  0
LINE
  8
0
  6
CONTINUOUS
 62
     7
 10
354.15015
 20
-283.89731
 11
352.15015
 21
-285.89731
  0
LINE
  8
0
  6
CONTINUOUS
 62
     7
 10
352.15015
 20
-347.89734
 11
354.15015
 21
-349.89734
  0
LINE
  8
0
  6
CONTINUOUS
 62
     7
 10
371.15018
 20
-347.89734
 11
369.15018
 21
-349.89734
  0
LINE
  8
0
  6
CONTINUOUS
 62
     7
 10
370.15015
 20
-303.22827
 11
353.15015
 21
-303.22827
  0
LINE
  8
0
  6
CONTINUOUS
 62
     7
 10
370.15015
 20
-330.56638
 11
353.15015
 21
-330.56638
  0
LINE
  8
0
  6
CONTINUOUS
 62
     7
 10
350.15015
 20
-293.54733
 11
352.15015
 21
-293.01141
  0
LINE
  8
0
  6
CENTER
 62
     7
 10
704.38086
 20
-408.95322
 11
704.38086
 21
-526.55322
  0
LINE
  8
0
  6
CENTER
 62
     7
 10
626.50586
 20
-443.25323
 11
785.75586
 21
-443.25323
  0
LINE
  8
0
  6
CONTINUOUS
 62
     7
 10
736.88086
 20
-494.25323
 11
671.88086
 21
-494.25323
  0
LINE
  8
0
  6
CONTINUOUS
 62
     7
 10
736.88086
 20
-494.25323
 11
736.88086
 21
-497.25323
  0
LINE
  8
0
  6
CONTINUOUS
 62
     7
 10
734.38086
 20
-479.25323
 11
734.38086
 21
-489.9231
  0
LINE
  8
0
  6
CONTINUOUS
 62
     7
 10
674.38086
 20
-479.25323
 11
674.38086
 21
-489.9231
  0
LINE
  8
0
  6
CONTINUOUS
 62
     7
 10
671.88086
 20
-494.25323
 11
671.88086
 21
-497.25323
  0
LINE
  8
0
  6
CONTINUOUS
 62
     7
 10
657.88086
 20
-410.75323
 11
657.88086
 21
-475.75323
  0
LINE
  8
0
  6
CONTINUOUS
 62
     7
 10
668.38086
 20
-473.25323
 11
662.211
 21
-473.25323
  0
LINE
  8
0
  6
CONTINUOUS
 62
     7
 10
750.88086
 20
-410.75323
 11
750.88086
 21
-475.75323
  0
LINE
  8
0
  6
CONTINUOUS
 62
     7
 10
750.88086
 20
-410.75323
 11
753.88086
 21
-410.75323
  0
LINE
  8
0
  6
CONTINUOUS
 62
     7
 10
750.88086
 20
-475.75323
 11
753.88086
 21
-475.75323
  0
LINE
  8
0
  6
CONTINUOUS
 62
     7
 10
662.211
 20
-413.25323
 11
746.55078
 21
-413.25323
  0
LINE
  8
0
  6
CONTINUOUS
 62
     7
 10
740.38086
 20
-473.25323
 11
746.55078
 21
-473.25323
  0
LINE
  8
0
  6
CONTINUOUS
 62
     7
 10
775.88086
 20
-408.75323
 11
775.88086
 21
-477.75323
  0
LINE
  8
0
  6
CONTINUOUS
 62
     7
 10
754.88086
 20
-443.25323
 11
774.88086
 21
-443.25323
  0
LINE
  8
0
  6
CONTINUOUS
 62
     7
 10
753.88086
 20
-408.75323
 11
753.88086
 21
-477.75323
  0
LINE
  8
0
  6
CONTINUOUS
 62
     7
 10
755.88086
 20
-406.75323
 11
773.88086
 21
-406.75323
  0
LINE
  8
0
  6
CONTINUOUS
 62
     7
 10
755.88086
 20
-479.75323
 11
773.88086
 21
-479.75323
  0
LINE
  8
0
  6
CONTINUOUS
 62
     7
 10
777.88086
 20
-416.80322
 11
777.88086
 21
-469.70322
  0
LINE
  8
0
  6
CONTINUOUS
 62
     7
 10
754.88086
 20
-420.69498
 11
774.88086
 21
-420.69498
  0
LINE
  8
0
  6
CONTINUOUS
 62
     7
 10
754.88086
 20
-465.81146
 11
774.88086
 21
-465.81146
  0
LINE
  8
0
  6
CONTINUOUS
 62
     7
 10
753.88086
 20
-408.7532
 11
755.88086
 21
-406.75323
  0
LINE
  8
0
  6
CONTINUOUS
 62
     7
 10
773.88086
 20
-406.7532
 11
775.88086
 21
-408.7532
  0
LINE
  8
0
  6
CONTINUOUS
 62
     7
 10
753.88092
 20
-477.75323
 11
755.88092
 21
-479.75323
  0
LINE
  8
0
  6
CONTINUOUS
 62
     7
 10
775.88092
 20
-477.75323
 11
773.88092
 21
-479.75323
  0
LINE
  8
0
  6
CONTINUOUS
 62
     7
 10
777.88086
 20
-416.80322
 11
775.88086
 21
-416.26733
  0
LINE
  8
0
  6
CONTINUOUS
 62
     7
 10
777.88086
 20
-469.70325
 11
775.88086
 21
-470.23914
  0
LINE
  8
0
  6
CONTINUOUS
 62
     7
 10
738.88086
 20
-519.25323
 11
669.88086
 21
-519.25323
  0
LINE
  8
0
  6
CONTINUOUS
 62
     7
 10
704.38086
 20
-498.25323
 11
704.38086
 21
-518.25323
  0
LINE
  8
0
  6
CONTINUOUS
 62
     7
 10
738.88086
 20
-497.25323
 11
669.88086
 21
-497.25323
  0
LINE
  8
0
  6
CONTINUOUS
 62
     7
 10
740.88086
 20
-499.25323
 11
740.88086
 21
-517.25323
  0
LINE
  8
0
  6
CONTINUOUS
 62
     7
 10
667.88086
 20
-499.25323
 11
667.88086
 21
-517.25323
  0
LINE
  8
0
  6
CONTINUOUS
 62
     7
 10
730.83087
 20
-521.25323
 11
677.93091
 21
-521.25323
  0
LINE
  8
0
  6
CONTINUOUS
 62
     7
 10
726.93915
 20
-498.25323
 11
726.93915
 21
-518.25323
  0
LINE
  8
0
  6
CONTINUOUS
 62
     7
 10
681.82263
 20
-498.25323
 11
681.82263
 21
-518.25323
  0
LINE
  8
0
  6
CONTINUOUS
 62
     7
 10
738.88086
 20
-497.2532
 11
740.88086
 21
-499.2532
  0
LINE
  8
0
  6
CONTINUOUS
 62
     7
 10
740.88086
 20
-517.25323
 11
738.88086
 21
-519.25323
  0
LINE
  8
0
  6
CONTINUOUS
 62
     7
 10
669.88092
 20
-497.25323
 11
667.88092
 21
-499.25323
  0
LINE
  8
0
  6
CONTINUOUS
 62
     7
 10
669.88086
 20
-519.25323
 11
667.88086
 21
-517.25323
  0
LINE
  8
0
  6
CONTINUOUS
 62
     7
 10
730.83087
 20
-521.25323
 11
731.36676
 21
-519.25323
  0
LINE
  8
0
  6
CONTINUOUS
 62
     7
 10
677.93085
 20
-521.25323
 11
677.39496
 21
-519.25323
  0
LINE
  8
0
  6
CONTINUOUS
 62
     7
 10
630.88086
 20
-469.70322
 11
632.88086
 21
-470.23914
  0
LINE
  8
0
  6
CONTINUOUS
 62
     7
 10
657.88086
 20
-410.75323
 11
654.88086
 21
-410.75323
  0
LINE
  8
0
  6
CONTINUOUS
 62
     7
 10
657.88086
 20
-475.75323
 11
654.88086
 21
-475.75323
  0
LINE
  8
0
  6
CONTINUOUS
 62
     7
 10
632.88086
 20
-408.75323
 11
632.88086
 21
-477.75323
  0
LINE
  8
0
  6
CONTINUOUS
 62
     7
 10
653.88086
 20
-443.25323
 11
633.88086
 21
-443.25323
  0
LINE
  8
0
  6
CONTINUOUS
 62
     7
 10
654.88086
 20
-408.75323
 11
654.88086
 21
-477.75323
  0
LINE
  8
0
  6
CONTINUOUS
 62
     7
 10
652.88086
 20
-406.75323
 11
634.88086
 21
-406.75323
  0
LINE
  8
0
  6
CONTINUOUS
 62
     7
 10
652.88086
 20
-479.75323
 11
634.88086
 21
-479.75323
  0
LINE
  8
0
  6
CONTINUOUS
 62
     7
 10
630.88086
 20
-416.80322
 11
630.88086
 21
-469.70322
  0
LINE
  8
0
  6
CONTINUOUS
 62
     7
 10
653.88086
 20
-420.69498
 11
633.88086
 21
-420.69498
  0
LINE
  8
0
  6
CONTINUOUS
 62
     7
 10
653.88086
 20
-465.81146
 11
633.88086
 21
-465.81146
  0
LINE
  8
0
  6
CONTINUOUS
 62
     7
 10
654.88092
 20
-408.75323
 11
652.88092
 21
-406.75323
  0
LINE
  8
0
  6
CONTINUOUS
 62
     7
 10
634.88092
 20
-406.75323
 11
632.88092
 21
-408.75323
  0
LINE
  8
0
  6
CONTINUOUS
 62
     7
 10
654.88086
 20
-477.75323
 11
652.88086
 21
-479.75323
  0
LINE
  8
0
  6
CONTINUOUS
 62
     7
 10
632.88086
 20
-477.75323
 11
634.88086
 21
-479.75323
  0
LINE
  8
0
  6
CONTINUOUS
 62
     7
 10
630.88086
 20
-416.80319
 11
632.88092
 21
-416.26727
  0
LINE
  8
0
  6
CENTER
 62
     7
 10
366.51984
 20
-783.11053
 11
547.46985
 21
-783.11053
  0
LINE
  8
0
  6
CENTER
 62
     7
 10
455.65735
 20
-740.86053
 11
455.65735
 21
-876.20557
  0
LINE
  8
0
  6
CONTINUOUS
 62
     7
 10
494.65735
 20
-842.11053
 11
494.65735
 21
-844.61053
  0
LINE
  8
0
  6
CONTINUOUS
 62
     7
 10
494.65735
 20
-842.11053
 11
416.65735
 21
-842.11053
  0
LINE
  8
0
  6
CONTINUOUS
 62
     7
 10
416.65735
 20
-842.11053
 11
416.65735
 21
-844.61053
  0
LINE
  8
0
  6
CONTINUOUS
 62
     7
 10
412.15735
 20
-819.61053
 11
405.48746
 21
-819.61053
  0
LINE
  8
0
  6
CONTINUOUS
 62
     7
 10
401.15735
 20
-744.11053
 11
401.15735
 21
-822.11053
  0
LINE
  8
0
  6
CONTINUOUS
 62
     7
 10
510.15735
 20
-744.11053
 11
510.15735
 21
-822.11053
  0
LINE
  8
0
  6
CONTINUOUS
 62
     7
 10
405.48746
 20
-746.61053
 11
505.82721
 21
-746.61053
  0
LINE
  8
0
  6
CONTINUOUS
 62
     7
 10
499.15735
 20
-819.61053
 11
505.82721
 21
-819.61053
  0
LINE
  8
0
  6
CONTINUOUS
 62
     7
 10
510.15735
 20
-744.11053
 11
512.65735
 21
-744.11053
  0
LINE
  8
0
  6
CONTINUOUS
 62
     7
 10
510.15735
 20
-822.11053
 11
512.65735
 21
-822.11053
  0
LINE
  8
0
  6
CONTINUOUS
 62
     7
 10
492.15735
 20
-826.61053
 11
492.15735
 21
-837.7804
  0
LINE
  8
0
  6
CONTINUOUS
 62
     7
 10
419.15735
 20
-826.61053
 11
419.15735
 21
-837.7804
  0
LINE
  8
0
  6
CONTINUOUS
 62
     7
 10
536.15735
 20
-741.61053
 11
536.15735
 21
-824.61053
  0
LINE
  8
0
  6
CONTINUOUS
 62
     7
 10
513.65735
 20
-783.11053
 11
535.15735
 21
-783.11053
  0
LINE
  8
0
  6
CONTINUOUS
 62
     7
 10
512.65735
 20
-741.61053
 11
512.65735
 21
-824.61053
  0
LINE
  8
0
  6
CONTINUOUS
 62
     7
 10
514.65735
 20
-739.61053
 11
534.15735
 21
-739.61053
  0
LINE
  8
0
  6
CONTINUOUS
 62
     7
 10
514.65735
 20
-826.61053
 11
534.15735
 21
-826.61053
  0
LINE
  8
0
  6
CONTINUOUS
 62
     7
 10
512.65735
 20
-741.61053
 11
514.65735
 21
-739.61053
  0
LINE
  8
0
  6
CONTINUOUS
 62
     7
 10
534.15735
 20
-739.61053
 11
536.15735
 21
-741.61053
  0
LINE
  8
0
  6
CONTINUOUS
 62
     7
 10
512.65735
 20
-824.6106
 11
514.65735
 21
-826.6106
  0
LINE
  8
0
  6
CONTINUOUS
 62
     7
 10
534.15741
 20
-826.6106
 11
536.15741
 21
-824.6106
  0
LINE
  8
0
  6
CONTINUOUS
 62
     7
 10
538.15735
 20
-750.66052
 11
538.15735
 21
-815.56055
  0
LINE
  8
0
  6
CONTINUOUS
 62
     7
 10
535.15735
 20
-756.22607
 11
513.65735
 21
-756.22607
  0
LINE
  8
0
  6
CONTINUOUS
 62
     7
 10
535.15735
 20
-809.995
 11
513.65735
 21
-809.995
  0
LINE
  8
0
  6
CONTINUOUS
 62
     7
 10
538.15735
 20
-750.66058
 11
536.15735
 21
-750.12469
  0
LINE
  8
0
  6
CONTINUOUS
 62
     7
 10
538.15735
 20
-815.56055
 11
536.15735
 21
-816.0965
  0
LINE
  8
0
  6
CONTINUOUS
 62
     7
 10
497.15735
 20
-868.11053
 11
414.15735
 21
-868.11053
  0
LINE
  8
0
  6
CONTINUOUS
 62
     7
 10
455.65735
 20
-845.61053
 11
455.65735
 21
-867.11053
  0
LINE
  8
0
  6
CONTINUOUS
 62
     7
 10
497.15735
 20
-844.61053
 11
414.15735
 21
-844.61053
  0
LINE
  8
0
  6
CONTINUOUS
 62
     7
 10
499.15735
 20
-846.61053
 11
499.15735
 21
-866.11053
  0
LINE
  8
0
  6
CONTINUOUS
 62
     7
 10
412.15735
 20
-846.61053
 11
412.15735
 21
-866.11053
  0
LINE
  8
0
  6
CONTINUOUS
 62
     7
 10
497.15735
 20
-844.61053
 11
499.15735
 21
-846.61053
  0
LINE
  8
0
  6
CONTINUOUS
 62
     7
 10
499.15735
 20
-866.11053
 11
497.15735
 21
-868.11053
  0
LINE
  8
0
  6
CONTINUOUS
 62
     7
 10
414.15735
 20
-844.61053
 11
412.15735
 21
-846.61053
  0
LINE
  8
0
  6
CONTINUOUS
 62
     7
 10
412.15738
 20
-866.1106
 11
414.15735
 21
-868.11053
  0
LINE
  8
0
  6
CONTINUOUS
 62
     7
 10
488.10733
 20
-870.11053
 11
423.20734
 21
-870.11053
  0
LINE
  8
0
  6
CONTINUOUS
 62
     7
 10
482.54181
 20
-867.11053
 11
482.54181
 21
-845.61053
  0
LINE
  8
0
  6
CONTINUOUS
 62
     7
 10
428.77286
 20
-867.11053
 11
428.77286
 21
-845.61053
  0
LINE
  8
0
  6
CONTINUOUS
 62
     7
 10
488.1073
 20
-870.11053
 11
488.64319
 21
-868.11053
  0
LINE
  8
0
  6
CONTINUOUS
 62
     7
 10
423.20734
 20
-870.1106
 11
422.67145
 21
-868.1106
  0
LINE
  8
0
  6
CONTINUOUS
 62
     7
 10
373.15732
 20
-815.56055
 11
375.15732
 21
-816.0965
  0
LINE
  8
0
  6
CONTINUOUS
 62
     7
 10
401.15735
 20
-744.11053
 11
398.65735
 21
-744.11053
  0
LINE
  8
0
  6
CONTINUOUS
 62
     7
 10
401.15735
 20
-822.11053
 11
398.65735
 21
-822.11053
  0
LINE
  8
0
  6
CONTINUOUS
 62
     7
 10
375.15735
 20
-741.61053
 11
375.15735
 21
-824.61053
  0
LINE
  8
0
  6
CONTINUOUS
 62
     7
 10
397.65735
 20
-783.11053
 11
376.15735
 21
-783.11053
  0
LINE
  8
0
  6
CONTINUOUS
 62
     7
 10
398.65735
 20
-741.61053
 11
398.65735
 21
-824.61053
  0
LINE
  8
0
  6
CONTINUOUS
 62
     7
 10
396.65735
 20
-739.61053
 11
377.15735
 21
-739.61053
  0
LINE
  8
0
  6
CONTINUOUS
 62
     7
 10
396.65735
 20
-826.61053
 11
377.15735
 21
-826.61053
  0
LINE
  8
0
  6
CONTINUOUS
 62
     7
 10
398.65732
 20
-741.61053
 11
396.65732
 21
-739.61053
  0
LINE
  8
0
  6
CONTINUOUS
 62
     7
 10
377.15735
 20
-739.61053
 11
375.15735
 21
-741.61053
  0
LINE
  8
0
  6
CONTINUOUS
 62
     7
 10
398.65732
 20
-824.61053
 11
396.65732
 21
-826.61053
  0
LINE
  8
0
  6
CONTINUOUS
 62
     7
 10
377.15735
 20
-826.61053
 11
375.15735
 21
-824.61053
  0
LINE
  8
0
  6
CONTINUOUS
 62
     7
 10
373.15735
 20
-750.66052
 11
373.15735
 21
-815.56055
  0
LINE
  8
0
  6
CONTINUOUS
 62
     7
 10
376.15735
 20
-756.22607
 11
397.65735
 21
-756.22607
  0
LINE
  8
0
  6
CONTINUOUS
 62
     7
 10
376.15735
 20
-809.995
 11
397.65735
 21
-809.995
  0
LINE
  8
0
  6
CONTINUOUS
 62
     7
 10
373.15735
 20
-750.66058
 11
375.15735
 21
-750.12469
  0
LINE
  8
0
  6
CONTINUOUS
 62
     7
 10
317
 20
-210
 11
317
 21
210
  0
LINE
  8
0
  6
CONTINUOUS
 62
     7
 10
911
 20
-210
 11
317
 21
-210
  0
LINE
  8
0
  6
CONTINUOUS
 62
     7
 10
911
 20
210
 11
911
 21
-210
  0
LINE
  8
0
  6
CONTINUOUS
 62
     7
 10
317
 20
210
 11
911
 21
210
  0
LINE
  8
0
  6
CONTINUOUS
 62
     7
 10
317
 20
-650
 11
317
 21
-230
  0
LINE
  8
0
  6
CONTINUOUS
 62
     7
 10
911
 20
-650
 11
317
 21
-650
  0
LINE
  8
0
  6
CONTINUOUS
 62
     7
 10
911
 20
-230
 11
911
 21
-650
  0
LINE
  8
0
  6
CONTINUOUS
 62
     7
 10
317
 20
-230
 11
911
 21
-230
  0
LINE
  8
0
  6
CONTINUOUS
 62
     7
 10
450.23999
 20
45.337978
 11
437.93848
 21
57.639496
  0
LINE
  8
0
  6
CONTINUOUS
 62
     7
 10
437.93848
 20
57.639496
 11
420.5415
 21
57.639496
  0
LINE
  8
0
  6
CONTINUOUS
 62
     7
 10
408.23999
 20
45.337978
 11
420.5415
 21
57.639496
  0
LINE
  8
0
  6
CONTINUOUS
 62
     7
 10
408.23999
 20
27.941011
 11
408.23999
 21
45.337967
  0
LINE
  8
0
  6
CONTINUOUS
 62
     7
 10
420.5415
 20
15.639494
 11
408.23999
 21
27.941011
  0
LINE
  8
0
  6
CONTINUOUS
 62
     7
 10
437.93848
 20
15.639498
 11
420.5415
 21
15.639498
  0
LINE
  8
0
  6
CONTINUOUS
 62
     7
 10
450.23999
 20
27.941011
 11
437.93848
 21
15.639494
  0
LINE
  8
0
  6
CONTINUOUS
 62
     7
 10
450.23999
 20
45.337967
 11
450.23999
 21
27.941011
  0
LINE
  8
0
  6
CONTINUOUS
 62
     7
 10
715.08533
 20
36.780602
 11
700.74359
 21
51.122303
  0
LINE
  8
0
  6
CONTINUOUS
 62
     7
 10
700.74359
 20
51.122299
 11
680.46136
 21
51.122299
  0
LINE
  8
0
  6
CONTINUOUS
 62
     7
 10
666.11969
 20
36.780602
 11
680.46143
 21
51.122303
  0
LINE
  8
0
  6
CONTINUOUS
 62
     7
 10
666.11969
 20
16.498384
 11
666.11969
 21
36.780594
  0
LINE
  8
0
  6
CONTINUOUS
 62
     7
 10
680.46136
 20
2.1566887
 11
666.11969
 21
16.498388
  0
LINE
  8
0
  6
CONTINUOUS
 62
     7
 10
700.74359
 20
2.1566789
 11
680.46136
 21
2.1566789
  0
LINE
  8
0
  6
CONTINUOUS
 62
     7
 10
715.08533
 20
16.498388
 11
700.74359
 21
2.1566887
  0
LINE
  8
0
  6
CONTINUOUS
 62
     7
 10
715.08533
 20
36.780594
 11
715.08533
 21
16.498384
  0
LINE
  8
0
  6
CONTINUOUS
 62
     7
 10
531.8512
 20
-158.32072
 11
514.8634
 21
-141.33293
  0
LINE
  8
0
  6
CONTINUOUS
 62
     7
 10
514.8634
 20
-141.33293
 11
490.83899
 21
-141.33293
  0
LINE
  8
0
  6
CONTINUOUS
 62
     7
 10
473.85117
 20
-158.32072
 11
490.83896
 21
-141.33293
  0
LINE
  8
0
  6
CONTINUOUS
 62
     7
 10
473.8512
 20
-182.34512
 11
473.8512
 21
-158.32074
  0
LINE
  8
0
  6
CONTINUOUS
 62
     7
 10
490.83899
 20
-199.33293
 11
473.85117
 21
-182.34512
  0
LINE
  8
0
  6
CONTINUOUS
 62
     7
 10
514.8634
 20
-199.33293
 11
490.83899
 21
-199.33293
  0
LINE
  8
0
  6
CONTINUOUS
 62
     7
 10
531.8512
 20
-182.34514
 11
514.8634
 21
-199.33295
  0
LINE
  8
0
  6
CONTINUOUS
 62
     7
 10
531.8512
 20
-158.32074
 11
531.8512
 21
-182.34512
  0
LINE
  8
0
  6
CONTINUOUS
 62
     7
 10
450.65018
 20
-443.22827
 11
431.31924
 21
-423.89734
  0
LINE
  8
0
  6
CONTINUOUS
 62
     7
 10
431.31921
 20
-423.89731
 11
403.98111
 21
-423.89731
  0
LINE
  8
0
  6
CONTINUOUS
 62
     7
 10
384.65015
 20
-443.22827
 11
403.98111
 21
-423.89731
  0
LINE
  8
0
  6
CONTINUOUS
 62
     7
 10
384.65015
 20
-470.56635
 11
384.65015
 21
-443.22827
  0
LINE
  8
0
  6
CONTINUOUS
 62
     7
 10
403.98111
 20
-489.89731
 11
384.65018
 21
-470.56638
  0
LINE
  8
0
  6
CONTINUOUS
 62
     7
 10
431.31921
 20
-489.89731
 11
403.98111
 21
-489.89731
  0
LINE
  8
0
  6
CONTINUOUS
 62
     7
 10
450.65015
 20
-470.56635
 11
431.31918
 21
-489.89731
  0
LINE
  8
0
  6
CONTINUOUS
 62
     7
 10
450.65015
 20
-443.22827
 11
450.65015
 21
-470.56635
  0
LINE
  8
0
  6
CONTINUOUS
 62
     7
 10
704.38086
 20
-544.87488
 11
681.82263
 21
-552.20447
  0
LINE
  8
0
  6
CONTINUOUS
 62
     7
 10
681.82263
 20
-552.20447
 11
667.88092
 21
-571.39368
  0
LINE
  8
0
  6
CONTINUOUS
 62
     7
 10
667.88086
 20
-595.11279
 11
667.88086
 21
-571.39368
  0
LINE
  8
0
  6
CONTINUOUS
 62
     7
 10
681.82263
 20
-614.302
 11
667.88086
 21
-595.11273
  0
LINE
  8
0
  6
CONTINUOUS
 62
     7
 10
704.38086
 20
-621.63159
 11
681.82263
 21
-614.302
  0
LINE
  8
0
  6
CONTINUOUS
 62
     7
 10
726.93909
 20
-614.302
 11
704.38086
 21
-621.63159
  0
LINE
  8
0
  6
CONTINUOUS
 62
     7
 10
740.88086
 20
-595.11279
 11
726.93909
 21
-614.302
  0
LINE
  8
0
  6
CONTINUOUS
 62
     7
 10
740.88086
 20
-571.39368
 11
740.88086
 21
-595.11279
  0
LINE
  8
0
  6
CONTINUOUS
 62
     7
 10
726.93909
 20
-552.20447
 11
740.88086
 21
-571.39368
  0
LINE
  8
0
  6
CONTINUOUS
 62
     7
 10
704.38086
 20
-544.87488
 11
726.93909
 21
-552.20447
  0
LINE
  8
0
  6
CONTINUOUS
 62
     7
 10
455.65738
 20
-897.37195
 11
428.77286
 21
-906.10724
  0
LINE
  8
0
  6
CONTINUOUS
 62
     7
 10
428.77286
 20
-906.10724
 11
412.15735
 21
-928.97656
  0
LINE
  8
0
  6
CONTINUOUS
 62
     7
 10
412.15735
 20
-957.24457
 11
412.15735
 21
-928.97656
  0
LINE
  8
0
  6
CONTINUOUS
 62
     7
 10
428.77283
 20
-980.11383
 11
412.15732
 21
-957.24451
  0
LINE
  8
0
  6
CONTINUOUS
 62
     7
 10
455.65732
 20
-988.84912
 11
428.77286
 21
-980.11383
  0
LINE
  8
0
  6
CONTINUOUS
 62
     7
 10
482.54184
 20
-980.11389
 11
455.65735
 21
-988.84918
  0
LINE
  8
0
  6
CONTINUOUS
 62
     7
 10
499.15735
 20
-957.24457
 11
482.54184
 21
-980.11389
  0
LINE
  8
0
  6
CONTINUOUS
 62
     7
 10
499.15735
 20
-928.9765
 11
499.15735
 21
-957.24457
  0
LINE
  8
0
  6
CONTINUOUS
 62
     7
 10
482.54178
 20
-906.10724
 11
499.15729
 21
-928.9765
  0
LINE
  8
0
  6
CONTINUOUS
 62
     7
 10
455.65735
 20
-897.37195
 11
482.54181
 21
-906.10724
  0
LINE
  8
0
  6
CENTER
 62
     7
 10
429.23999
 20
62.839493
 11
429.23999
 21
10.439501
  0
LINE
  8
0
  6
CENTER
 62
     7
 10
403.03998
 20
36.639496
 11
455.44
 21
36.639496
  0
LINE
  8
0
  6
CENTER
 62
     7
 10
690.60248
 20
57.139496
 11
690.60248
 21
-3.8605025
  0
LINE
  8
0
  6
CENTER
 62
     7
 10
660.10248
 20
26.639498
 11
721.10248
 21
26.639498
  0
LINE
  8
0
  6
CENTER
 62
     7
 10
417.65015
 20
-418.01141
 11
417.65015
 21
-495.7832
  0
LINE
  8
0
  6
CENTER
 62
     7
 10
378.76425
 20
-456.89731
 11
456.53604
 21
-456.89731
  0
LINE
  8
0
  6
CENTER
 62
     7
 10
502.8512
 20
-137.98293
 11
502.8512
 21
-202.68292
  0
LINE
  8
0
  6
CENTER
 62
     7
 10
470.50116
 20
-170.33293
 11
535.20117
 21
-170.33293
  0
LINE
  8
0
  6
CENTER
 62
     7
 10
664.68085
 20
-583.25323
 11
744.08087
 21
-583.25323
  0
LINE
  8
0
  6
CENTER
 62
     7
 10
704.38086
 20
-622.95319
 11
704.38086
 21
-543.55322
  0
LINE
  8
0
  6
CENTER
 62
     7
 10
407.67145
 20
-943.11053
 11
503.64325
 21
-943.11053
  0
LINE
  8
0
  6
CENTER
 62
     7
 10
455.65735
 20
-991.09644
 11
455.65735
 21
-895.12463
  0
LINE
  8
0
  6
CONTINUOUS
 62
     7
 10
550.23999
 20
145.33798
 11
537.93848
 21
157.6395
  0
LINE
  8
0
  6
CONTINUOUS
 62
     7
 10
537.93848
 20
157.6395
 11
520.5415
 21
157.6395
  0
LINE
  8
0
  6
CONTINUOUS
 62
     7
 10
508.23999
 20
145.33798
 11
520.5415
 21
157.6395
  0
LINE
  8
0
  6
CONTINUOUS
 62
     7
 10
508.23999
 20
127.94101
 11
508.23999
 21
145.33797
  0
LINE
  8
0
  6
CONTINUOUS
 62
     7
 10
520.5415
 20
115.6395
 11
508.23999
 21
127.94101
  0
LINE
  8
0
  6
CONTINUOUS
 62
     7
 10
537.93848
 20
115.6395
 11
520.5415
 21
115.6395
  0
LINE
  8
0
  6
CONTINUOUS
 62
     7
 10
550.23999
 20
127.94101
 11
537.93848
 21
115.6395
  0
LINE
  8
0
  6
CONTINUOUS
 62
     7
 10
550.23999
 20
145.33797
 11
550.23999
 21
127.94101
  0
LINE
  8
0
  6
CENTER
 62
     7
 10
529.23999
 20
162.83949
 11
529.23999
 21
110.4395
  0
LINE
  8
0
  6
CENTER
 62
     7
 10
503.03998
 20
136.6395
 11
555.44
 21
136.6395
  0
LINE
  8
0
  6
CONTINUOUS
 62
     7
 10
835.08533
 20
146.78061
 11
820.74359
 21
161.12231
  0
LINE
  8
0
  6
CONTINUOUS
 62
     7
 10
820.74359
 20
161.1223
 11
800.46136
 21
161.1223
  0
LINE
  8
0
  6
CONTINUOUS
 62
     7
 10
786.11969
 20
146.78059
 11
800.46136
 21
161.12228
  0
LINE
  8
0
  6
CONTINUOUS
 62
     7
 10
786.11969
 20
126.49838
 11
786.11969
 21
146.78059
  0
LINE
  8
0
  6
CONTINUOUS
 62
     7
 10
800.46136
 20
112.15668
 11
786.11969
 21
126.49837
  0
LINE
  8
0
  6
CONTINUOUS
 62
     7
 10
820.74359
 20
112.15668
 11
800.46136
 21
112.15668
  0
LINE
  8
0
  6
CONTINUOUS
 62
     7
 10
835.08533
 20
126.49836
 11
820.74359
 21
112.15665
  0
LINE
  8
0
  6
CONTINUOUS
 62
     7
 10
835.08533
 20
146.78059
 11
835.08533
 21
126.49838
  0
LINE
  8
0
  6
CENTER
 62
     7
 10
810.60248
 20
167.1395
 11
810.60248
 21
106.1395
  0
LINE
  8
0
  6
CENTER
 62
     7
 10
780.10248
 20
136.6395
 11
841.10248
 21
136.6395
  0
LINE
  8
0
  6
CONTINUOUS
 62
     7
 10
651.8512
 20
-38.320728
 11
634.8634
 21
-21.332924
  0
LINE
  8
0
  6
CONTINUOUS
 62
     7
 10
634.8634
 20
-21.332926
 11
610.83899
 21
-21.332926
  0
LINE
  8
0
  6
CONTINUOUS
 62
     7
 10
593.85114
 20
-38.320728
 11
610.83899
 21
-21.332924
  0
LINE
  8
0
  6
CONTINUOUS
 62
     7
 10
593.8512
 20
-62.345127
 11
593.8512
 21
-38.320736
  0
LINE
  8
0
  6
CONTINUOUS
 62
     7
 10
610.83899
 20
-79.332924
 11
593.8512
 21
-62.345119
  0
LINE
  8
0
  6
CONTINUOUS
 62
     7
 10
634.8634
 20
-79.332932
 11
610.83899
 21
-79.332932
  0
LINE
  8
0
  6
CONTINUOUS
 62
     7
 10
651.8512
 20
-62.345139
 11
634.8634
 21
-79.332947
  0
LINE
  8
0
  6
CONTINUOUS
 62
     7
 10
651.8512
 20
-38.320736
 11
651.8512
 21
-62.345127
  0
LINE
  8
0
  6
CENTER
 62
     7
 10
622.8512
 20
-17.982927
 11
622.8512
 21
-82.68293
  0
LINE
  8
0
  6
CENTER
 62
     7
 10
590.50116
 20
-50.332924
 11
655.20117
 21
-50.332924
  0
LINE
  8
0
  6
CONTINUOUS
 62
     7
 10
590.65015
 20
-303.22827
 11
571.31921
 21
-283.89734
  0
LINE
  8
0
  6
CONTINUOUS
 62
     7
 10
571.31921
 20
-283.89731
 11
543.98108
 21
-283.89731
  0
LINE
  8
0
  6
CONTINUOUS
 62
     7
 10
524.65015
 20
-303.22827
 11
543.98108
 21
-283.89731
  0
LINE
  8
0
  6
CONTINUOUS
 62
     7
 10
524.65015
 20
-330.56635
 11
524.65015
 21
-303.22827
  0
LINE
  8
0
  6
CONTINUOUS
 62
     7
 10
543.98114
 20
-349.89731
 11
524.65021
 21
-330.56638
  0
LINE
  8
0
  6
CONTINUOUS
 62
     7
 10
571.31921
 20
-349.89731
 11
543.98108
 21
-349.89731
  0
LINE
  8
0
  6
CONTINUOUS
 62
     7
 10
590.65015
 20
-330.56635
 11
571.31921
 21
-349.89731
  0
LINE
  8
0
  6
CONTINUOUS
 62
     7
 10
590.65015
 20
-303.22827
 11
590.65015
 21
-330.56635
  0
LINE
  8
0
  6
CENTER
 62
     7
 10
557.65015
 20
-278.01141
 11
557.65015
 21
-355.7832
  0
LINE
  8
0
  6
CENTER
 62
     7
 10
518.76428
 20
-316.89731
 11
596.53607
 21
-316.89731
  0
LINE
  8
0
  6
CONTINUOUS
 62
     7
 10
882.75928
 20
-443.25317
 11
875.42963
 21
-420.69495
  0
LINE
  8
0
  6
CONTINUOUS
 62
     7
 10
875.42963
 20
-420.69498
 11
856.24048
 21
-406.75323
  0
LINE
  8
0
  6
CONTINUOUS
 62
     7
 10
832.5213
 20
-406.75323
 11
856.24042
 21
-406.75323
  0
LINE
  8
0
  6
CONTINUOUS
 62
     7
 10
813.33215
 20
-420.69498
 11
832.5213
 21
-406.7532
  0
LINE
  8
0
  6
CONTINUOUS
 62
     7
 10
806.0025
 20
-443.25323
 11
813.33215
 21
-420.69498
  0
LINE
  8
0
  6
CONTINUOUS
 62
     7
 10
813.33215
 20
-465.81143
 11
806.0025
 21
-443.2532
  0
LINE
  8
0
  6
CONTINUOUS
 62
     7
 10
832.5213
 20
-479.7532
 11
813.33215
 21
-465.81146
  0
LINE
  8
0
  6
CONTINUOUS
 62
     7
 10
856.24042
 20
-479.75323
 11
832.5213
 21
-479.75323
  0
LINE
  8
0
  6
CONTINUOUS
 62
     7
 10
875.42963
 20
-465.81143
 11
856.24042
 21
-479.7532
  0
LINE
  8
0
  6
CONTINUOUS
 62
     7
 10
882.75928
 20
-443.25323
 11
875.42963
 21
-465.81146
  0
LINE
  8
0
  6
CENTER
 62
     7
 10
844.38086
 20
-403.55322
 11
844.38086
 21
-482.95325
  0
LINE
  8
0
  6
CENTER
 62
     7
 10
804.68091
 20
-443.25323
 11
884.08087
 21
-443.25323
  0
LINE
  8
0
  6
CONTINUOUS
 62
     7
 10
661.39594
 20
-783.11053
 11
652.66064
 21
-756.22607
  0
LINE
  8
0
  6
CONTINUOUS
 62
     7
 10
652.66064
 20
-756.22607
 11
629.79138
 21
-739.61053
  0
LINE
  8
0
  6
CONTINUOUS
 62
     7
 10
601.52332
 20
-739.61053
 11
629.79132
 21
-739.61053
  0
LINE
  8
0
  6
CONTINUOUS
 62
     7
 10
578.65405
 20
-756.22607
 11
601.52332
 21
-739.6106
  0
LINE
  8
0
  6
CONTINUOUS
 62
     7
 10
569.9187
 20
-783.11053
 11
578.65399
 21
-756.22601
  0
LINE
  8
0
  6
CONTINUOUS
 62
     7
 10
578.65399
 20
-809.99506
 11
569.9187
 21
-783.1106
  0
LINE
  8
0
  6
CONTINUOUS
 62
     7
 10
601.52332
 20
-826.61053
 11
578.65405
 21
-809.99506
  0
LINE
  8
0
  6
CONTINUOUS
 62
     7
 10
629.79138
 20
-826.61053
 11
601.52332
 21
-826.61053
  0
LINE
  8
0
  6
CONTINUOUS
 62
     7
 10
652.66058
 20
-809.99493
 11
629.79126
 21
-826.61047
  0
LINE
  8
0
  6
CONTINUOUS
 62
     7
 10
661.39594
 20
-783.11053
 11
652.66064
 21
-809.995
  0
LINE
  8
0
  6
CENTER
 62
     7
 10
615.65735
 20
-735.12463
 11
615.65735
 21
-831.09644
  0
LINE
  8
0
  6
CENTER
 62
     7
 10
567.67145
 20
-783.11053
 11
663.64325
 21
-783.11053
  0
ARC
  8
0
  6
CONTINUOUS
 62
     7
 10
-210.74185
 20
128.75821
 40
5
 50
301.35686
 51
2.5044775E-006
  0
ARC
  8
0
  6
CONTINUOUS
 62
     7
 10
-171.74185
 20
134.48849
 40
3
 50
89.999989
 51
180.00001
  0
ARC
  8
0
  6
CONTINUOUS
 62
     7
 10
-209.74185
 20
133.48849
 40
4
 50
2.5044777E-006
 51
90.000003
  0
ARC
  8
0
  6
CONTINUOUS
 62
     7
 10
-169.74185
 20
128.75821
 40
5
 50
179.99999
 51
238.64315
  0
ARC
  8
0
  6
CONTINUOUS
 62
     7
 10
-210.97214
 20
132.48849
 40
5
 50
89.999989
 51
148.64314
  0
ARC
  8
0
  6
CONTINUOUS
 62
     7
 10
-210.97214
 20
173.48849
 40
5
 50
211.35686
 51
270
  0
ARC
  8
0
  6
CONTINUOUS
 62
     7
 10
-169.51157
 20
132.48849
 40
5
 50
31.356855
 51
90.000003
  0
ARC
  8
0
  6
CONTINUOUS
 62
     7
 10
-169.51157
 20
173.48849
 40
5
 50
270
 51
328.64314
  0
ARC
  8
0
  6
CONTINUOUS
 62
     7
 10
110.45219
 20
134.80423
 40
5
 50
179.99999
 51
223.87019
  0
ARC
  8
0
  6
CONTINUOUS
 62
     7
 10
63.952187
 20
134.80423
 40
5
 50
316.12982
 51
1.3027552E-012
  0
ARC
  8
0
  6
CONTINUOUS
 62
     7
 10
60.667336
 20
187.5891
 40
5
 50
226.12958
 51
270
  0
ARC
  8
0
  6
CONTINUOUS
 62
     7
 10
60.667336
 20
141.0891
 40
5
 50
90.000003
 51
133.87042
  0
ARC
  8
0
  6
CONTINUOUS
 62
     7
 10
113.73705
 20
141.0891
 40
5
 50
46.129697
 51
90.000003
  0
ARC
  8
0
  6
CONTINUOUS
 62
     7
 10
113.73705
 20
187.5891
 40
5
 50
270
 51
313.8703
  0
ARC
  8
0
  6
CONTINUOUS
 62
     7
 10
64.952187
 20
142.0891
 40
4
 50
0
 51
90.000003
  0
ARC
  8
0
  6
CONTINUOUS
 62
     7
 10
109.45219
 20
142.0891
 40
4
 50
90.000003
 51
180.00001
  0
ARC
  8
0
  6
CONTINUOUS
 62
     7
 10
-29.147028
 20
-76.725403
 40
5
 50
179.99999
 51
223.87019
  0
ARC
  8
0
  6
CONTINUOUS
 62
     7
 10
-83.647026
 20
-76.725403
 40
5
 50
316.12982
 51
1.1399108E-012
  0
ARC
  8
0
  6
CONTINUOUS
 62
     7
 10
-87.431892
 20
-13.940535
 40
5
 50
226.12969
 51
270
  0
ARC
  8
0
  6
CONTINUOUS
 62
     7
 10
-87.431892
 20
-68.440536
 40
5
 50
90.000003
 51
133.87031
  0
ARC
  8
0
  6
CONTINUOUS
 62
     7
 10
-25.362177
 20
-13.940535
 40
5
 50
270
 51
313.8703
  0
ARC
  8
0
  6
CONTINUOUS
 62
     7
 10
-25.362177
 20
-68.440536
 40
5
 50
46.129697
 51
90.000003
  0
ARC
  8
0
  6
CONTINUOUS
 62
     7
 10
-29.147028
 20
-68.440536
 40
5
 50
90.000003
 51
180.00001
  0
ARC
  8
0
  6
CONTINUOUS
 62
     7
 10
-83.647026
 20
-68.440536
 40
5
 50
0
 51
90.000003
  0
ARC
  8
0
  6
CONTINUOUS
 62
     7
 10
-137.93697
 20
-351.4274
 40
5
 50
179.99999
 51
221.76098
  0
ARC
  8
0
  6
CONTINUOUS
 62
     7
 10
-200.93697
 20
-351.4274
 40
5
 50
318.23901
 51
360
  0
ARC
  8
0
  6
CONTINUOUS
 62
     7
 10
-208.10683
 20
-277.75754
 40
5
 50
228.23889
 51
270
  0
ARC
  8
0
  6
CONTINUOUS
 62
     7
 10
-208.10683
 20
-340.75754
 40
5
 50
90.000003
 51
131.76111
  0
ARC
  8
0
  6
CONTINUOUS
 62
     7
 10
-130.76709
 20
-277.75754
 40
5
 50
270
 51
311.76099
  0
ARC
  8
0
  6
CONTINUOUS
 62
     7
 10
-130.76709
 20
-340.75754
 40
5
 50
48.239007
 51
90.000003
  0
ARC
  8
0
  6
CONTINUOUS
 62
     7
 10
-200.93697
 20
-340.75754
 40
5
 50
0
 51
90.000003
  0
ARC
  8
0
  6
CONTINUOUS
 62
     7
 10
-137.93697
 20
-340.75754
 40
5
 50
90.000003
 51
180.00001
  0
ARC
  8
0
  6
CONTINUOUS
 62
     7
 10
121.46326
 20
-500.17468
 40
5
 50
180.00001
 51
207.7766
  0
ARC
  8
0
  6
CONTINUOUS
 62
     7
 10
51.463257
 20
-500.17468
 40
5
 50
332.22339
 51
360
  0
ARC
  8
0
  6
CONTINUOUS
 62
     7
 10
44.293381
 20
-418.50482
 40
5
 50
242.22324
 51
270
  0
ARC
  8
0
  6
CONTINUOUS
 62
     7
 10
44.293381
 20
-488.50482
 40
5
 50
90.000003
 51
117.77676
  0
ARC
  8
0
  6
CONTINUOUS
 62
     7
 10
128.63313
 20
-488.50482
 40
5
 50
62.223433
 51
90.000003
  0
ARC
  8
0
  6
CONTINUOUS
 62
     7
 10
128.63313
 20
-418.50482
 40
5
 50
270
 51
297.77657
  0
ARC
  8
0
  6
CONTINUOUS
 62
     7
 10
122.46326
 20
-489.50482
 40
6
 50
90.000003
 51
180.00001
  0
ARC
  8
0
  6
CONTINUOUS
 62
     7
 10
50.463257
 20
-489.50482
 40
6
 50
0
 51
90.000003
  0
ARC
  8
0
  6
CONTINUOUS
 62
     7
 10
-97.678711
 20
-823.2912
 40
5
 50
180.00001
 51
195.42789
  0
ARC
  8
0
  6
CONTINUOUS
 62
     7
 10
-180.67868
 20
-823.2912
 40
5
 50
344.57211
 51
0
  0
ARC
  8
0
  6
CONTINUOUS
 62
     7
 10
-189.34857
 20
-727.12134
 40
5
 50
254.57214
 51
270
  0
ARC
  8
0
  6
CONTINUOUS
 62
     7
 10
-189.34857
 20
-810.12134
 40
5
 50
90.000003
 51
105.42786
  0
ARC
  8
0
  6
CONTINUOUS
 62
     7
 10
-89.008789
 20
-727.12134
 40
5
 50
270
 51
285.42788
  0
ARC
  8
0
  6
CONTINUOUS
 62
     7
 10
-89.008789
 20
-810.12134
 40
5
 50
74.572121
 51
90.000003
  0
ARC
  8
0
  6
CONTINUOUS
 62
     7
 10
-95.678711
 20
-812.12134
 40
7
 50
90.000003
 51
180.00001
  0
ARC
  8
0
  6
CONTINUOUS
 62
     7
 10
-182.67868
 20
-812.12134
 40
7
 50
0
 51
90.000003
  0
CIRCLE
  8
0
  6
CONTINUOUS
 62
     7
 10
-190.24185
 20
62.988491
 40
11.5
  0
CIRCLE
  8
0
  6
CONTINUOUS
 62
     7
 10
87.202187
 20
64.339096
 40
14.25
  0
CIRCLE
  8
0
  6
CONTINUOUS
 62
     7
 10
-56.397026
 20
-161.19054
 40
17.75
  0
CIRCLE
  8
0
  6
CONTINUOUS
 62
     7
 10
-169.43697
 20
-439.25754
 40
22
  0
CIRCLE
  8
0
  6
CONTINUOUS
 62
     7
 10
86.463257
 20
-583.50482
 40
25
  0
CIRCLE
  8
0
  6
CONTINUOUS
 62
     7
 10
-139.17868
 20
-928.62128
 40
31
  0
CIRCLE
  8
0
  6
CONTINUOUS
 62
     7
 10
-100.24186
 20
152.98849
 40
11.5
  0
CIRCLE
  8
0
  6
CONTINUOUS
 62
     7
 10
63.602974
 20
-41.190533
 40
17.75
  0
CIRCLE
  8
0
  6
CONTINUOUS
 62
     7
 10
187.20218
 20
164.3391
 40
14.25
  0
CIRCLE
  8
0
  6
CONTINUOUS
 62
     7
 10
-29.43696
 20
-309.25754
 40
22
  0
CIRCLE
  8
0
  6
CONTINUOUS
 62
     7
 10
226.46326
 20
-453.50482
 40
25
  0
CIRCLE
  8
0
  6
CONTINUOUS
 62
     7
 10
40.821289
 20
-768.62128
 40
31
  0
ARC
  8
0
  6
CONTINUOUS
 62
     7
 10
408.73999
 20
112.40921
 40
5
 50
300.00001
 51
2.5044777E-006
  0
ARC
  8
0
  6
CONTINUOUS
 62
     7
 10
447.73999
 20
118.1395
 40
3
 50
89.999989
 51
180.00001
  0
ARC
  8
0
  6
CONTINUOUS
 62
     7
 10
409.73999
 20
117.1395
 40
4
 50
2.5044777E-006
 51
90.000003
  0
ARC
  8
0
  6
CONTINUOUS
 62
     7
 10
449.73999
 20
112.40921
 40
5
 50
179.99999
 51
240.00001
  0
ARC
  8
0
  6
CONTINUOUS
 62
     7
 10
408.5097
 20
116.1395
 40
5
 50
89.999989
 51
150.00001
  0
ARC
  8
0
  6
CONTINUOUS
 62
     7
 10
408.5097
 20
157.1395
 40
5
 50
210
 51
270
  0
ARC
  8
0
  6
CONTINUOUS
 62
     7
 10
449.97028
 20
116.1395
 40
5
 50
30.000004
 51
90.000003
  0
ARC
  8
0
  6
CONTINUOUS
 62
     7
 10
449.97028
 20
157.1395
 40
5
 50
270
 51
330
  0
ARC
  8
0
  6
CONTINUOUS
 62
     7
 10
713.85248
 20
107.10463
 40
5
 50
179.99999
 51
243.25631
  0
ARC
  8
0
  6
CONTINUOUS
 62
     7
 10
667.35248
 20
107.10463
 40
5
 50
296.74369
 51
1.1399108E-012
  0
ARC
  8
0
  6
CONTINUOUS
 62
     7
 10
664.06763
 20
159.8895
 40
5
 50
206.74368
 51
270
  0
ARC
  8
0
  6
CONTINUOUS
 62
     7
 10
664.06763
 20
113.3895
 40
5
 50
90.000003
 51
153.25632
  0
ARC
  8
0
  6
CONTINUOUS
 62
     7
 10
717.13733
 20
113.3895
 40
5
 50
26.743684
 51
90.000003
  0
ARC
  8
0
  6
CONTINUOUS
 62
     7
 10
717.13733
 20
159.8895
 40
5
 50
270
 51
333.25632
  0
ARC
  8
0
  6
CONTINUOUS
 62
     7
 10
668.35248
 20
114.3895
 40
4
 50
0
 51
90.000003
  0
ARC
  8
0
  6
CONTINUOUS
 62
     7
 10
712.85248
 20
114.3895
 40
4
 50
90.000003
 51
180.00001
  0
ARC
  8
0
  6
CONTINUOUS
 62
     7
 10
530.1012
 20
-85.86779
 40
5
 50
179.99999
 51
243.25631
  0
ARC
  8
0
  6
CONTINUOUS
 62
     7
 10
475.6012
 20
-85.86779
 40
5
 50
296.74369
 51
1.1399108E-012
  0
ARC
  8
0
  6
CONTINUOUS
 62
     7
 10
471.81631
 20
-23.082926
 40
5
 50
206.74368
 51
270
  0
ARC
  8
0
  6
CONTINUOUS
 62
     7
 10
471.81631
 20
-77.582924
 40
5
 50
90.000003
 51
153.25632
  0
ARC
  8
0
  6
CONTINUOUS
 62
     7
 10
533.88605
 20
-23.082926
 40
5
 50
270
 51
333.25632
  0
ARC
  8
0
  6
CONTINUOUS
 62
     7
 10
533.88605
 20
-77.582924
 40
5
 50
26.743684
 51
90.000003
  0
ARC
  8
0
  6
CONTINUOUS
 62
     7
 10
530.1012
 20
-77.582924
 40
5
 50
90.000003
 51
180.00001
  0
ARC
  8
0
  6
CONTINUOUS
 62
     7
 10
475.6012
 20
-77.582924
 40
5
 50
0
 51
90.000003
  0
ARC
  8
0
  6
CONTINUOUS
 62
     7
 10
449.15015
 20
-359.0672
 40
5
 50
180.00001
 51
240.00001
  0
ARC
  8
0
  6
CONTINUOUS
 62
     7
 10
386.15015
 20
-359.0672
 40
5
 50
300
 51
360
  0
ARC
  8
0
  6
CONTINUOUS
 62
     7
 10
378.98029
 20
-285.39731
 40
5
 50
210
 51
270
  0
ARC
  8
0
  6
CONTINUOUS
 62
     7
 10
378.98029
 20
-348.39731
 40
5
 50
90.000003
 51
150
  0
ARC
  8
0
  6
CONTINUOUS
 62
     7
 10
456.32004
 20
-285.39731
 40
5
 50
270
 51
329.99999
  0
ARC
  8
0
  6
CONTINUOUS
 62
     7
 10
456.32004
 20
-348.39731
 40
5
 50
30.000001
 51
90.000003
  0
ARC
  8
0
  6
CONTINUOUS
 62
     7
 10
386.15015
 20
-348.39731
 40
5
 50
0
 51
90.000003
  0
ARC
  8
0
  6
CONTINUOUS
 62
     7
 10
449.15015
 20
-348.39731
 40
5
 50
90.000003
 51
180.00001
  0
ARC
  8
0
  6
CONTINUOUS
 62
     7
 10
739.38086
 20
-489.9231
 40
5
 50
180.00001
 51
240.00001
  0
ARC
  8
0
  6
CONTINUOUS
 62
     7
 10
669.38086
 20
-489.9231
 40
5
 50
300
 51
360
  0
ARC
  8
0
  6
CONTINUOUS
 62
     7
 10
662.211
 20
-408.25323
 40
5
 50
210
 51
270
  0
ARC
  8
0
  6
CONTINUOUS
 62
     7
 10
662.211
 20
-478.25323
 40
5
 50
90.000003
 51
150
  0
ARC
  8
0
  6
CONTINUOUS
 62
     7
 10
746.55078
 20
-478.25323
 40
5
 50
30.000001
 51
90.000003
  0
ARC
  8
0
  6
CONTINUOUS
 62
     7
 10
746.55078
 20
-408.25323
 40
5
 50
270
 51
330
  0
ARC
  8
0
  6
CONTINUOUS
 62
     7
 10
740.38086
 20
-479.25323
 40
6
 50
90.000003
 51
180.00001
  0
ARC
  8
0
  6
CONTINUOUS
 62
     7
 10
668.38086
 20
-479.25323
 40
6
 50
0
 51
90.000003
  0
ARC
  8
0
  6
CONTINUOUS
 62
     7
 10
497.15735
 20
-837.7804
 40
5
 50
180.00001
 51
240.00001
  0
ARC
  8
0
  6
CONTINUOUS
 62
     7
 10
414.15735
 20
-837.7804
 40
5
 50
300
 51
0
  0
ARC
  8
0
  6
CONTINUOUS
 62
     7
 10
405.48746
 20
-741.61053
 40
5
 50
210
 51
270
  0
ARC
  8
0
  6
CONTINUOUS
 62
     7
 10
405.48746
 20
-824.61053
 40
5
 50
90.000003
 51
150
  0
ARC
  8
0
  6
CONTINUOUS
 62
     7
 10
505.82721
 20
-741.61053
 40
5
 50
270
 51
330
  0
ARC
  8
0
  6
CONTINUOUS
 62
     7
 10
505.82721
 20
-824.61053
 40
5
 50
30.000001
 51
90.000003
  0
ARC
  8
0
  6
CONTINUOUS
 62
     7
 10
499.15735
 20
-826.61053
 40
7
 50
90.000003
 51
180.00001
  0
ARC
  8
0
  6
CONTINUOUS
 62
     7
 10
412.15735
 20
-826.61053
 40
7
 50
0
 51
90.000003
  0
CIRCLE
  8
0
  6
CONTINUOUS
 62
     7
 10
429.23999
 20
36.639496
 40
11.2
  0
CIRCLE
  8
0
  6
CONTINUOUS
 62
     7
 10
429.23999
 20
36.639496
 40
12.75
  0
CIRCLE
  8
0
  6
CONTINUOUS
 62
     7
 10
429.23999
 20
36.639496
 40
13.285898
  0
CIRCLE
  8
0
  6
CONTINUOUS
 62
     7
 10
690.60248
 20
26.639498
 40
16.035898
  0
CIRCLE
  8
0
  6
CONTINUOUS
 62
     7
 10
690.60248
 20
26.639498
 40
13.95
  0
CIRCLE
  8
0
  6
CONTINUOUS
 62
     7
 10
690.60248
 20
26.639498
 40
15.5
  0
CIRCLE
  8
0
  6
CONTINUOUS
 62
     7
 10
502.8512
 20
-170.33293
 40
18.9
  0
CIRCLE
  8
0
  6
CONTINUOUS
 62
     7
 10
502.8512
 20
-170.33293
 40
19.435898
  0
CIRCLE
  8
0
  6
CONTINUOUS
 62
     7
 10
502.8512
 20
-170.33293
 40
17.35
  0
CIRCLE
  8
0
  6
CONTINUOUS
 62
     7
 10
417.65015
 20
-456.89731
 40
23.35
  0
CIRCLE
  8
0
  6
CONTINUOUS
 62
     7
 10
417.65015
 20
-456.89731
 40
23.885899
  0
CIRCLE
  8
0
  6
CONTINUOUS
 62
     7
 10
417.65015
 20
-456.89731
 40
21.700001
  0
CIRCLE
  8
0
  6
CONTINUOUS
 62
     7
 10
704.38086
 20
-583.25323
 40
26.450001
  0
CIRCLE
  8
0
  6
CONTINUOUS
 62
     7
 10
704.38086
 20
-583.25323
 40
26.985899
  0
CIRCLE
  8
0
  6
CONTINUOUS
 62
     7
 10
704.38086
 20
-583.25323
 40
24.700001
  0
CIRCLE
  8
0
  6
CONTINUOUS
 62
     7
 10
455.65735
 20
-943.11053
 40
32.450001
  0
CIRCLE
  8
0
  6
CONTINUOUS
 62
     7
 10
455.65735
 20
-943.11053
 40
32.985897
  0
CIRCLE
  8
0
  6
CONTINUOUS
 62
     7
 10
455.65735
 20
-943.11053
 40
30.700001
  0
CIRCLE
  8
0
  6
CONTINUOUS
 62
     7
 10
529.23999
 20
136.6395
 40
11.2
  0
CIRCLE
  8
0
  6
CONTINUOUS
 62
     7
 10
529.23999
 20
136.6395
 40
12.75
  0
CIRCLE
  8
0
  6
CONTINUOUS
 62
     7
 10
529.23999
 20
136.6395
 40
13.285898
  0
CIRCLE
  8
0
  6
CONTINUOUS
 62
     7
 10
810.60248
 20
136.6395
 40
16.035898
  0
CIRCLE
  8
0
  6
CONTINUOUS
 62
     7
 10
810.60248
 20
136.6395
 40
13.95
  0
CIRCLE
  8
0
  6
CONTINUOUS
 62
     7
 10
810.60248
 20
136.6395
 40
15.5
  0
CIRCLE
  8
0
  6
CONTINUOUS
 62
     7
 10
622.8512
 20
-50.332924
 40
18.9
  0
CIRCLE
  8
0
  6
CONTINUOUS
 62
     7
 10
622.8512
 20
-50.332924
 40
19.435898
  0
CIRCLE
  8
0
  6
CONTINUOUS
 62
     7
 10
622.8512
 20
-50.332924
 40
17.35
  0
CIRCLE
  8
0
  6
CONTINUOUS
 62
     7
 10
557.65015
 20
-316.89731
 40
23.35
  0
CIRCLE
  8
0
  6
CONTINUOUS
 62
     7
 10
557.65015
 20
-316.89731
 40
23.885899
  0
CIRCLE
  8
0
  6
CONTINUOUS
 62
     7
 10
557.65015
 20
-316.89731
 40
21.700001
  0
CIRCLE
  8
0
  6
CONTINUOUS
 62
     7
 10
844.38086
 20
-443.25323
 40
26.450001
  0
CIRCLE
  8
0
  6
CONTINUOUS
 62
     7
 10
844.38086
 20
-443.25323
 40
26.985899
  0
CIRCLE
  8
0
  6
CONTINUOUS
 62
     7
 10
844.38086
 20
-443.25323
 40
24.700001
  0
CIRCLE
  8
0
  6
CONTINUOUS
 62
     7
 10
615.65735
 20
-783.11053
 40
32.450001
  0
CIRCLE
  8
0
  6
CONTINUOUS
 62
     7
 10
615.65735
 20
-783.11053
 40
32.985897
  0
CIRCLE
  8
0
  6
CONTINUOUS
 62
     7
 10
615.65735
 20
-783.11053
 40
30.700001
  0
TEXT
  8
0
  6
CONTINUOUS
 62
     7
 10
-279.80684
 20
146.6015
 40
10
 41
1.0178573
  1
1/2
  0
TEXT
  8
0
  6
CONTINUOUS
 62
     7
 10
-16.278177
 20
159.08444
 40
10
 41
1.0178573
  1
3/4
  0
TEXT
  8
0
  6
CONTINUOUS
 62
     7
 10
-61.35545
 20
2.3542223
 40
10
 41
1.0714291
  1
1
  0
TEXT
  8
0
  6
CONTINUOUS
 62
     7
 10
-182.02385
 20
-266.72244
 40
10
 41
1.0129871
  1
11/4
  0
TEXT
  8
0
  6
CONTINUOUS
 62
     7
 10
73.182873
 20
-384.61682
 40
10
 41
1.0129871
  1
11/2
  0
TEXT
  8
0
  6
CONTINUOUS
 62
     7
 10
-142.42513
 20
-723.92133
 40
10
 41
1.0714291
  1
2
  0
TEXT
  8
0
  6
CONTINUOUS
 62
     7
 10
-287.52435
 20
224.76492
 40
15
 41
0.84260121
  1
ＬＡ　チ－ズ三方ナット付き　（ＮＴ）
  0
TEXT
  8
0
  6
CONTINUOUS
 62
     7
 10
419.77964
 20
172.86177
 40
10
 41
1.0178573
  1
1/2
  0
TEXT
  8
0
  6
CONTINUOUS
 62
     7
 10
677.4188
 20
174.33398
 40
10
 41
1.0178573
  1
3/4
  0
TEXT
  8
0
  6
CONTINUOUS
 62
     7
 10
512.52977
 20
-5.2773164
 40
10
 41
1.0714291
  1
1
  0
TEXT
  8
0
  6
CONTINUOUS
 62
     7
 10
397.88426
 20
-263.14709
 40
10
 41
1.0129871
  1
11/4
  0
TEXT
  8
0
  6
CONTINUOUS
 62
     7
 10
689.03166
 20
-388.03079
 40
10
 41
1.0129871
  1
11/2
  0
TEXT
  8
0
  6
CONTINUOUS
 62
     7
 10
450.61369
 20
-720.38824
 40
10
 41
1.0714291
  1
2
  0
TEXT
  8
0
  6
CONTINUOUS
 62
     7
 10
320.82105
 20
219.98682
 40
15
 41
0.84189521
  1
ＨＩ－ＬＡ（Ｐ－ＬＡ）　チ－ズ三方ねじ付き　（ＮＴ）
  0
LINE
  8
0
  6
CONTINUOUS
 62
     7
 10
-189.94185
 20
149.98849
 11
-189.94185
 21
150.81023
  0
LINE
  8
0
  6
CONTINUOUS
 62
     7
 10
-190.54185
 20
149.98849
 11
-190.54185
 21
150.81023
  0
LINE
  8
0
  6
CONTINUOUS
 62
     7
 10
-190.54185
 20
155.16676
 11
-190.54185
 21
155.98849
  0
LINE
  8
0
  6
CONTINUOUS
 62
     7
 10
-189.94185
 20
155.16676
 11
-189.94185
 21
155.98849
  0
LINE
  8
0
  6
CONTINUOUS
 62
     7
 10
-190.54185
 20
151.41241
 11
-190.54185
 21
152.98849
  0
LINE
  8
0
  6
CONTINUOUS
 62
     7
 10
-189.94185
 20
151.41241
 11
-189.94185
 21
152.98849
  0
ARC
  8
0
  6
CONTINUOUS
 62
     7
 10
-189.04185
 20
152.98849
 40
1.2
 50
306.00832
 51
53.991676
  0
ARC
  8
0
  6
CONTINUOUS
 62
     7
 10
-189.04185
 20
152.98849
 40
1.8
 50
306.00832
 51
53.991676
  0
ARC
  8
0
  6
CONTINUOUS
 62
     7
 10
-191.44185
 20
152.98849
 40
1.2
 50
126.00833
 51
233.99168
  0
ARC
  8
0
  6
CONTINUOUS
 62
     7
 10
-191.44185
 20
152.98849
 40
1.8
 50
126.00833
 51
233.99168
  0
ARC
  8
0
  6
CONTINUOUS
 62
     7
 10
-190.24185
 20
154.63965
 40
3.8411539
 50
53.991676
 51
85.520553
  0
ARC
  8
0
  6
CONTINUOUS
 62
     7
 10
-190.24185
 20
154.63965
 40
3.241154
 50
53.991676
 51
84.689121
  0
ARC
  8
0
  6
CONTINUOUS
 62
     7
 10
-190.24185
 20
151.33734
 40
3.241154
 50
233.99167
 51
306.00832
  0
ARC
  8
0
  6
CONTINUOUS
 62
     7
 10
-190.24185
 20
151.33734
 40
3.8411539
 50
233.99167
 51
265.52055
  0
ARC
  8
0
  6
CONTINUOUS
 62
     7
 10
-190.24185
 20
150.21349
 40
0.375
 50
36.869897
 51
143.1301
  0
ARC
  8
0
  6
CONTINUOUS
 62
     7
 10
-190.24185
 20
152.76349
 40
0.375
 50
216.8699
 51
323.1301
  0
ARC
  8
0
  6
CONTINUOUS
 62
     7
 10
-190.24185
 20
155.76349
 40
0.375
 50
216.8699
 51
323.1301
  0
ARC
  8
0
  6
CONTINUOUS
 62
     7
 10
-190.24185
 20
151.33734
 40
3.8411539
 50
274.47945
 51
306.00832
  0
ARC
  8
0
  6
CONTINUOUS
 62
     7
 10
-190.24185
 20
154.63965
 40
3.241154
 50
95.310878
 51
126.00833
  0
ARC
  8
0
  6
CONTINUOUS
 62
     7
 10
-190.24185
 20
154.63965
 40
3.8411539
 50
94.479452
 51
126.00833
  0
LINE
  8
0
  6
CONTINUOUS
 62
     7
 10
87.652187
 20
159.8391
 11
87.652187
 21
161.0717
  0
LINE
  8
0
  6
CONTINUOUS
 62
     7
 10
86.752187
 20
159.8391
 11
86.752187
 21
161.0717
  0
LINE
  8
0
  6
CONTINUOUS
 62
     7
 10
86.752187
 20
167.6065
 11
86.752187
 21
168.8391
  0
LINE
  8
0
  6
CONTINUOUS
 62
     7
 10
87.652187
 20
167.6065
 11
87.652187
 21
168.8391
  0
LINE
  8
0
  6
CONTINUOUS
 62
     7
 10
86.752187
 20
161.97497
 11
86.752187
 21
164.3391
  0
LINE
  8
0
  6
CONTINUOUS
 62
     7
 10
87.652187
 20
161.97497
 11
87.652187
 21
164.3391
  0
ARC
  8
0
  6
CONTINUOUS
 62
     7
 10
89.002187
 20
164.3391
 40
1.8
 50
306.00832
 51
53.991676
  0
ARC
  8
0
  6
CONTINUOUS
 62
     7
 10
89.002187
 20
164.3391
 40
2.7
 50
306.00832
 51
53.991676
  0
ARC
  8
0
  6
CONTINUOUS
 62
     7
 10
85.402187
 20
164.3391
 40
1.8
 50
126.00833
 51
233.99168
  0
ARC
  8
0
  6
CONTINUOUS
 62
     7
 10
85.402187
 20
164.3391
 40
2.7
 50
126.00833
 51
233.99168
  0
ARC
  8
0
  6
CONTINUOUS
 62
     7
 10
87.202187
 20
166.81583
 40
5.7617307
 50
53.991676
 51
85.520553
  0
ARC
  8
0
  6
CONTINUOUS
 62
     7
 10
87.202187
 20
166.81583
 40
4.8617306
 50
53.991676
 51
84.689121
  0
ARC
  8
0
  6
CONTINUOUS
 62
     7
 10
87.202187
 20
161.86237
 40
4.8617306
 50
233.99167
 51
306.00832
  0
ARC
  8
0
  6
CONTINUOUS
 62
     7
 10
87.202187
 20
161.86237
 40
5.7617307
 50
233.99167
 51
265.52055
  0
ARC
  8
0
  6
CONTINUOUS
 62
     7
 10
87.202187
 20
160.1766
 40
0.5625
 50
36.869897
 51
143.1301
  0
ARC
  8
0
  6
CONTINUOUS
 62
     7
 10
87.202187
 20
164.0016
 40
0.5625
 50
216.8699
 51
323.1301
  0
ARC
  8
0
  6
CONTINUOUS
 62
     7
 10
87.202187
 20
168.5016
 40
0.5625
 50
216.8699
 51
323.1301
  0
ARC
  8
0
  6
CONTINUOUS
 62
     7
 10
87.202187
 20
166.81583
 40
5.7617307
 50
94.479452
 51
126.00833
  0
ARC
  8
0
  6
CONTINUOUS
 62
     7
 10
87.202187
 20
166.81583
 40
4.8617306
 50
95.310878
 51
126.00833
  0
ARC
  8
0
  6
CONTINUOUS
 62
     7
 10
87.202187
 20
161.86237
 40
5.7617307
 50
274.47945
 51
306.00832
  0
LINE
  8
0
  6
CONTINUOUS
 62
     7
 10
-55.947026
 20
-45.690533
 11
-55.947026
 21
-44.457933
  0
LINE
  8
0
  6
CONTINUOUS
 62
     7
 10
-56.847026
 20
-45.690533
 11
-56.847026
 21
-44.457933
  0
LINE
  8
0
  6
CONTINUOUS
 62
     7
 10
-56.847026
 20
-37.923132
 11
-56.847026
 21
-36.690533
  0
LINE
  8
0
  6
CONTINUOUS
 62
     7
 10
-55.947026
 20
-37.923132
 11
-55.947026
 21
-36.690533
  0
LINE
  8
0
  6
CONTINUOUS
 62
     7
 10
-56.847026
 20
-43.554662
 11
-56.847026
 21
-41.190533
  0
LINE
  8
0
  6
CONTINUOUS
 62
     7
 10
-55.947026
 20
-43.554662
 11
-55.947026
 21
-41.190533
  0
ARC
  8
0
  6
CONTINUOUS
 62
     7
 10
-54.597026
 20
-41.190533
 40
1.8
 50
306.00832
 51
53.991676
  0
ARC
  8
0
  6
CONTINUOUS
 62
     7
 10
-54.597026
 20
-41.190533
 40
2.7
 50
306.00832
 51
53.991676
  0
ARC
  8
0
  6
CONTINUOUS
 62
     7
 10
-58.197026
 20
-41.190533
 40
1.8
 50
126.00833
 51
233.99168
  0
ARC
  8
0
  6
CONTINUOUS
 62
     7
 10
-58.197026
 20
-41.190533
 40
2.7
 50
126.00833
 51
233.99168
  0
ARC
  8
0
  6
CONTINUOUS
 62
     7
 10
-56.397026
 20
-38.713802
 40
5.7617307
 50
53.991676
 51
85.520553
  0
ARC
  8
0
  6
CONTINUOUS
 62
     7
 10
-56.397026
 20
-38.713802
 40
4.8617306
 50
53.991676
 51
84.689121
  0
ARC
  8
0
  6
CONTINUOUS
 62
     7
 10
-56.397026
 20
-43.667264
 40
4.8617306
 50
233.99167
 51
306.00832
  0
ARC
  8
0
  6
CONTINUOUS
 62
     7
 10
-56.397026
 20
-43.667264
 40
5.7617307
 50
233.99167
 51
265.52055
  0
ARC
  8
0
  6
CONTINUOUS
 62
     7
 10
-56.397026
 20
-45.353033
 40
0.5625
 50
36.869897
 51
143.1301
  0
ARC
  8
0
  6
CONTINUOUS
 62
     7
 10
-56.397026
 20
-41.528033
 40
0.5625
 50
216.8699
 51
323.1301
  0
ARC
  8
0
  6
CONTINUOUS
 62
     7
 10
-56.397026
 20
-37.028033
 40
0.5625
 50
216.8699
 51
323.1301
  0
ARC
  8
0
  6
CONTINUOUS
 62
     7
 10
-56.397026
 20
-38.713802
 40
5.7617307
 50
94.479452
 51
126.00833
  0
ARC
  8
0
  6
CONTINUOUS
 62
     7
 10
-56.397026
 20
-38.713802
 40
4.8617306
 50
95.310878
 51
126.00833
  0
ARC
  8
0
  6
CONTINUOUS
 62
     7
 10
-56.397026
 20
-43.667264
 40
5.7617307
 50
274.47945
 51
306.00832
  0
LINE
  8
0
  6
CONTINUOUS
 62
     7
 10
-168.83697
 20
-315.25754
 11
-168.83697
 21
-313.61407
  0
LINE
  8
0
  6
CONTINUOUS
 62
     7
 10
-170.03697
 20
-315.25754
 11
-170.03697
 21
-313.61407
  0
LINE
  8
0
  6
CONTINUOUS
 62
     7
 10
-170.03697
 20
-304.901
 11
-170.03697
 21
-303.25754
  0
LINE
  8
0
  6
CONTINUOUS
 62
     7
 10
-168.83697
 20
-304.901
 11
-168.83697
 21
-303.25754
  0
LINE
  8
0
  6
CONTINUOUS
 62
     7
 10
-170.03697
 20
-312.40971
 11
-170.03697
 21
-309.25754
  0
LINE
  8
0
  6
CONTINUOUS
 62
     7
 10
-168.83697
 20
-312.40971
 11
-168.83697
 21
-309.25754
  0
ARC
  8
0
  6
CONTINUOUS
 62
     7
 10
-167.03697
 20
-309.25754
 40
2.4000001
 50
306.00832
 51
53.991676
  0
ARC
  8
0
  6
CONTINUOUS
 62
     7
 10
-167.03697
 20
-309.25754
 40
3.5999999
 50
306.00832
 51
53.991676
  0
ARC
  8
0
  6
CONTINUOUS
 62
     7
 10
-171.83697
 20
-309.25754
 40
2.4000001
 50
126.00833
 51
233.99168
  0
ARC
  8
0
  6
CONTINUOUS
 62
     7
 10
-171.83697
 20
-309.25754
 40
3.5999999
 50
126.00833
 51
233.99168
  0
ARC
  8
0
  6
CONTINUOUS
 62
     7
 10
-169.43697
 20
-305.95523
 40
7.6823077
 50
53.991676
 51
85.520553
  0
ARC
  8
0
  6
CONTINUOUS
 62
     7
 10
-169.43697
 20
-305.95523
 40
6.4823079
 50
53.991676
 51
84.689121
  0
ARC
  8
0
  6
CONTINUOUS
 62
     7
 10
-169.43697
 20
-312.55985
 40
6.4823079
 50
233.99167
 51
306.00832
  0
ARC
  8
0
  6
CONTINUOUS
 62
     7
 10
-169.43697
 20
-312.55985
 40
7.6823077
 50
233.99167
 51
265.52055
  0
ARC
  8
0
  6
CONTINUOUS
 62
     7
 10
-169.43697
 20
-314.80754
 40
0.75
 50
36.869897
 51
143.1301
  0
ARC
  8
0
  6
CONTINUOUS
 62
     7
 10
-169.43697
 20
-309.70754
 40
0.75
 50
216.8699
 51
323.1301
  0
ARC
  8
0
  6
CONTINUOUS
 62
     7
 10
-169.43697
 20
-303.70754
 40
0.75
 50
216.8699
 51
323.1301
  0
ARC
  8
0
  6
CONTINUOUS
 62
     7
 10
-169.43697
 20
-305.95523
 40
6.4823079
 50
95.310878
 51
126.00833
  0
ARC
  8
0
  6
CONTINUOUS
 62
     7
 10
-169.43697
 20
-305.95523
 40
7.6823077
 50
94.479452
 51
126.00833
  0
ARC
  8
0
  6
CONTINUOUS
 62
     7
 10
-169.43697
 20
-312.55985
 40
7.6823077
 50
274.47945
 51
306.00832
  0
LINE
  8
0
  6
CONTINUOUS
 62
     7
 10
87.063257
 20
-459.50482
 11
87.063257
 21
-457.86136
  0
LINE
  8
0
  6
CONTINUOUS
 62
     7
 10
85.863257
 20
-459.50482
 11
85.863257
 21
-457.86136
  0
LINE
  8
0
  6
CONTINUOUS
 62
     7
 10
85.863257
 20
-449.14829
 11
85.863257
 21
-447.50482
  0
LINE
  8
0
  6
CONTINUOUS
 62
     7
 10
87.063257
 20
-449.14829
 11
87.063257
 21
-447.50482
  0
LINE
  8
0
  6
CONTINUOUS
 62
     7
 10
85.863257
 20
-456.65699
 11
85.863257
 21
-453.50482
  0
LINE
  8
0
  6
CONTINUOUS
 62
     7
 10
87.063257
 20
-456.65699
 11
87.063257
 21
-453.50482
  0
ARC
  8
0
  6
CONTINUOUS
 62
     7
 10
88.863257
 20
-453.50482
 40
2.4000001
 50
306.00832
 51
53.991676
  0
ARC
  8
0
  6
CONTINUOUS
 62
     7
 10
88.863257
 20
-453.50482
 40
3.5999999
 50
306.00832
 51
53.991676
  0
ARC
  8
0
  6
CONTINUOUS
 62
     7
 10
84.063257
 20
-453.50482
 40
2.4000001
 50
126.00833
 51
233.99168
  0
ARC
  8
0
  6
CONTINUOUS
 62
     7
 10
84.063257
 20
-453.50482
 40
3.5999999
 50
126.00833
 51
233.99168
  0
ARC
  8
0
  6
CONTINUOUS
 62
     7
 10
86.463257
 20
-450.20251
 40
7.6823077
 50
53.991676
 51
85.520553
  0
ARC
  8
0
  6
CONTINUOUS
 62
     7
 10
86.463257
 20
-450.20251
 40
6.4823079
 50
53.991676
 51
84.689121
  0
ARC
  8
0
  6
CONTINUOUS
 62
     7
 10
86.463257
 20
-456.80713
 40
6.4823079
 50
233.99167
 51
306.00832
  0
ARC
  8
0
  6
CONTINUOUS
 62
     7
 10
86.463257
 20
-456.80713
 40
7.6823077
 50
233.99167
 51
265.52055
  0
ARC
  8
0
  6
CONTINUOUS
 62
     7
 10
86.463257
 20
-459.05482
 40
0.75
 50
36.869897
 51
143.1301
  0
ARC
  8
0
  6
CONTINUOUS
 62
     7
 10
86.463257
 20
-453.95482
 40
0.75
 50
216.8699
 51
323.1301
  0
ARC
  8
0
  6
CONTINUOUS
 62
     7
 10
86.463257
 20
-447.95482
 40
0.75
 50
216.8699
 51
323.1301
  0
ARC
  8
0
  6
CONTINUOUS
 62
     7
 10
86.463257
 20
-450.20251
 40
6.4823079
 50
95.310878
 51
126.00833
  0
ARC
  8
0
  6
CONTINUOUS
 62
     7
 10
86.463257
 20
-450.20251
 40
7.6823077
 50
94.479452
 51
126.00833
  0
ARC
  8
0
  6
CONTINUOUS
 62
     7
 10
86.463257
 20
-456.80713
 40
7.6823077
 50
274.47945
 51
306.00832
  0
LINE
  8
0
  6
CONTINUOUS
 62
     7
 10
-138.57868
 20
-774.62128
 11
-138.57868
 21
-772.97781
  0
LINE
  8
0
  6
CONTINUOUS
 62
     7
 10
-139.77868
 20
-774.62128
 11
-139.77868
 21
-772.97781
  0
LINE
  8
0
  6
CONTINUOUS
 62
     7
 10
-139.77868
 20
-764.26474
 11
-139.77868
 21
-762.62128
  0
LINE
  8
0
  6
CONTINUOUS
 62
     7
 10
-138.57868
 20
-764.26474
 11
-138.57868
 21
-762.62128
  0
LINE
  8
0
  6
CONTINUOUS
 62
     7
 10
-139.77868
 20
-771.77345
 11
-139.77868
 21
-768.62128
  0
LINE
  8
0
  6
CONTINUOUS
 62
     7
 10
-138.57868
 20
-771.77345
 11
-138.57868
 21
-768.62128
  0
ARC
  8
0
  6
CONTINUOUS
 62
     7
 10
-136.77868
 20
-768.62128
 40
2.4000001
 50
306.00832
 51
53.991676
  0
ARC
  8
0
  6
CONTINUOUS
 62
     7
 10
-136.77868
 20
-768.62128
 40
3.5999999
 50
306.00832
 51
53.991676
  0
ARC
  8
0
  6
CONTINUOUS
 62
     7
 10
-141.57868
 20
-768.62128
 40
2.4000001
 50
126.00833
 51
233.99168
  0
ARC
  8
0
  6
CONTINUOUS
 62
     7
 10
-141.57868
 20
-768.62128
 40
3.5999999
 50
126.00833
 51
233.99168
  0
ARC
  8
0
  6
CONTINUOUS
 62
     7
 10
-139.17868
 20
-765.31897
 40
7.6823077
 50
53.991676
 51
85.520553
  0
ARC
  8
0
  6
CONTINUOUS
 62
     7
 10
-139.17868
 20
-765.31897
 40
6.4823079
 50
53.991676
 51
84.689121
  0
ARC
  8
0
  6
CONTINUOUS
 62
     7
 10
-139.17868
 20
-771.92358
 40
6.4823079
 50
233.99167
 51
306.00832
  0
ARC
  8
0
  6
CONTINUOUS
 62
     7
 10
-139.17868
 20
-771.92358
 40
7.6823077
 50
233.99167
 51
265.52055
  0
ARC
  8
0
  6
CONTINUOUS
 62
     7
 10
-139.17868
 20
-774.17128
 40
0.75
 50
36.869897
 51
143.1301
  0
ARC
  8
0
  6
CONTINUOUS
 62
     7
 10
-139.17868
 20
-769.07128
 40
0.75
 50
216.8699
 51
323.1301
  0
ARC
  8
0
  6
CONTINUOUS
 62
     7
 10
-139.17868
 20
-763.07128
 40
0.75
 50
216.8699
 51
323.1301
  0
ARC
  8
0
  6
CONTINUOUS
 62
     7
 10
-139.17868
 20
-765.31897
 40
6.4823079
 50
95.310878
 51
126.00833
  0
ARC
  8
0
  6
CONTINUOUS
 62
     7
 10
-139.17868
 20
-765.31897
 40
7.6823077
 50
94.479452
 51
126.00833
  0
ARC
  8
0
  6
CONTINUOUS
 62
     7
 10
-139.17868
 20
-771.92358
 40
7.6823077
 50
274.47945
 51
306.00832
  0
LINE
  8
0
  6
CONTINUOUS
 62
     7
 10
429.53999
 20
133.6395
 11
429.53999
 21
134.46123
  0
LINE
  8
0
  6
CONTINUOUS
 62
     7
 10
428.93999
 20
133.6395
 11
428.93999
 21
134.46123
  0
LINE
  8
0
  6
CONTINUOUS
 62
     7
 10
428.93999
 20
138.81776
 11
428.93999
 21
139.6395
  0
LINE
  8
0
  6
CONTINUOUS
 62
     7
 10
429.53999
 20
138.81776
 11
429.53999
 21
139.6395
  0
LINE
  8
0
  6
CONTINUOUS
 62
     7
 10
428.93999
 20
135.06341
 11
428.93999
 21
136.6395
  0
LINE
  8
0
  6
CONTINUOUS
 62
     7
 10
429.53999
 20
135.06341
 11
429.53999
 21
136.6395
  0
ARC
  8
0
  6
CONTINUOUS
 62
     7
 10
430.43999
 20
136.6395
 40
1.2
 50
306.00832
 51
53.991676
  0
ARC
  8
0
  6
CONTINUOUS
 62
     7
 10
430.43999
 20
136.6395
 40
1.8
 50
306.00832
 51
53.991676
  0
ARC
  8
0
  6
CONTINUOUS
 62
     7
 10
428.03999
 20
136.6395
 40
1.2
 50
126.00833
 51
233.99168
  0
ARC
  8
0
  6
CONTINUOUS
 62
     7
 10
428.03999
 20
136.6395
 40
1.8
 50
126.00833
 51
233.99168
  0
ARC
  8
0
  6
CONTINUOUS
 62
     7
 10
429.23999
 20
138.29065
 40
3.8411539
 50
53.991676
 51
85.520553
  0
ARC
  8
0
  6
CONTINUOUS
 62
     7
 10
429.23999
 20
138.29065
 40
3.241154
 50
53.991676
 51
84.689121
  0
ARC
  8
0
  6
CONTINUOUS
 62
     7
 10
429.23999
 20
134.98834
 40
3.241154
 50
233.99167
 51
306.00832
  0
ARC
  8
0
  6
CONTINUOUS
 62
     7
 10
429.23999
 20
134.98834
 40
3.8411539
 50
233.99167
 51
265.52055
  0
ARC
  8
0
  6
CONTINUOUS
 62
     7
 10
429.23999
 20
133.8645
 40
0.375
 50
36.869897
 51
143.1301
  0
ARC
  8
0
  6
CONTINUOUS
 62
     7
 10
429.23999
 20
136.4145
 40
0.375
 50
216.8699
 51
323.1301
  0
ARC
  8
0
  6
CONTINUOUS
 62
     7
 10
429.23999
 20
139.4145
 40
0.375
 50
216.8699
 51
323.1301
  0
ARC
  8
0
  6
CONTINUOUS
 62
     7
 10
429.23999
 20
134.98834
 40
3.8411539
 50
274.47945
 51
306.00832
  0
ARC
  8
0
  6
CONTINUOUS
 62
     7
 10
429.23999
 20
138.29065
 40
3.241154
 50
95.310878
 51
126.00833
  0
ARC
  8
0
  6
CONTINUOUS
 62
     7
 10
429.23999
 20
138.29065
 40
3.8411539
 50
94.479452
 51
126.00833
  0
LINE
  8
0
  6
CONTINUOUS
 62
     7
 10
691.05248
 20
132.1395
 11
691.05248
 21
133.3721
  0
LINE
  8
0
  6
CONTINUOUS
 62
     7
 10
690.15248
 20
132.1395
 11
690.15248
 21
133.3721
  0
LINE
  8
0
  6
CONTINUOUS
 62
     7
 10
690.15248
 20
139.9069
 11
690.15248
 21
141.1395
  0
LINE
  8
0
  6
CONTINUOUS
 62
     7
 10
691.05248
 20
139.9069
 11
691.05248
 21
141.1395
  0
LINE
  8
0
  6
CONTINUOUS
 62
     7
 10
690.15248
 20
134.27537
 11
690.15248
 21
136.6395
  0
LINE
  8
0
  6
CONTINUOUS
 62
     7
 10
691.05248
 20
134.27537
 11
691.05248
 21
136.6395
  0
ARC
  8
0
  6
CONTINUOUS
 62
     7
 10
692.40248
 20
136.6395
 40
1.8
 50
306.00832
 51
53.991676
  0
ARC
  8
0
  6
CONTINUOUS
 62
     7
 10
692.40248
 20
136.6395
 40
2.7
 50
306.00832
 51
53.991676
  0
ARC
  8
0
  6
CONTINUOUS
 62
     7
 10
688.80248
 20
136.6395
 40
1.8
 50
126.00833
 51
233.99168
  0
ARC
  8
0
  6
CONTINUOUS
 62
     7
 10
688.80248
 20
136.6395
 40
2.7
 50
126.00833
 51
233.99168
  0
ARC
  8
0
  6
CONTINUOUS
 62
     7
 10
690.60248
 20
139.11623
 40
5.7617307
 50
53.991676
 51
85.520553
  0
ARC
  8
0
  6
CONTINUOUS
 62
     7
 10
690.60248
 20
139.11623
 40
4.8617306
 50
53.991676
 51
84.689121
  0
ARC
  8
0
  6
CONTINUOUS
 62
     7
 10
690.60248
 20
134.16277
 40
4.8617306
 50
233.99167
 51
306.00832
  0
ARC
  8
0
  6
CONTINUOUS
 62
     7
 10
690.60248
 20
134.16277
 40
5.7617307
 50
233.99167
 51
265.52055
  0
ARC
  8
0
  6
CONTINUOUS
 62
     7
 10
690.60248
 20
132.477
 40
0.5625
 50
36.869897
 51
143.1301
  0
ARC
  8
0
  6
CONTINUOUS
 62
     7
 10
690.60248
 20
136.302
 40
0.5625
 50
216.8699
 51
323.1301
  0
ARC
  8
0
  6
CONTINUOUS
 62
     7
 10
690.60248
 20
140.802
 40
0.5625
 50
216.8699
 51
323.1301
  0
ARC
  8
0
  6
CONTINUOUS
 62
     7
 10
690.60248
 20
139.11623
 40
5.7617307
 50
94.479452
 51
126.00833
  0
ARC
  8
0
  6
CONTINUOUS
 62
     7
 10
690.60248
 20
139.11623
 40
4.8617306
 50
95.310878
 51
126.00833
  0
ARC
  8
0
  6
CONTINUOUS
 62
     7
 10
690.60248
 20
134.16277
 40
5.7617307
 50
274.47945
 51
306.00832
  0
LINE
  8
0
  6
CONTINUOUS
 62
     7
 10
503.3012
 20
-54.832924
 11
503.3012
 21
-53.600324
  0
LINE
  8
0
  6
CONTINUOUS
 62
     7
 10
502.4012
 20
-54.832924
 11
502.4012
 21
-53.600324
  0
LINE
  8
0
  6
CONTINUOUS
 62
     7
 10
502.4012
 20
-47.065524
 11
502.4012
 21
-45.832924
  0
LINE
  8
0
  6
CONTINUOUS
 62
     7
 10
503.3012
 20
-47.065524
 11
503.3012
 21
-45.832924
  0
LINE
  8
0
  6
CONTINUOUS
 62
     7
 10
502.4012
 20
-52.697053
 11
502.4012
 21
-50.332924
  0
LINE
  8
0
  6
CONTINUOUS
 62
     7
 10
503.3012
 20
-52.697053
 11
503.3012
 21
-50.332924
  0
ARC
  8
0
  6
CONTINUOUS
 62
     7
 10
504.6512
 20
-50.332924
 40
1.8
 50
306.00832
 51
53.991676
  0
ARC
  8
0
  6
CONTINUOUS
 62
     7
 10
504.6512
 20
-50.332924
 40
2.7
 50
306.00832
 51
53.991676
  0
ARC
  8
0
  6
CONTINUOUS
 62
     7
 10
501.0512
 20
-50.332924
 40
1.8
 50
126.00833
 51
233.99168
  0
ARC
  8
0
  6
CONTINUOUS
 62
     7
 10
501.0512
 20
-50.332924
 40
2.7
 50
126.00833
 51
233.99168
  0
ARC
  8
0
  6
CONTINUOUS
 62
     7
 10
502.8512
 20
-47.856193
 40
5.7617307
 50
53.991676
 51
85.520553
  0
ARC
  8
0
  6
CONTINUOUS
 62
     7
 10
502.8512
 20
-47.856193
 40
4.8617306
 50
53.991676
 51
84.689121
  0
ARC
  8
0
  6
CONTINUOUS
 62
     7
 10
502.8512
 20
-52.809655
 40
4.8617306
 50
233.99167
 51
306.00832
  0
ARC
  8
0
  6
CONTINUOUS
 62
     7
 10
502.8512
 20
-52.809655
 40
5.7617307
 50
233.99167
 51
265.52055
  0
ARC
  8
0
  6
CONTINUOUS
 62
     7
 10
502.8512
 20
-54.495424
 40
0.5625
 50
36.869897
 51
143.1301
  0
ARC
  8
0
  6
CONTINUOUS
 62
     7
 10
502.8512
 20
-50.670424
 40
0.5625
 50
216.8699
 51
323.1301
  0
ARC
  8
0
  6
CONTINUOUS
 62
     7
 10
502.8512
 20
-46.170424
 40
0.5625
 50
216.8699
 51
323.1301
  0
ARC
  8
0
  6
CONTINUOUS
 62
     7
 10
502.8512
 20
-47.856193
 40
5.7617307
 50
94.479452
 51
126.00833
  0
ARC
  8
0
  6
CONTINUOUS
 62
     7
 10
502.8512
 20
-47.856193
 40
4.8617306
 50
95.310878
 51
126.00833
  0
ARC
  8
0
  6
CONTINUOUS
 62
     7
 10
502.8512
 20
-52.809655
 40
5.7617307
 50
274.47945
 51
306.00832
  0
LINE
  8
0
  6
CONTINUOUS
 62
     7
 10
418.25015
 20
-322.89731
 11
418.25015
 21
-321.25384
  0
LINE
  8
0
  6
CONTINUOUS
 62
     7
 10
417.05015
 20
-322.89731
 11
417.05015
 21
-321.25384
  0
LINE
  8
0
  6
CONTINUOUS
 62
     7
 10
417.05015
 20
-312.54077
 11
417.05015
 21
-310.89731
  0
LINE
  8
0
  6
CONTINUOUS
 62
     7
 10
418.25015
 20
-312.54077
 11
418.25015
 21
-310.89731
  0
LINE
  8
0
  6
CONTINUOUS
 62
     7
 10
417.05015
 20
-320.04948
 11
417.05015
 21
-316.89731
  0
LINE
  8
0
  6
CONTINUOUS
 62
     7
 10
418.25015
 20
-320.04948
 11
418.25015
 21
-316.89731
  0
ARC
  8
0
  6
CONTINUOUS
 62
     7
 10
420.05015
 20
-316.89731
 40
2.4000001
 50
306.00832
 51
53.991676
  0
ARC
  8
0
  6
CONTINUOUS
 62
     7
 10
420.05015
 20
-316.89731
 40
3.5999999
 50
306.00832
 51
53.991676
  0
ARC
  8
0
  6
CONTINUOUS
 62
     7
 10
415.25015
 20
-316.89731
 40
2.4000001
 50
126.00833
 51
233.99168
  0
ARC
  8
0
  6
CONTINUOUS
 62
     7
 10
415.25015
 20
-316.89731
 40
3.5999999
 50
126.00833
 51
233.99168
  0
ARC
  8
0
  6
CONTINUOUS
 62
     7
 10
417.65015
 20
-313.595
 40
7.6823077
 50
53.991676
 51
85.520553
  0
ARC
  8
0
  6
CONTINUOUS
 62
     7
 10
417.65015
 20
-313.595
 40
6.4823079
 50
53.991676
 51
84.689121
  0
ARC
  8
0
  6
CONTINUOUS
 62
     7
 10
417.65015
 20
-320.19962
 40
6.4823079
 50
233.99167
 51
306.00832
  0
ARC
  8
0
  6
CONTINUOUS
 62
     7
 10
417.65015
 20
-320.19962
 40
7.6823077
 50
233.99167
 51
265.52055
  0
ARC
  8
0
  6
CONTINUOUS
 62
     7
 10
417.65015
 20
-322.44731
 40
0.75
 50
36.869897
 51
143.1301
  0
ARC
  8
0
  6
CONTINUOUS
 62
     7
 10
417.65015
 20
-317.34731
 40
0.75
 50
216.8699
 51
323.1301
  0
ARC
  8
0
  6
CONTINUOUS
 62
     7
 10
417.65015
 20
-311.34731
 40
0.75
 50
216.8699
 51
323.1301
  0
ARC
  8
0
  6
CONTINUOUS
 62
     7
 10
417.65015
 20
-313.595
 40
6.4823079
 50
95.310878
 51
126.00833
  0
ARC
  8
0
  6
CONTINUOUS
 62
     7
 10
417.65015
 20
-313.595
 40
7.6823077
 50
94.479452
 51
126.00833
  0
ARC
  8
0
  6
CONTINUOUS
 62
     7
 10
417.65015
 20
-320.19962
 40
7.6823077
 50
274.47945
 51
306.00832
  0
LINE
  8
0
  6
CONTINUOUS
 62
     7
 10
704.98086
 20
-449.25323
 11
704.98086
 21
-447.60977
  0
LINE
  8
0
  6
CONTINUOUS
 62
     7
 10
703.78086
 20
-449.25323
 11
703.78086
 21
-447.60977
  0
LINE
  8
0
  6
CONTINUOUS
 62
     7
 10
703.78086
 20
-438.8967
 11
703.78086
 21
-437.25323
  0
LINE
  8
0
  6
CONTINUOUS
 62
     7
 10
704.98086
 20
-438.8967
 11
704.98086
 21
-437.25323
  0
LINE
  8
0
  6
CONTINUOUS
 62
     7
 10
703.78086
 20
-446.40541
 11
703.78086
 21
-443.25323
  0
LINE
  8
0
  6
CONTINUOUS
 62
     7
 10
704.98086
 20
-446.40541
 11
704.98086
 21
-443.25323
  0
ARC
  8
0
  6
CONTINUOUS
 62
     7
 10
706.78086
 20
-443.25323
 40
2.4000001
 50
306.00832
 51
53.991676
  0
ARC
  8
0
  6
CONTINUOUS
 62
     7
 10
706.78086
 20
-443.25323
 40
3.5999999
 50
306.00832
 51
53.991676
  0
ARC
  8
0
  6
CONTINUOUS
 62
     7
 10
701.98086
 20
-443.25323
 40
2.4000001
 50
126.00833
 51
233.99168
  0
ARC
  8
0
  6
CONTINUOUS
 62
     7
 10
701.98086
 20
-443.25323
 40
3.5999999
 50
126.00833
 51
233.99168
  0
ARC
  8
0
  6
CONTINUOUS
 62
     7
 10
704.38086
 20
-439.95093
 40
7.6823077
 50
53.991676
 51
85.520553
  0
ARC
  8
0
  6
CONTINUOUS
 62
     7
 10
704.38086
 20
-439.95093
 40
6.4823079
 50
53.991676
 51
84.689121
  0
ARC
  8
0
  6
CONTINUOUS
 62
     7
 10
704.38086
 20
-446.55554
 40
6.4823079
 50
233.99167
 51
306.00832
  0
ARC
  8
0
  6
CONTINUOUS
 62
     7
 10
704.38086
 20
-446.55554
 40
7.6823077
 50
233.99167
 51
265.52055
  0
ARC
  8
0
  6
CONTINUOUS
 62
     7
 10
704.38086
 20
-448.80324
 40
0.75
 50
36.869897
 51
143.1301
  0
ARC
  8
0
  6
CONTINUOUS
 62
     7
 10
704.38086
 20
-443.70323
 40
0.75
 50
216.8699
 51
323.1301
  0
ARC
  8
0
  6
CONTINUOUS
 62
     7
 10
704.38086
 20
-437.70323
 40
0.75
 50
216.8699
 51
323.1301
  0
ARC
  8
0
  6
CONTINUOUS
 62
     7
 10
704.38086
 20
-439.95093
 40
6.4823079
 50
95.310878
 51
126.00833
  0
ARC
  8
0
  6
CONTINUOUS
 62
     7
 10
704.38086
 20
-439.95093
 40
7.6823077
 50
94.479452
 51
126.00833
  0
ARC
  8
0
  6
CONTINUOUS
 62
     7
 10
704.38086
 20
-446.55554
 40
7.6823077
 50
274.47945
 51
306.00832
  0
LINE
  8
0
  6
CONTINUOUS
 62
     7
 10
456.25735
 20
-789.11053
 11
456.25735
 21
-787.46707
  0
LINE
  8
0
  6
CONTINUOUS
 62
     7
 10
455.05735
 20
-789.11053
 11
455.05735
 21
-787.46707
  0
LINE
  8
0
  6
CONTINUOUS
 62
     7
 10
455.05735
 20
-778.754
 11
455.05735
 21
-777.11053
  0
LINE
  8
0
  6
CONTINUOUS
 62
     7
 10
456.25735
 20
-778.754
 11
456.25735
 21
-777.11053
  0
LINE
  8
0
  6
CONTINUOUS
 62
     7
 10
455.05735
 20
-786.26271
 11
455.05735
 21
-783.11053
  0
LINE
  8
0
  6
CONTINUOUS
 62
     7
 10
456.25735
 20
-786.26271
 11
456.25735
 21
-783.11053
  0
ARC
  8
0
  6
CONTINUOUS
 62
     7
 10
458.05735
 20
-783.11053
 40
2.4000001
 50
306.00832
 51
53.991676
  0
ARC
  8
0
  6
CONTINUOUS
 62
     7
 10
458.05735
 20
-783.11053
 40
3.5999999
 50
306.00832
 51
53.991676
  0
ARC
  8
0
  6
CONTINUOUS
 62
     7
 10
453.25735
 20
-783.11053
 40
2.4000001
 50
126.00833
 51
233.99168
  0
ARC
  8
0
  6
CONTINUOUS
 62
     7
 10
453.25735
 20
-783.11053
 40
3.5999999
 50
126.00833
 51
233.99168
  0
ARC
  8
0
  6
CONTINUOUS
 62
     7
 10
455.65735
 20
-779.80823
 40
7.6823077
 50
53.991676
 51
85.520553
  0
ARC
  8
0
  6
CONTINUOUS
 62
     7
 10
455.65735
 20
-779.80823
 40
6.4823079
 50
53.991676
 51
84.689121
  0
ARC
  8
0
  6
CONTINUOUS
 62
     7
 10
455.65735
 20
-786.41284
 40
6.4823079
 50
233.99167
 51
306.00832
  0
ARC
  8
0
  6
CONTINUOUS
 62
     7
 10
455.65735
 20
-786.41284
 40
7.6823077
 50
233.99167
 51
265.52055
  0
ARC
  8
0
  6
CONTINUOUS
 62
     7
 10
455.65735
 20
-788.66053
 40
0.75
 50
36.869897
 51
143.1301
  0
ARC
  8
0
  6
CONTINUOUS
 62
     7
 10
455.65735
 20
-783.56053
 40
0.75
 50
216.8699
 51
323.1301
  0
ARC
  8
0
  6
CONTINUOUS
 62
     7
 10
455.65735
 20
-777.56053
 40
0.75
 50
216.8699
 51
323.1301
  0
ARC
  8
0
  6
CONTINUOUS
 62
     7
 10
455.65735
 20
-779.80823
 40
6.4823079
 50
95.310878
 51
126.00833
  0
ARC
  8
0
  6
CONTINUOUS
 62
     7
 10
455.65735
 20
-779.80823
 40
7.6823077
 50
94.479452
 51
126.00833
  0
ARC
  8
0
  6
CONTINUOUS
 62
     7
 10
455.65735
 20
-786.41284
 40
7.6823077
 50
274.47945
 51
306.00832
  0
ENDSEC
  0
EOF
