  0
SECTION
  2
HEADER
  9
$EXTMAX
 10
297
 20
210
  9
$EXTMIN
 10
-297
 20
-210
  0
ENDSEC
  0
SECTION
  2
TABLES
  0
TABLE
  2
LTYPE
 70
    22
  0
LTYPE
  2
CONTINUOUS
 70
    64
  3
Solid line
 72
    65
 73
     0
 40
0.000000
  0
LTYPE
  2
DASHED
 70
    64
  3
__ __ __ __ __ __ __ __ __ __ __ __ __ __ __
 72
    65
 73
     2
 40
3.500000
 49
2.000000
 49
-1.500000
  0
LTYPE
  2
CENTER
 70
    64
  3
____ _ ____ _ ____ _ ____ _ ____ _ ____ _ ____
 72
    65
 73
     4
 40
17.500000
 49
13.000000
 49
-1.500000
 49
1.500000
 49
-1.500000
  0
LTYPE
  2
PHANTOM
 70
    64
  3
_____ _ _ _____ _ _ _____ _ _ _____ _ _ ____  
 72
    65
 73
     6
 40
15.500000
 49
8.000000
 49
-1.500000
 49
1.500000
 49
-1.500000
 49
1.500000
 49
-1.500000
  0
LTYPE
  2
DOT
 70
    64
  3
. . . . . . . . . . . . . . . . . . . . . . . .
 72
    65
 73
     2
 40
0.25
 49
0.0
 49
-0.25
  0
ENDTAB
  0
TABLE
  2
LAYER
 70
     1
  0
LAYER
  2
0
 70
     0
 62
     7
  6
CONTINUOUS
  0
ENDTAB
  0
TABLE
  2
STYLE
 70
     1
  0
STYLE
  2
STANDARD
 70
     0
 40
0.000000
 41
1.000000
 50
0.000000
 71
     0
 42
0.200000
  3
txt
  4
BIGFONT
  0
ENDTAB
  0
TABLE
  2
VIEW
 70
     0
  0
ENDTAB
  0
ENDSEC
  0
SECTION
  2
BLOCKS
  0
ENDSEC
  0
SECTION
  2
ENTITIES
  0
POINT
  8
0
  6
CONTINUOUS
 62
     7
 10
-179.02879
 20
133.8317
  0
POINT
  8
0
  6
CONTINUOUS
 62
     7
 10
-8.3787937
 20
133.8317
  0
POINT
  8
0
  6
CONTINUOUS
 62
     7
 10
181.3212
 20
133.8317
  0
POINT
  8
0
  6
CONTINUOUS
 62
     7
 10
-131.28635
 20
-133.68909
  0
POINT
  8
0
  6
CONTINUOUS
 62
     7
 10
124.15614
 20
-0.92350757
  0
POINT
  8
0
  6
CONTINUOUS
 62
     7
 10
-109.0126
 20
-1.5884563
  0
POINT
  8
0
  6
CONTINUOUS
 62
     7
 10
125.14508
 20
-132.1982
  0
POINT
  8
0
  6
CONTINUOUS
 62
     7
 10
-6.4885449
 20
-331.97617
  0
POINT
  8
0
  6
CONTINUOUS
 62
     7
 10
6.4988379
 20
-528.47583
  0
POINT
  8
0
  6
CONTINUOUS
 62
     7
 10
-229.02879
 20
133.8317
  0
POINT
  8
0
  6
CONTINUOUS
 62
     7
 10
-58.378792
 20
133.8317
  0
POINT
  8
0
  6
CONTINUOUS
 62
     7
 10
132.3212
 20
133.8317
  0
POINT
  8
0
  6
CONTINUOUS
 62
     7
 10
54.156143
 20
-0.92350757
  0
POINT
  8
0
  6
CONTINUOUS
 62
     7
 10
-169.0126
 20
-1.5884563
  0
POINT
  8
0
  6
CONTINUOUS
 62
     7
 10
-211.28635
 20
-133.68909
  0
POINT
  8
0
  6
CONTINUOUS
 62
     7
 10
45.145084
 20
-132.1982
  0
POINT
  8
0
  6
CONTINUOUS
 62
     7
 10
-93.50116
 20
-528.47583
  0
POINT
  8
0
  6
CONTINUOUS
 62
     7
 10
-96.488556
 20
-331.97617
  0
POINT
  8
0
  6
CONTINUOUS
 62
     7
 10
398.72501
 20
142.95
  0
POINT
  8
0
  6
CONTINUOUS
 62
     7
 10
569.375
 20
142.95
  0
POINT
  8
0
  6
CONTINUOUS
 62
     7
 10
750.07501
 20
142.95
  0
POINT
  8
0
  6
CONTINUOUS
 62
     7
 10
525.94879
 20
-129.25784
  0
POINT
  8
0
  6
CONTINUOUS
 62
     7
 10
711.60284
 20
13.189576
  0
POINT
  8
0
  6
CONTINUOUS
 62
     7
 10
484.75122
 20
14.915637
  0
POINT
  8
0
  6
CONTINUOUS
 62
     7
 10
791.42139
 20
-126.61993
  0
POINT
  8
0
  6
CONTINUOUS
 62
     7
 10
632.99988
 20
-337.75058
  0
POINT
  8
0
  6
CONTINUOUS
 62
     7
 10
632.67786
 20
-519.13745
  0
POINT
  8
0
  6
CONTINUOUS
 62
     7
 10
356.72501
 20
142.95
  0
POINT
  8
0
  6
CONTINUOUS
 62
     7
 10
529.375
 20
142.95
  0
POINT
  8
0
  6
CONTINUOUS
 62
     7
 10
700.07501
 20
142.95
  0
POINT
  8
0
  6
CONTINUOUS
 62
     7
 10
424.75122
 20
14.915637
  0
POINT
  8
0
  6
CONTINUOUS
 62
     7
 10
651.60284
 20
13.189576
  0
POINT
  8
0
  6
CONTINUOUS
 62
     7
 10
465.94879
 20
-129.25784
  0
POINT
  8
0
  6
CONTINUOUS
 62
     7
 10
709.42139
 20
-126.61993
  0
POINT
  8
0
  6
CONTINUOUS
 62
     7
 10
533.99988
 20
-337.75058
  0
POINT
  8
0
  6
CONTINUOUS
 62
     7
 10
534.17786
 20
-519.13745
  0
POINT
  8
0
  6
CONTINUOUS
 62
     7
 10
398.72501
 20
142.95
  0
POINT
  8
0
  6
CONTINUOUS
 62
     7
 10
791.42139
 20
-126.61993
  0
POINT
  8
0
  6
CONTINUOUS
 62
     7
 10
632.67786
 20
-519.13745
  0
LINE
  8
0
  6
CONTINUOUS
 62
     7
 10
-162.02879
 20
149.8317
 11
-162.02879
 21
117.8317
  0
LINE
  8
0
  6
CENTER
 62
     7
 10
-185.47881
 20
133.8317
 11
-110.6663
 21
133.8317
  0
LINE
  8
0
  6
CONTINUOUS
 62
     7
 10
-163.52879
 20
149.8317
 11
-162.02879
 21
149.8317
  0
LINE
  8
0
  6
CONTINUOUS
 62
     7
 10
-124.02879
 20
147.3317
 11
-124.02879
 21
120.3317
  0
LINE
  8
0
  6
CONTINUOUS
 62
     7
 10
-157.69867
 20
147.3317
 11
-124.02879
 21
147.3317
  0
LINE
  8
0
  6
CONTINUOUS
 62
     7
 10
-163.52879
 20
117.8317
 11
-162.02879
 21
117.8317
  0
LINE
  8
0
  6
CONTINUOUS
 62
     7
 10
-157.69867
 20
120.3317
 11
-124.02879
 21
120.3317
  0
LINE
  8
0
  6
CONTINUOUS
 62
     7
 10
-151.52879
 20
148.3317
 11
-144.52879
 21
148.3317
  0
LINE
  8
0
  6
CONTINUOUS
 62
     7
 10
-151.52879
 20
148.3317
 11
-151.52879
 21
147.3317
  0
LINE
  8
0
  6
CONTINUOUS
 62
     7
 10
-144.52879
 20
148.3317
 11
-144.52879
 21
147.3317
  0
LINE
  8
0
  6
CONTINUOUS
 62
     7
 10
-144.52879
 20
119.3317
 11
-144.52879
 21
120.3317
  0
LINE
  8
0
  6
CONTINUOUS
 62
     7
 10
-151.52879
 20
119.3317
 11
-144.52879
 21
119.3317
  0
LINE
  8
0
  6
CONTINUOUS
 62
     7
 10
-151.52879
 20
119.3317
 11
-151.52879
 21
120.3317
  0
LINE
  8
0
  6
CONTINUOUS
 62
     7
 10
-179.02879
 20
117.3317
 11
-179.02879
 21
150.3317
  0
LINE
  8
0
  6
CONTINUOUS
 62
     7
 10
-163.52879
 20
117.3317
 11
-163.52879
 21
150.3317
  0
LINE
  8
0
  6
CONTINUOUS
 62
     7
 10
-165.52879
 20
152.3317
 11
-177.02879
 21
152.3317
  0
LINE
  8
0
  6
CONTINUOUS
 62
     7
 10
-165.52879
 20
115.3317
 11
-177.02879
 21
115.3317
  0
LINE
  8
0
  6
CONTINUOUS
 62
     7
 10
-163.52879
 20
126.17803
 11
-179.02879
 21
126.17803
  0
LINE
  8
0
  6
CONTINUOUS
 62
     7
 10
-163.52879
 20
141.48537
 11
-179.02879
 21
141.48537
  0
LINE
  8
0
  6
CONTINUOUS
 62
     7
 10
-165.52879
 20
115.33171
 11
-163.52881
 21
117.33171
  0
LINE
  8
0
  6
CONTINUOUS
 62
     7
 10
-177.02879
 20
115.3317
 11
-179.02879
 21
117.3317
  0
LINE
  8
0
  6
CONTINUOUS
 62
     7
 10
-163.52881
 20
150.33173
 11
-165.52881
 21
152.33173
  0
LINE
  8
0
  6
CONTINUOUS
 62
     7
 10
-177.02879
 20
152.33171
 11
-179.02879
 21
150.33171
  0
LINE
  8
0
  6
CENTER
 62
     7
 10
-14.816294
 20
133.8317
 11
57.180984
 21
133.8317
  0
LINE
  8
0
  6
CONTINUOUS
 62
     7
 10
12.95133
 20
149.3317
 11
28.121206
 21
149.3317
  0
LINE
  8
0
  6
CONTINUOUS
 62
     7
 10
35.867172
 20
147.3317
 11
48.621208
 21
147.3317
  0
LINE
  8
0
  6
CONTINUOUS
 62
     7
 10
48.621208
 20
147.3317
 11
48.621208
 21
120.3317
  0
LINE
  8
0
  6
CONTINUOUS
 62
     7
 10
12.95133
 20
118.3317
 11
28.121206
 21
118.3317
  0
LINE
  8
0
  6
CONTINUOUS
 62
     7
 10
35.867172
 20
120.3317
 11
48.621208
 21
120.3317
  0
LINE
  8
0
  6
CONTINUOUS
 62
     7
 10
17.621206
 20
150.3317
 11
17.621206
 21
149.3317
  0
LINE
  8
0
  6
CONTINUOUS
 62
     7
 10
27.621206
 20
150.3317
 11
27.621206
 21
149.3317
  0
LINE
  8
0
  6
CONTINUOUS
 62
     7
 10
17.621206
 20
150.3317
 11
27.621206
 21
150.3317
  0
LINE
  8
0
  6
CONTINUOUS
 62
     7
 10
17.621206
 20
117.3317
 11
27.621206
 21
117.3317
  0
LINE
  8
0
  6
CONTINUOUS
 62
     7
 10
17.621206
 20
117.3317
 11
17.621206
 21
118.3317
  0
LINE
  8
0
  6
CONTINUOUS
 62
     7
 10
27.621206
 20
117.3317
 11
27.621206
 21
118.3317
  0
LINE
  8
0
  6
CONTINUOUS
 62
     7
 10
-8.3787937
 20
114.8317
 11
-8.3787937
 21
152.8317
  0
LINE
  8
0
  6
CONTINUOUS
 62
     7
 10
7.1212063
 20
112.8317
 11
-6.3787937
 21
112.8317
  0
LINE
  8
0
  6
CONTINUOUS
 62
     7
 10
7.1212063
 20
154.8317
 11
-6.3787937
 21
154.8317
  0
LINE
  8
0
  6
CONTINUOUS
 62
     7
 10
9.1212063
 20
114.8317
 11
9.1212063
 21
152.8317
  0
LINE
  8
0
  6
CONTINUOUS
 62
     7
 10
8.1212063
 20
125.13322
 11
-7.3787937
 21
125.13322
  0
LINE
  8
0
  6
CONTINUOUS
 62
     7
 10
8.1212063
 20
142.53018
 11
-7.3787937
 21
142.53018
  0
LINE
  8
0
  6
CONTINUOUS
 62
     7
 10
7.1212025
 20
112.83171
 11
9.1212044
 21
114.83171
  0
LINE
  8
0
  6
CONTINUOUS
 62
     7
 10
-6.3787813
 20
112.8317
 11
-8.3787832
 21
114.8317
  0
LINE
  8
0
  6
CONTINUOUS
 62
     7
 10
-8.3787813
 20
152.8317
 11
-6.3787847
 21
154.8317
  0
LINE
  8
0
  6
CONTINUOUS
 62
     7
 10
9.1212025
 20
152.83171
 11
7.1212115
 21
154.8317
  0
LINE
  8
0
  6
CENTER
 62
     7
 10
177.34621
 20
133.8317
 11
251.8862
 21
133.8317
  0
LINE
  8
0
  6
CONTINUOUS
 62
     7
 10
242.3212
 20
150.3317
 11
242.3212
 21
117.3317
  0
LINE
  8
0
  6
CONTINUOUS
 62
     7
 10
226.59702
 20
150.3317
 11
242.3212
 21
150.3317
  0
LINE
  8
0
  6
CONTINUOUS
 62
     7
 10
203.78635
 20
152.0817
 11
219.3212
 21
152.0817
  0
LINE
  8
0
  6
CONTINUOUS
 62
     7
 10
203.78635
 20
115.5817
 11
219.3212
 21
115.5817
  0
LINE
  8
0
  6
CONTINUOUS
 62
     7
 10
226.59702
 20
117.3317
 11
242.3212
 21
117.3317
  0
LINE
  8
0
  6
CONTINUOUS
 62
     7
 10
218.3212
 20
153.0817
 11
218.3212
 21
152.0817
  0
LINE
  8
0
  6
CONTINUOUS
 62
     7
 10
208.3212
 20
153.0817
 11
208.3212
 21
152.0817
  0
LINE
  8
0
  6
CONTINUOUS
 62
     7
 10
208.3212
 20
153.0817
 11
218.3212
 21
153.0817
  0
LINE
  8
0
  6
CONTINUOUS
 62
     7
 10
208.3212
 20
114.5817
 11
218.3212
 21
114.5817
  0
LINE
  8
0
  6
CONTINUOUS
 62
     7
 10
218.3212
 20
114.5817
 11
218.3212
 21
115.5817
  0
LINE
  8
0
  6
CONTINUOUS
 62
     7
 10
208.3212
 20
114.5817
 11
208.3212
 21
115.5817
  0
LINE
  8
0
  6
CONTINUOUS
 62
     7
 10
181.3212
 20
111.3317
 11
181.3212
 21
156.3317
  0
LINE
  8
0
  6
CONTINUOUS
 62
     7
 10
199.8212
 20
111.3317
 11
199.8212
 21
156.3317
  0
LINE
  8
0
  6
CONTINUOUS
 62
     7
 10
197.8212
 20
109.3317
 11
183.3212
 21
109.3317
  0
LINE
  8
0
  6
CONTINUOUS
 62
     7
 10
197.8212
 20
158.3317
 11
183.3212
 21
158.3317
  0
LINE
  8
0
  6
CONTINUOUS
 62
     7
 10
199.82121
 20
111.33171
 11
197.82121
 21
109.3317
  0
LINE
  8
0
  6
CONTINUOUS
 62
     7
 10
197.82121
 20
158.33171
 11
199.82121
 21
156.33171
  0
LINE
  8
0
  6
CONTINUOUS
 62
     7
 10
183.32121
 20
109.3317
 11
181.32121
 21
111.3317
  0
LINE
  8
0
  6
CONTINUOUS
 62
     7
 10
181.32121
 20
156.33171
 11
183.32121
 21
158.33171
  0
LINE
  8
0
  6
CONTINUOUS
 62
     7
 10
198.8212
 20
123.69059
 11
182.3212
 21
123.69059
  0
LINE
  8
0
  6
CONTINUOUS
 62
     7
 10
198.8212
 20
143.97281
 11
182.3212
 21
143.97281
  0
LINE
  8
0
  6
CENTER
 62
     7
 10
-115.9751
 20
-1.5884563
 11
-35.562588
 21
-1.5884563
  0
LINE
  8
0
  6
CONTINUOUS
 62
     7
 10
-61.884518
 20
18.911543
 11
-43.0126
 21
18.911543
  0
LINE
  8
0
  6
CONTINUOUS
 62
     7
 10
-87.047455
 20
20.661543
 11
-69.512604
 21
20.661543
  0
LINE
  8
0
  6
CONTINUOUS
 62
     7
 10
-43.0126
 20
18.911543
 11
-43.0126
 21
-22.088457
  0
LINE
  8
0
  6
CONTINUOUS
 62
     7
 10
-82.512604
 20
21.661543
 11
-82.512604
 21
20.661543
  0
LINE
  8
0
  6
CONTINUOUS
 62
     7
 10
-72.512604
 20
21.661543
 11
-72.512604
 21
20.661543
  0
LINE
  8
0
  6
CONTINUOUS
 62
     7
 10
-82.512604
 20
21.661543
 11
-72.512604
 21
21.661543
  0
LINE
  8
0
  6
CONTINUOUS
 62
     7
 10
-87.047455
 20
-23.838457
 11
-69.512604
 21
-23.838457
  0
LINE
  8
0
  6
CONTINUOUS
 62
     7
 10
-82.512604
 20
-24.838457
 11
-82.512604
 21
-23.838457
  0
LINE
  8
0
  6
CONTINUOUS
 62
     7
 10
-72.512604
 20
-24.838457
 11
-72.512604
 21
-23.838457
  0
LINE
  8
0
  6
CONTINUOUS
 62
     7
 10
-82.512604
 20
-24.838457
 11
-72.512604
 21
-24.838457
  0
LINE
  8
0
  6
CONTINUOUS
 62
     7
 10
-61.884518
 20
-22.088457
 11
-43.0126
 21
-22.088457
  0
LINE
  8
0
  6
CONTINUOUS
 62
     7
 10
-109.0126
 20
18.911543
 11
-109.0126
 21
-22.088457
  0
LINE
  8
0
  6
CONTINUOUS
 62
     7
 10
-109.0126
 20
-28.588457
 11
-109.0126
 21
25.411543
  0
LINE
  8
0
  6
CONTINUOUS
 62
     7
 10
-90.512604
 20
-28.588457
 11
-90.512604
 21
25.411543
  0
LINE
  8
0
  6
CONTINUOUS
 62
     7
 10
-92.512604
 20
27.411543
 11
-107.0126
 21
27.411543
  0
LINE
  8
0
  6
CONTINUOUS
 62
     7
 10
-92.512604
 20
-30.588457
 11
-107.0126
 21
-30.588457
  0
LINE
  8
0
  6
CONTINUOUS
 62
     7
 10
-90.512596
 20
-28.588453
 11
-92.512604
 21
-30.588455
  0
LINE
  8
0
  6
CONTINUOUS
 62
     7
 10
-107.0126
 20
-30.588455
 11
-109.0126
 21
-28.588463
  0
LINE
  8
0
  6
CONTINUOUS
 62
     7
 10
-90.512596
 20
25.411539
 11
-92.512596
 21
27.411541
  0
LINE
  8
0
  6
CONTINUOUS
 62
     7
 10
-107.0126
 20
27.411539
 11
-109.01259
 21
25.411549
  0
LINE
  8
0
  6
CONTINUOUS
 62
     7
 10
-91.512604
 20
-13.600648
 11
-108.0126
 21
-13.600648
  0
LINE
  8
0
  6
CONTINUOUS
 62
     7
 10
-91.512604
 20
10.423736
 11
-108.0126
 21
10.423736
  0
LINE
  8
0
  6
CENTER
 62
     7
 10
116.35614
 20
-0.92350757
 11
204.55614
 21
-0.92350757
  0
LINE
  8
0
  6
CONTINUOUS
 62
     7
 10
194.15614
 20
24.076492
 11
194.15614
 21
-25.923508
  0
LINE
  8
0
  6
CONTINUOUS
 62
     7
 10
146.48627
 20
25.576492
 11
165.15614
 21
25.576492
  0
LINE
  8
0
  6
CONTINUOUS
 62
     7
 10
172.24486
 20
24.076492
 11
194.15614
 21
24.076492
  0
LINE
  8
0
  6
CONTINUOUS
 62
     7
 10
151.15614
 20
27.076492
 11
151.15614
 21
25.576492
  0
LINE
  8
0
  6
CONTINUOUS
 62
     7
 10
161.15614
 20
27.076492
 11
161.15614
 21
25.576492
  0
LINE
  8
0
  6
CONTINUOUS
 62
     7
 10
151.15614
 20
27.076492
 11
161.15614
 21
27.076492
  0
LINE
  8
0
  6
CONTINUOUS
 62
     7
 10
146.48627
 20
-27.423508
 11
165.15614
 21
-27.423508
  0
LINE
  8
0
  6
CONTINUOUS
 62
     7
 10
151.15614
 20
-28.923508
 11
151.15614
 21
-27.423508
  0
LINE
  8
0
  6
CONTINUOUS
 62
     7
 10
161.15614
 20
-28.923508
 11
161.15614
 21
-27.423508
  0
LINE
  8
0
  6
CONTINUOUS
 62
     7
 10
151.15614
 20
-28.923508
 11
161.15614
 21
-28.923508
  0
LINE
  8
0
  6
CONTINUOUS
 62
     7
 10
172.24486
 20
-25.923508
 11
194.15614
 21
-25.923508
  0
LINE
  8
0
  6
CONTINUOUS
 62
     7
 10
124.15614
 20
-31.923508
 11
124.15614
 21
30.076492
  0
LINE
  8
0
  6
CONTINUOUS
 62
     7
 10
143.15614
 20
-31.923508
 11
143.15614
 21
30.076492
  0
LINE
  8
0
  6
CONTINUOUS
 62
     7
 10
141.15614
 20
-33.923508
 11
126.15614
 21
-33.923508
  0
LINE
  8
0
  6
CONTINUOUS
 62
     7
 10
141.15614
 20
32.076492
 11
126.15614
 21
32.076492
  0
LINE
  8
0
  6
CONTINUOUS
 62
     7
 10
143.15614
 20
-31.9235
 11
141.15614
 21
-33.9235
  0
LINE
  8
0
  6
CONTINUOUS
 62
     7
 10
126.15614
 20
-33.9235
 11
124.15614
 21
-31.923498
  0
LINE
  8
0
  6
CONTINUOUS
 62
     7
 10
124.15614
 20
30.076504
 11
126.15614
 21
32.076508
  0
LINE
  8
0
  6
CONTINUOUS
 62
     7
 10
143.15614
 20
30.076494
 11
141.15614
 21
32.076496
  0
LINE
  8
0
  6
CONTINUOUS
 62
     7
 10
142.15614
 20
-14.592545
 11
125.15614
 21
-14.592545
  0
LINE
  8
0
  6
CONTINUOUS
 62
     7
 10
142.15614
 20
12.745544
 11
125.15614
 21
12.745544
  0
LINE
  8
0
  6
CENTER
 62
     7
 10
-139.44885
 20
-133.68909
 11
-48.886341
 21
-133.68909
  0
LINE
  8
0
  6
CONTINUOUS
 62
     7
 10
-106.95621
 20
-103.68909
 11
-91.286331
 21
-103.68909
  0
LINE
  8
0
  6
CONTINUOUS
 62
     7
 10
-82.801056
 20
-105.68909
 11
-58.786335
 21
-105.68909
  0
LINE
  8
0
  6
CONTINUOUS
 62
     7
 10
-58.786335
 20
-105.68909
 11
-58.786335
 21
-161.68909
  0
LINE
  8
0
  6
CONTINUOUS
 62
     7
 10
-92.286331
 20
-102.18909
 11
-92.286331
 21
-103.68909
  0
LINE
  8
0
  6
CONTINUOUS
 62
     7
 10
-102.28634
 20
-102.18909
 11
-102.28634
 21
-103.68909
  0
LINE
  8
0
  6
CONTINUOUS
 62
     7
 10
-102.28634
 20
-102.18909
 11
-92.286331
 21
-102.18909
  0
LINE
  8
0
  6
CONTINUOUS
 62
     7
 10
-106.95621
 20
-163.68909
 11
-91.286331
 21
-163.68909
  0
LINE
  8
0
  6
CONTINUOUS
 62
     7
 10
-82.801056
 20
-161.68909
 11
-58.786335
 21
-161.68909
  0
LINE
  8
0
  6
CONTINUOUS
 62
     7
 10
-92.286331
 20
-165.18909
 11
-92.286331
 21
-163.68909
  0
LINE
  8
0
  6
CONTINUOUS
 62
     7
 10
-102.28634
 20
-165.18909
 11
-102.28634
 21
-163.68909
  0
LINE
  8
0
  6
CONTINUOUS
 62
     7
 10
-102.28634
 20
-165.18909
 11
-92.286331
 21
-165.18909
  0
LINE
  8
0
  6
CONTINUOUS
 62
     7
 10
-131.28635
 20
-168.1891
 11
-131.28635
 21
-99.189087
  0
LINE
  8
0
  6
CONTINUOUS
 62
     7
 10
-110.28634
 20
-133.68909
 11
-130.28635
 21
-133.68909
  0
LINE
  8
0
  6
CONTINUOUS
 62
     7
 10
-109.28634
 20
-168.1891
 11
-109.28634
 21
-99.189087
  0
LINE
  8
0
  6
CONTINUOUS
 62
     7
 10
-111.28634
 20
-170.1891
 11
-129.28635
 21
-170.1891
  0
LINE
  8
0
  6
CONTINUOUS
 62
     7
 10
-111.28634
 20
-97.189087
 11
-129.28635
 21
-97.189087
  0
LINE
  8
0
  6
CONTINUOUS
 62
     7
 10
-110.28634
 20
-156.24733
 11
-130.28635
 21
-156.24733
  0
LINE
  8
0
  6
CONTINUOUS
 62
     7
 10
-110.28634
 20
-111.13084
 11
-130.28635
 21
-111.13084
  0
LINE
  8
0
  6
CONTINUOUS
 62
     7
 10
-109.28633
 20
-168.1891
 11
-111.28633
 21
-170.1891
  0
LINE
  8
0
  6
CONTINUOUS
 62
     7
 10
-129.28633
 20
-170.1891
 11
-131.28633
 21
-168.1891
  0
LINE
  8
0
  6
CONTINUOUS
 62
     7
 10
-109.28635
 20
-99.189102
 11
-111.28635
 21
-97.189095
  0
LINE
  8
0
  6
CONTINUOUS
 62
     7
 10
-131.28635
 20
-99.189079
 11
-129.28635
 21
-97.189087
  0
LINE
  8
0
  6
CENTER
 62
     7
 10
114.12007
 20
-132.1982
 11
222.27008
 21
-132.1982
  0
LINE
  8
0
  6
CONTINUOUS
 62
     7
 10
189.24742
 20
-97.698204
 11
205.64508
 21
-97.698204
  0
LINE
  8
0
  6
CONTINUOUS
 62
     7
 10
205.64508
 20
-97.698204
 11
205.64508
 21
-166.6982
  0
LINE
  8
0
  6
CONTINUOUS
 62
     7
 10
149.97522
 20
-95.698204
 11
180.6451
 21
-95.698204
  0
LINE
  8
0
  6
CONTINUOUS
 62
     7
 10
149.97522
 20
-168.6982
 11
180.6451
 21
-168.6982
  0
LINE
  8
0
  6
CONTINUOUS
 62
     7
 10
189.24742
 20
-166.6982
 11
205.64508
 21
-166.6982
  0
LINE
  8
0
  6
CONTINUOUS
 62
     7
 10
164.6451
 20
-94.198204
 11
164.6451
 21
-95.698204
  0
LINE
  8
0
  6
CONTINUOUS
 62
     7
 10
154.6451
 20
-94.198204
 11
154.6451
 21
-95.698204
  0
LINE
  8
0
  6
CONTINUOUS
 62
     7
 10
154.6451
 20
-94.198204
 11
164.6451
 21
-94.198204
  0
LINE
  8
0
  6
CONTINUOUS
 62
     7
 10
154.6451
 20
-170.1982
 11
164.6451
 21
-170.1982
  0
LINE
  8
0
  6
CONTINUOUS
 62
     7
 10
154.6451
 20
-170.1982
 11
154.6451
 21
-168.6982
  0
LINE
  8
0
  6
CONTINUOUS
 62
     7
 10
164.6451
 20
-170.1982
 11
164.6451
 21
-168.6982
  0
LINE
  8
0
  6
CONTINUOUS
 62
     7
 10
125.14508
 20
-173.6982
 11
125.14508
 21
-90.698204
  0
LINE
  8
0
  6
CONTINUOUS
 62
     7
 10
147.6451
 20
-132.1982
 11
126.14508
 21
-132.1982
  0
LINE
  8
0
  6
CONTINUOUS
 62
     7
 10
148.6451
 20
-173.6982
 11
148.6451
 21
-90.698204
  0
LINE
  8
0
  6
CONTINUOUS
 62
     7
 10
146.6451
 20
-175.6982
 11
127.14508
 21
-175.6982
  0
LINE
  8
0
  6
CONTINUOUS
 62
     7
 10
146.6451
 20
-88.698204
 11
127.14508
 21
-88.698204
  0
LINE
  8
0
  6
CONTINUOUS
 62
     7
 10
148.64508
 20
-173.69818
 11
146.64508
 21
-175.69818
  0
LINE
  8
0
  6
CONTINUOUS
 62
     7
 10
127.14509
 20
-175.69818
 11
125.14509
 21
-173.69818
  0
LINE
  8
0
  6
CONTINUOUS
 62
     7
 10
148.64508
 20
-90.698181
 11
146.64508
 21
-88.698181
  0
LINE
  8
0
  6
CONTINUOUS
 62
     7
 10
127.14509
 20
-88.698181
 11
125.14508
 21
-90.698181
  0
LINE
  8
0
  6
CONTINUOUS
 62
     7
 10
126.14508
 20
-159.08266
 11
147.6451
 21
-159.08266
  0
LINE
  8
0
  6
CONTINUOUS
 62
     7
 10
126.14508
 20
-105.31371
 11
147.6451
 21
-105.31371
  0
LINE
  8
0
  6
CENTER
 62
     7
 10
-20.088558
 20
-331.97617
 11
96.268944
 21
-331.97617
  0
LINE
  8
0
  6
CONTINUOUS
 62
     7
 10
25.352688
 20
-286.72617
 11
44.511456
 21
-286.72617
  0
LINE
  8
0
  6
CONTINUOUS
 62
     7
 10
53.727612
 20
-288.97617
 11
67.638054
 21
-288.97617
  0
LINE
  8
0
  6
CONTINUOUS
 62
     7
 10
72.511452
 20
-286.47617
 11
84.511452
 21
-286.47617
  0
LINE
  8
0
  6
CONTINUOUS
 62
     7
 10
84.511452
 20
-286.47617
 11
84.511452
 21
-377.47617
  0
LINE
  8
0
  6
CONTINUOUS
 62
     7
 10
72.511452
 20
-286.47617
 11
72.511452
 21
-377.47617
  0
LINE
  8
0
  6
CONTINUOUS
 62
     7
 10
38.511456
 20
-284.72617
 11
38.511456
 21
-286.72617
  0
LINE
  8
0
  6
CONTINUOUS
 62
     7
 10
28.511456
 20
-284.72617
 11
28.511456
 21
-286.72617
  0
LINE
  8
0
  6
CONTINUOUS
 62
     7
 10
28.511456
 20
-284.72617
 11
38.511456
 21
-284.72617
  0
LINE
  8
0
  6
CONTINUOUS
 62
     7
 10
25.352688
 20
-377.22617
 11
44.511456
 21
-377.22617
  0
LINE
  8
0
  6
CONTINUOUS
 62
     7
 10
53.727612
 20
-374.97617
 11
67.638054
 21
-374.97617
  0
LINE
  8
0
  6
CONTINUOUS
 62
     7
 10
72.511452
 20
-377.47617
 11
84.511452
 21
-377.47617
  0
LINE
  8
0
  6
CONTINUOUS
 62
     7
 10
38.511456
 20
-379.22617
 11
38.511456
 21
-377.22617
  0
LINE
  8
0
  6
CONTINUOUS
 62
     7
 10
28.511456
 20
-379.22617
 11
28.511456
 21
-377.22617
  0
LINE
  8
0
  6
CONTINUOUS
 62
     7
 10
28.511456
 20
-379.22617
 11
38.511456
 21
-379.22617
  0
LINE
  8
0
  6
CONTINUOUS
 62
     7
 10
-6.4885449
 20
-383.97617
 11
-6.4885449
 21
-279.97617
  0
LINE
  8
0
  6
CONTINUOUS
 62
     7
 10
21.511456
 20
-331.97617
 11
-5.4885449
 21
-331.97617
  0
LINE
  8
0
  6
CONTINUOUS
 62
     7
 10
22.511456
 20
-383.97617
 11
22.511456
 21
-279.97617
  0
LINE
  8
0
  6
CONTINUOUS
 62
     7
 10
20.511456
 20
-385.97617
 11
-4.4885449
 21
-385.97617
  0
LINE
  8
0
  6
CONTINUOUS
 62
     7
 10
20.511456
 20
-277.97617
 11
-4.4885449
 21
-277.97617
  0
LINE
  8
0
  6
CONTINUOUS
 62
     7
 10
22.511423
 20
-383.97614
 11
20.511433
 21
-385.9761
  0
LINE
  8
0
  6
CONTINUOUS
 62
     7
 10
-4.4885736
 20
-385.9761
 11
-6.4885755
 21
-383.9761
  0
LINE
  8
0
  6
CONTINUOUS
 62
     7
 10
22.511452
 20
-279.97614
 11
20.51145
 21
-277.97614
  0
LINE
  8
0
  6
CONTINUOUS
 62
     7
 10
-4.4885454
 20
-277.97614
 11
-6.4885473
 21
-279.97614
  0
LINE
  8
0
  6
CONTINUOUS
 62
     7
 10
21.511456
 20
-364.11392
 11
-5.4885449
 21
-364.11392
  0
LINE
  8
0
  6
CONTINUOUS
 62
     7
 10
21.511456
 20
-299.83838
 11
-5.4885449
 21
-299.83838
  0
LINE
  8
0
  6
CENTER
 62
     7
 10
-4.7211328
 20
-528.47583
 11
120.29883
 21
-528.47583
  0
LINE
  8
0
  6
CONTINUOUS
 62
     7
 10
38.340084
 20
-476.22583
 11
57.498837
 21
-476.22583
  0
LINE
  8
0
  6
CONTINUOUS
 62
     7
 10
67.754944
 20
-478.97583
 11
82.41626
 21
-478.97583
  0
LINE
  8
0
  6
CONTINUOUS
 62
     7
 10
99.99884
 20
-475.97583
 11
99.99884
 21
-580.97583
  0
LINE
  8
0
  6
CONTINUOUS
 62
     7
 10
86.99884
 20
-475.97583
 11
99.99884
 21
-475.97583
  0
LINE
  8
0
  6
CONTINUOUS
 62
     7
 10
86.99884
 20
-475.97583
 11
86.99884
 21
-580.97583
  0
LINE
  8
0
  6
CONTINUOUS
 62
     7
 10
38.340084
 20
-580.72583
 11
57.498837
 21
-580.72583
  0
LINE
  8
0
  6
CONTINUOUS
 62
     7
 10
67.754944
 20
-577.97583
 11
82.41626
 21
-577.97583
  0
LINE
  8
0
  6
CONTINUOUS
 62
     7
 10
86.99884
 20
-580.97583
 11
99.99884
 21
-580.97583
  0
LINE
  8
0
  6
CONTINUOUS
 62
     7
 10
34.498837
 20
-528.47583
 11
7.4988379
 21
-528.47583
  0
LINE
  8
0
  6
CONTINUOUS
 62
     7
 10
6.4988379
 20
-587.97583
 11
6.4988379
 21
-468.97583
  0
LINE
  8
0
  6
CONTINUOUS
 62
     7
 10
35.498837
 20
-587.97583
 11
35.498837
 21
-468.97583
  0
LINE
  8
0
  6
CONTINUOUS
 62
     7
 10
33.498837
 20
-466.97583
 11
8.4988384
 21
-466.97583
  0
LINE
  8
0
  6
CONTINUOUS
 62
     7
 10
33.498837
 20
-589.97583
 11
8.4988384
 21
-589.97583
  0
LINE
  8
0
  6
CONTINUOUS
 62
     7
 10
33.498863
 20
-589.97583
 11
35.498867
 21
-587.97583
  0
LINE
  8
0
  6
CONTINUOUS
 62
     7
 10
35.49884
 20
-468.97583
 11
33.498859
 21
-466.97583
  0
LINE
  8
0
  6
CONTINUOUS
 62
     7
 10
8.4988747
 20
-466.97583
 11
6.4988723
 21
-468.97583
  0
LINE
  8
0
  6
CONTINUOUS
 62
     7
 10
8.4988518
 20
-589.97583
 11
6.4988494
 21
-587.97583
  0
LINE
  8
0
  6
CONTINUOUS
 62
     7
 10
34.498837
 20
-566.48492
 11
7.4988379
 21
-566.48492
  0
LINE
  8
0
  6
CONTINUOUS
 62
     7
 10
34.498837
 20
-490.46674
 11
7.4988379
 21
-490.46674
  0
LINE
  8
0
  6
CONTINUOUS
 62
     7
 10
-297
 20
-210
 11
-297
 21
210
  0
LINE
  8
0
  6
CONTINUOUS
 62
     7
 10
297
 20
-210
 11
-297
 21
-210
  0
LINE
  8
0
  6
CONTINUOUS
 62
     7
 10
-297
 20
210
 11
297
 21
210
  0
LINE
  8
0
  6
CONTINUOUS
 62
     7
 10
297
 20
210
 11
297
 21
-210
  0
LINE
  8
0
  6
CONTINUOUS
 62
     7
 10
-297
 20
-650
 11
-297
 21
-230
  0
LINE
  8
0
  6
CONTINUOUS
 62
     7
 10
297
 20
-650
 11
-297
 21
-650
  0
LINE
  8
0
  6
CONTINUOUS
 62
     7
 10
-297
 20
-230
 11
297
 21
-230
  0
LINE
  8
0
  6
CONTINUOUS
 62
     7
 10
297
 20
-230
 11
297
 21
-650
  0
LINE
  8
0
  6
CONTINUOUS
 62
     7
 10
-210.55119
 20
141.48535
 11
-221.37512
 21
152.30928
  0
LINE
  8
0
  6
CONTINUOUS
 62
     7
 10
-221.37514
 20
152.30928
 11
-236.68246
 21
152.30928
  0
LINE
  8
0
  6
CONTINUOUS
 62
     7
 10
-247.50639
 20
141.48537
 11
-236.68248
 21
152.3093
  0
LINE
  8
0
  6
CONTINUOUS
 62
     7
 10
-247.50639
 20
126.17802
 11
-247.50639
 21
141.48535
  0
LINE
  8
0
  6
CONTINUOUS
 62
     7
 10
-236.68245
 20
115.3541
 11
-247.50638
 21
126.17802
  0
LINE
  8
0
  6
CONTINUOUS
 62
     7
 10
-221.37512
 20
115.3541
 11
-236.68246
 21
115.3541
  0
LINE
  8
0
  6
CONTINUOUS
 62
     7
 10
-210.55119
 20
126.17802
 11
-221.37512
 21
115.3541
  0
LINE
  8
0
  6
CONTINUOUS
 62
     7
 10
-210.55121
 20
141.48535
 11
-210.55121
 21
126.17802
  0
LINE
  8
0
  6
CENTER
 62
     7
 10
-229.02879
 20
154.91759
 11
-229.02879
 21
112.74579
  0
LINE
  8
0
  6
CONTINUOUS
 62
     7
 10
-37.378803
 20
142.53018
 11
-49.680321
 21
154.8317
  0
LINE
  8
0
  6
CONTINUOUS
 62
     7
 10
-49.680321
 20
154.8317
 11
-67.077278
 21
154.8317
  0
LINE
  8
0
  6
CONTINUOUS
 62
     7
 10
-79.378807
 20
142.53017
 11
-67.077293
 21
154.8317
  0
LINE
  8
0
  6
CONTINUOUS
 62
     7
 10
-79.378792
 20
125.13322
 11
-79.378792
 21
142.53017
  0
LINE
  8
0
  6
CONTINUOUS
 62
     7
 10
-67.077293
 20
112.83169
 11
-79.378807
 21
125.13321
  0
LINE
  8
0
  6
CONTINUOUS
 62
     7
 10
-49.680321
 20
112.8317
 11
-67.077278
 21
112.8317
  0
LINE
  8
0
  6
CONTINUOUS
 62
     7
 10
-37.378807
 20
125.13321
 11
-49.680325
 21
112.83169
  0
LINE
  8
0
  6
CONTINUOUS
 62
     7
 10
-37.378792
 20
142.53017
 11
-37.378792
 21
125.13322
  0
LINE
  8
0
  6
CENTER
 62
     7
 10
-58.378792
 20
157.11758
 11
-58.378792
 21
110.5458
  0
LINE
  8
0
  6
CONTINUOUS
 62
     7
 10
156.80402
 20
143.97282
 11
142.46231
 21
158.31451
  0
LINE
  8
0
  6
CONTINUOUS
 62
     7
 10
142.46231
 20
158.3145
 11
122.18009
 21
158.3145
  0
LINE
  8
0
  6
CONTINUOUS
 62
     7
 10
107.83839
 20
143.97281
 11
122.18009
 21
158.3145
  0
LINE
  8
0
  6
CONTINUOUS
 62
     7
 10
107.83839
 20
123.69059
 11
107.83839
 21
143.97279
  0
LINE
  8
0
  6
CONTINUOUS
 62
     7
 10
122.18008
 20
109.34888
 11
107.83839
 21
123.69057
  0
LINE
  8
0
  6
CONTINUOUS
 62
     7
 10
142.46231
 20
109.34888
 11
122.18009
 21
109.34888
  0
LINE
  8
0
  6
CONTINUOUS
 62
     7
 10
156.804
 20
123.69059
 11
142.46231
 21
109.34889
  0
LINE
  8
0
  6
CONTINUOUS
 62
     7
 10
156.80402
 20
143.97279
 11
156.80402
 21
123.69059
  0
LINE
  8
0
  6
CENTER
 62
     7
 10
132.3212
 20
159.86758
 11
132.3212
 21
107.7958
  0
LINE
  8
0
  6
CONTINUOUS
 62
     7
 10
-140.01259
 20
10.423735
 11
-157.0004
 21
27.411551
  0
LINE
  8
0
  6
CONTINUOUS
 62
     7
 10
-157.00041
 20
27.411549
 11
-181.0248
 21
27.411549
  0
LINE
  8
0
  6
CONTINUOUS
 62
     7
 10
-198.0126
 20
10.423739
 11
-181.0248
 21
27.411551
  0
LINE
  8
0
  6
CONTINUOUS
 62
     7
 10
-198.0126
 20
-13.600656
 11
-198.0126
 21
10.423735
  0
LINE
  8
0
  6
CONTINUOUS
 62
     7
 10
-181.02478
 20
-30.588465
 11
-198.0126
 21
-13.600649
  0
LINE
  8
0
  6
CONTINUOUS
 62
     7
 10
-157.00041
 20
-30.588457
 11
-181.0248
 21
-30.588457
  0
LINE
  8
0
  6
CONTINUOUS
 62
     7
 10
-140.01259
 20
-13.600655
 11
-157.0004
 21
-30.588465
  0
LINE
  8
0
  6
CONTINUOUS
 62
     7
 10
-140.0126
 20
10.423735
 11
-140.0126
 21
-13.600656
  0
LINE
  8
0
  6
CENTER
 62
     7
 10
-169.0126
 20
33.520428
 11
-169.0126
 21
-35.716755
  0
LINE
  8
0
  6
CONTINUOUS
 62
     7
 10
87.156158
 20
12.745539
 11
67.825195
 21
32.076496
  0
LINE
  8
0
  6
CONTINUOUS
 62
     7
 10
67.825195
 20
32.076492
 11
40.487091
 21
32.076492
  0
LINE
  8
0
  6
CONTINUOUS
 62
     7
 10
21.156147
 20
12.745542
 11
40.487106
 21
32.0765
  0
LINE
  8
0
  6
CONTINUOUS
 62
     7
 10
21.156141
 20
-14.59256
 11
21.156141
 21
12.745537
  0
LINE
  8
0
  6
CONTINUOUS
 62
     7
 10
40.48711
 20
-33.923508
 11
21.156151
 21
-14.592549
  0
LINE
  8
0
  6
CONTINUOUS
 62
     7
 10
67.825195
 20
-33.923508
 11
40.487091
 21
-33.923508
  0
LINE
  8
0
  6
CONTINUOUS
 62
     7
 10
87.156151
 20
-14.592547
 11
67.825195
 21
-33.923508
  0
LINE
  8
0
  6
CONTINUOUS
 62
     7
 10
87.156143
 20
12.745537
 11
87.156143
 21
-14.59256
  0
LINE
  8
0
  6
CENTER
 62
     7
 10
54.156143
 20
32.962387
 11
54.156143
 21
-34.809402
  0
LINE
  8
0
  6
CENTER
 62
     7
 10
-211.28635
 20
-91.864075
 11
-211.28635
 21
-176.21408
  0
LINE
  8
0
  6
CONTINUOUS
 62
     7
 10
-172.90797
 20
-133.68907
 11
-180.23758
 21
-111.13086
  0
LINE
  8
0
  6
CONTINUOUS
 62
     7
 10
-180.23758
 20
-111.13084
 11
-199.42677
 21
-97.189079
  0
LINE
  8
0
  6
CONTINUOUS
 62
     7
 10
-223.14592
 20
-97.189087
 11
-199.42677
 21
-97.189087
  0
LINE
  8
0
  6
CONTINUOUS
 62
     7
 10
-242.33508
 20
-111.13084
 11
-223.1459
 21
-97.189087
  0
LINE
  8
0
  6
CONTINUOUS
 62
     7
 10
-249.66472
 20
-133.68907
 11
-242.3351
 21
-111.13083
  0
LINE
  8
0
  6
CONTINUOUS
 62
     7
 10
-242.3351
 20
-156.24731
 11
-249.6647
 21
-133.6891
  0
LINE
  8
0
  6
CONTINUOUS
 62
     7
 10
-223.1459
 20
-170.18907
 11
-242.3351
 21
-156.2473
  0
LINE
  8
0
  6
CONTINUOUS
 62
     7
 10
-199.42677
 20
-170.18909
 11
-223.1459
 21
-170.18909
  0
LINE
  8
0
  6
CONTINUOUS
 62
     7
 10
-180.23756
 20
-156.24733
 11
-199.42676
 21
-170.18909
  0
LINE
  8
0
  6
CONTINUOUS
 62
     7
 10
-172.90796
 20
-133.68907
 11
-180.23758
 21
-156.24733
  0
LINE
  8
0
  6
CONTINUOUS
 62
     7
 10
90.883705
 20
-132.19821
 11
82.148399
 21
-105.31369
  0
LINE
  8
0
  6
CONTINUOUS
 62
     7
 10
82.148407
 20
-105.31367
 11
59.27911
 21
-88.698158
  0
LINE
  8
0
  6
CONTINUOUS
 62
     7
 10
31.01108
 20
-88.698204
 11
59.279087
 21
-88.698204
  0
LINE
  8
0
  6
CONTINUOUS
 62
     7
 10
8.1417866
 20
-105.31371
 11
31.01111
 21
-88.698174
  0
LINE
  8
0
  6
CONTINUOUS
 62
     7
 10
-0.59351379
 20
-132.19818
 11
8.1417894
 21
-105.31369
  0
LINE
  8
0
  6
CONTINUOUS
 62
     7
 10
8.1417904
 20
-159.08269
 11
-0.59351796
 21
-132.19817
  0
LINE
  8
0
  6
CONTINUOUS
 62
     7
 10
31.011091
 20
-175.69815
 11
8.1417942
 21
-159.08264
  0
LINE
  8
0
  6
CONTINUOUS
 62
     7
 10
59.279102
 20
-175.6982
 11
31.01108
 21
-175.6982
  0
LINE
  8
0
  6
CONTINUOUS
 62
     7
 10
82.148399
 20
-159.08263
 11
59.279076
 21
-175.69815
  0
LINE
  8
0
  6
CONTINUOUS
 62
     7
 10
90.88372
 20
-132.19817
 11
82.148415
 21
-159.08267
  0
LINE
  8
0
  6
CENTER
 62
     7
 10
45.145084
 20
-78.998192
 11
45.145084
 21
-183.29817
  0
LINE
  8
0
  6
CENTER
 62
     7
 10
-96.488556
 20
-275.16135
 11
-96.488556
 21
-389.51276
  0
LINE
  8
0
  6
CENTER
 62
     7
 10
-93.50116
 20
-466.9758
 11
-93.50116
 21
-589.97583
  0
LINE
  8
0
  6
CONTINUOUS
 62
     7
 10
-28.836229
 20
-528.47583
 11
-41.186138
 21
-490.46671
  0
LINE
  8
0
  6
CONTINUOUS
 62
     7
 10
-41.186127
 20
-490.46674
 11
-73.518585
 21
-466.97583
  0
LINE
  8
0
  6
CONTINUOUS
 62
     7
 10
-113.48372
 20
-466.9758
 11
-73.5186
 21
-466.9758
  0
LINE
  8
0
  6
CONTINUOUS
 62
     7
 10
-145.81618
 20
-490.46671
 11
-113.48372
 21
-466.9758
  0
LINE
  8
0
  6
CONTINUOUS
 62
     7
 10
-158.16609
 20
-528.47583
 11
-145.81618
 21
-490.46671
  0
LINE
  8
0
  6
CONTINUOUS
 62
     7
 10
-145.81619
 20
-566.48492
 11
-158.16611
 21
-528.47583
  0
LINE
  8
0
  6
CONTINUOUS
 62
     7
 10
-113.48371
 20
-589.97583
 11
-145.81618
 21
-566.48492
  0
LINE
  8
0
  6
CONTINUOUS
 62
     7
 10
-73.5186
 20
-589.97583
 11
-113.48372
 21
-589.97583
  0
LINE
  8
0
  6
CONTINUOUS
 62
     7
 10
-41.1861
 20
-566.48492
 11
-73.518562
 21
-589.97583
  0
LINE
  8
0
  6
CONTINUOUS
 62
     7
 10
-28.836246
 20
-528.47577
 11
-41.186157
 21
-566.48492
  0
LINE
  8
0
  6
CENTER
 62
     7
 10
-153.81348
 20
-331.97617
 11
-36.491802
 21
-331.97617
  0
LINE
  8
0
  6
CENTER
 62
     7
 10
-160.66794
 20
-528.47583
 11
-24.651155
 21
-528.47583
  0
LINE
  8
0
  6
CENTER
 62
     7
 10
-5.1479316
 20
-132.1982
 11
96.774796
 21
-132.1982
  0
LINE
  8
0
  6
CENTER
 62
     7
 10
-254.12024
 20
-133.68909
 11
-168.43095
 21
-133.68909
  0
LINE
  8
0
  6
CENTER
 62
     7
 10
12.15196
 20
-0.92350757
 11
95.668594
 21
-0.92350757
  0
LINE
  8
0
  6
CENTER
 62
     7
 10
-204.5546
 20
-1.5884563
 11
-132.39357
 21
-1.5884563
  0
LINE
  8
0
  6
CENTER
 62
     7
 10
-255.15614
 20
133.8317
 11
-201.64458
 21
133.8317
  0
LINE
  8
0
  6
CENTER
 62
     7
 10
-85.846024
 20
133.8317
 11
-32.348839
 21
133.8317
  0
LINE
  8
0
  6
CENTER
 62
     7
 10
99.299019
 20
133.8317
 11
162.48099
 21
133.8317
  0
LINE
  8
0
  6
CONTINUOUS
 62
     7
 10
-39.709599
 20
-331.97614
 11
-50.55341
 21
-298.60233
  0
LINE
  8
0
  6
CONTINUOUS
 62
     7
 10
-50.553391
 20
-298.60229
 11
-78.942886
 21
-277.97614
  0
LINE
  8
0
  6
CONTINUOUS
 62
     7
 10
-114.03422
 20
-277.97617
 11
-78.942886
 21
-277.97617
  0
LINE
  8
0
  6
CONTINUOUS
 62
     7
 10
-142.42368
 20
-298.60233
 11
-114.03421
 21
-277.97617
  0
LINE
  8
0
  6
CONTINUOUS
 62
     7
 10
-153.26752
 20
-331.97617
 11
-142.42369
 21
-298.60233
  0
LINE
  8
0
  6
CONTINUOUS
 62
     7
 10
-142.42371
 20
-365.34998
 11
-153.26752
 21
-331.97614
  0
LINE
  8
0
  6
CONTINUOUS
 62
     7
 10
-114.03421
 20
-385.97617
 11
-142.42371
 21
-365.35001
  0
LINE
  8
0
  6
CONTINUOUS
 62
     7
 10
-78.942886
 20
-385.97617
 11
-114.03422
 21
-385.97617
  0
LINE
  8
0
  6
CONTINUOUS
 62
     7
 10
-50.553413
 20
-365.34998
 11
-78.942879
 21
-385.97614
  0
LINE
  8
0
  6
CONTINUOUS
 62
     7
 10
-39.709595
 20
-331.97617
 11
-50.553413
 21
-365.35001
  0
LINE
  8
0
  6
CONTINUOUS
 62
     7
 10
317
 20
-650
 11
317
 21
-230
  0
LINE
  8
0
  6
CONTINUOUS
 62
     7
 10
317
 20
-230
 11
911
 21
-230
  0
LINE
  8
0
  6
CONTINUOUS
 62
     7
 10
911
 20
-650
 11
317
 21
-650
  0
LINE
  8
0
  6
CONTINUOUS
 62
     7
 10
911
 20
-230
 11
911
 21
-650
  0
LINE
  8
0
  6
CONTINUOUS
 62
     7
 10
420.72501
 20
158.95
 11
420.72501
 21
126.95
  0
LINE
  8
0
  6
CENTER
 62
     7
 10
392.27499
 20
142.95
 11
467.08749
 21
142.95
  0
LINE
  8
0
  6
CONTINUOUS
 62
     7
 10
414.22501
 20
158.95
 11
420.72501
 21
158.95
  0
LINE
  8
0
  6
CONTINUOUS
 62
     7
 10
458.72501
 20
156.45
 11
458.72501
 21
129.45
  0
LINE
  8
0
  6
CONTINUOUS
 62
     7
 10
425.05511
 20
156.45
 11
458.72501
 21
156.45
  0
LINE
  8
0
  6
CONTINUOUS
 62
     7
 10
414.22501
 20
126.95
 11
420.72501
 21
126.95
  0
LINE
  8
0
  6
CONTINUOUS
 62
     7
 10
425.05511
 20
129.45
 11
458.72501
 21
129.45
  0
LINE
  8
0
  6
CONTINUOUS
 62
     7
 10
431.22501
 20
157.45
 11
438.22501
 21
157.45
  0
LINE
  8
0
  6
CONTINUOUS
 62
     7
 10
431.22501
 20
157.45
 11
431.22501
 21
156.45
  0
LINE
  8
0
  6
CONTINUOUS
 62
     7
 10
438.22501
 20
157.45
 11
438.22501
 21
156.45
  0
LINE
  8
0
  6
CONTINUOUS
 62
     7
 10
438.22501
 20
128.45
 11
438.22501
 21
129.45
  0
LINE
  8
0
  6
CONTINUOUS
 62
     7
 10
431.22501
 20
128.45
 11
438.22501
 21
128.45
  0
LINE
  8
0
  6
CONTINUOUS
 62
     7
 10
431.22501
 20
128.45
 11
431.22501
 21
129.45
  0
LINE
  8
0
  6
CONTINUOUS
 62
     7
 10
398.72501
 20
126.45
 11
398.72501
 21
159.45
  0
LINE
  8
0
  6
CONTINUOUS
 62
     7
 10
412.22501
 20
161.45
 11
400.72501
 21
161.45
  0
LINE
  8
0
  6
CONTINUOUS
 62
     7
 10
412.22501
 20
124.45
 11
400.72501
 21
124.45
  0
LINE
  8
0
  6
CONTINUOUS
 62
     7
 10
414.22501
 20
135.29633
 11
398.72501
 21
135.29633
  0
LINE
  8
0
  6
CONTINUOUS
 62
     7
 10
414.22501
 20
150.60367
 11
398.72501
 21
150.60367
  0
LINE
  8
0
  6
CONTINUOUS
 62
     7
 10
412.22504
 20
124.45
 11
414.22501
 21
126.44998
  0
LINE
  8
0
  6
CONTINUOUS
 62
     7
 10
400.72501
 20
124.45001
 11
398.72501
 21
126.45001
  0
LINE
  8
0
  6
CONTINUOUS
 62
     7
 10
414.22501
 20
159.45
 11
412.22501
 21
161.45
  0
LINE
  8
0
  6
CONTINUOUS
 62
     7
 10
400.72504
 20
161.45
 11
398.72501
 21
159.45
  0
LINE
  8
0
  6
CONTINUOUS
 62
     7
 10
396.72501
 20
132.39999
 11
396.72501
 21
153.5
  0
LINE
  8
0
  6
CONTINUOUS
 62
     7
 10
398.72501
 20
131.86411
 11
396.72501
 21
132.40001
  0
LINE
  8
0
  6
CONTINUOUS
 62
     7
 10
398.72501
 20
154.03589
 11
396.72501
 21
153.5
  0
LINE
  8
0
  6
CONTINUOUS
 62
     7
 10
591.375
 20
160.95
 11
591.375
 21
124.95
  0
LINE
  8
0
  6
CENTER
 62
     7
 10
562.9375
 20
142.95
 11
634.93475
 21
142.95
  0
LINE
  8
0
  6
CONTINUOUS
 62
     7
 10
595.70514
 20
158.45
 11
610.875
 21
158.45
  0
LINE
  8
0
  6
CONTINUOUS
 62
     7
 10
618.62097
 20
156.45
 11
631.375
 21
156.45
  0
LINE
  8
0
  6
CONTINUOUS
 62
     7
 10
631.375
 20
156.45
 11
631.375
 21
129.45
  0
LINE
  8
0
  6
CONTINUOUS
 62
     7
 10
595.70514
 20
127.45
 11
610.875
 21
127.45
  0
LINE
  8
0
  6
CONTINUOUS
 62
     7
 10
618.62097
 20
129.45
 11
631.375
 21
129.45
  0
LINE
  8
0
  6
CONTINUOUS
 62
     7
 10
600.375
 20
159.45
 11
600.375
 21
158.45
  0
LINE
  8
0
  6
CONTINUOUS
 62
     7
 10
610.375
 20
159.45
 11
610.375
 21
158.45
  0
LINE
  8
0
  6
CONTINUOUS
 62
     7
 10
600.375
 20
159.45
 11
610.375
 21
159.45
  0
LINE
  8
0
  6
CONTINUOUS
 62
     7
 10
600.375
 20
126.45
 11
610.375
 21
126.45
  0
LINE
  8
0
  6
CONTINUOUS
 62
     7
 10
600.375
 20
126.45
 11
600.375
 21
127.45
  0
LINE
  8
0
  6
CONTINUOUS
 62
     7
 10
610.375
 20
126.45
 11
610.375
 21
127.45
  0
LINE
  8
0
  6
CONTINUOUS
 62
     7
 10
569.375
 20
123.95
 11
569.375
 21
161.95
  0
LINE
  8
0
  6
CONTINUOUS
 62
     7
 10
584.875
 20
121.95
 11
571.375
 21
121.95
  0
LINE
  8
0
  6
CONTINUOUS
 62
     7
 10
584.875
 20
163.95
 11
571.375
 21
163.95
  0
LINE
  8
0
  6
CONTINUOUS
 62
     7
 10
586.875
 20
123.95
 11
586.875
 21
161.95
  0
LINE
  8
0
  6
CONTINUOUS
 62
     7
 10
585.875
 20
134.25151
 11
570.375
 21
134.25151
  0
LINE
  8
0
  6
CONTINUOUS
 62
     7
 10
585.875
 20
151.64848
 11
570.375
 21
151.64848
  0
LINE
  8
0
  6
CONTINUOUS
 62
     7
 10
584.875
 20
121.95
 11
586.875
 21
123.95001
  0
LINE
  8
0
  6
CONTINUOUS
 62
     7
 10
571.375
 20
121.95
 11
569.375
 21
123.95
  0
LINE
  8
0
  6
CONTINUOUS
 62
     7
 10
569.375
 20
161.95
 11
571.375
 21
163.95
  0
LINE
  8
0
  6
CONTINUOUS
 62
     7
 10
586.875
 20
161.94998
 11
584.875
 21
163.94998
  0
LINE
  8
0
  6
CONTINUOUS
 62
     7
 10
567.375
 20
130.2
 11
567.375
 21
155.7
  0
LINE
  8
0
  6
CONTINUOUS
 62
     7
 10
569.375
 20
129.66409
 11
567.375
 21
130.2
  0
LINE
  8
0
  6
CONTINUOUS
 62
     7
 10
569.375
 20
156.23589
 11
567.375
 21
155.69998
  0
LINE
  8
0
  6
CONTINUOUS
 62
     7
 10
586.875
 20
160.95
 11
591.375
 21
160.95
  0
LINE
  8
0
  6
CONTINUOUS
 62
     7
 10
586.875
 20
124.95
 11
591.375
 21
124.95
  0
LINE
  8
0
  6
CENTER
 62
     7
 10
745.09998
 20
142.95
 11
819.64001
 21
142.95
  0
LINE
  8
0
  6
CONTINUOUS
 62
     7
 10
772.07501
 20
163.95
 11
772.07501
 21
121.95
  0
LINE
  8
0
  6
CONTINUOUS
 62
     7
 10
768.57501
 20
163.95
 11
772.07501
 21
163.95
  0
LINE
  8
0
  6
CONTINUOUS
 62
     7
 10
815.07501
 20
159.45
 11
815.07501
 21
126.45
  0
LINE
  8
0
  6
CONTINUOUS
 62
     7
 10
799.35083
 20
159.45
 11
815.07501
 21
159.45
  0
LINE
  8
0
  6
CONTINUOUS
 62
     7
 10
776.54016
 20
161.2
 11
792.07501
 21
161.2
  0
LINE
  8
0
  6
CONTINUOUS
 62
     7
 10
768.57501
 20
121.95
 11
772.07501
 21
121.95
  0
LINE
  8
0
  6
CONTINUOUS
 62
     7
 10
776.54016
 20
124.7
 11
792.07501
 21
124.7
  0
LINE
  8
0
  6
CONTINUOUS
 62
     7
 10
799.35083
 20
126.45
 11
815.07501
 21
126.45
  0
LINE
  8
0
  6
CONTINUOUS
 62
     7
 10
791.07501
 20
162.2
 11
791.07501
 21
161.2
  0
LINE
  8
0
  6
CONTINUOUS
 62
     7
 10
781.07501
 20
162.2
 11
781.07501
 21
161.2
  0
LINE
  8
0
  6
CONTINUOUS
 62
     7
 10
781.07501
 20
162.2
 11
791.07501
 21
162.2
  0
LINE
  8
0
  6
CONTINUOUS
 62
     7
 10
781.07501
 20
123.7
 11
791.07501
 21
123.7
  0
LINE
  8
0
  6
CONTINUOUS
 62
     7
 10
791.07501
 20
123.7
 11
791.07501
 21
124.7
  0
LINE
  8
0
  6
CONTINUOUS
 62
     7
 10
781.07501
 20
123.7
 11
781.07501
 21
124.7
  0
LINE
  8
0
  6
CONTINUOUS
 62
     7
 10
750.07501
 20
120.45
 11
750.07501
 21
165.45
  0
LINE
  8
0
  6
CONTINUOUS
 62
     7
 10
768.57501
 20
120.45
 11
768.57501
 21
165.45
  0
LINE
  8
0
  6
CONTINUOUS
 62
     7
 10
766.57501
 20
118.45
 11
752.07501
 21
118.45
  0
LINE
  8
0
  6
CONTINUOUS
 62
     7
 10
766.57501
 20
167.45
 11
752.07501
 21
167.45
  0
LINE
  8
0
  6
CONTINUOUS
 62
     7
 10
768.57501
 20
120.45
 11
766.57501
 21
118.45
  0
LINE
  8
0
  6
CONTINUOUS
 62
     7
 10
766.57501
 20
167.45001
 11
768.57501
 21
165.45001
  0
LINE
  8
0
  6
CONTINUOUS
 62
     7
 10
752.07501
 20
118.44998
 11
750.07501
 21
120.44998
  0
LINE
  8
0
  6
CONTINUOUS
 62
     7
 10
750.07501
 20
165.45001
 11
752.07501
 21
167.45001
  0
LINE
  8
0
  6
CONTINUOUS
 62
     7
 10
767.57501
 20
132.80888
 11
751.07501
 21
132.80888
  0
LINE
  8
0
  6
CONTINUOUS
 62
     7
 10
767.57501
 20
153.09111
 11
751.07501
 21
153.09111
  0
LINE
  8
0
  6
CONTINUOUS
 62
     7
 10
748.07501
 20
127.45
 11
748.07501
 21
158.45
  0
LINE
  8
0
  6
CONTINUOUS
 62
     7
 10
750.07495
 20
126.9141
 11
748.07495
 21
127.45
  0
LINE
  8
0
  6
CONTINUOUS
 62
     7
 10
750.07501
 20
158.9859
 11
748.07501
 21
158.45
  0
LINE
  8
0
  6
CONTINUOUS
 62
     7
 10
506.75119
 20
39.915638
 11
506.75119
 21
-10.084363
  0
LINE
  8
0
  6
CENTER
 62
     7
 10
477.7887
 20
14.915637
 11
558.20117
 21
14.915637
  0
LINE
  8
0
  6
CONTINUOUS
 62
     7
 10
503.25119
 20
39.915638
 11
506.75119
 21
39.915638
  0
LINE
  8
0
  6
CONTINUOUS
 62
     7
 10
536.37927
 20
35.415638
 11
555.25122
 21
35.415638
  0
LINE
  8
0
  6
CONTINUOUS
 62
     7
 10
511.21634
 20
37.165638
 11
528.75122
 21
37.165638
  0
LINE
  8
0
  6
CONTINUOUS
 62
     7
 10
555.25122
 20
35.415638
 11
555.25122
 21
-5.5843635
  0
LINE
  8
0
  6
CONTINUOUS
 62
     7
 10
515.75122
 20
38.165638
 11
515.75122
 21
37.165638
  0
LINE
  8
0
  6
CONTINUOUS
 62
     7
 10
525.75122
 20
38.165638
 11
525.75122
 21
37.165638
  0
LINE
  8
0
  6
CONTINUOUS
 62
     7
 10
515.75122
 20
38.165638
 11
525.75122
 21
38.165638
  0
LINE
  8
0
  6
CONTINUOUS
 62
     7
 10
503.25119
 20
-10.084363
 11
506.75119
 21
-10.084363
  0
LINE
  8
0
  6
CONTINUOUS
 62
     7
 10
511.21634
 20
-7.3343635
 11
528.75122
 21
-7.3343635
  0
LINE
  8
0
  6
CONTINUOUS
 62
     7
 10
515.75122
 20
-8.334363
 11
515.75122
 21
-7.3343635
  0
LINE
  8
0
  6
CONTINUOUS
 62
     7
 10
525.75122
 20
-8.334363
 11
525.75122
 21
-7.3343635
  0
LINE
  8
0
  6
CONTINUOUS
 62
     7
 10
515.75122
 20
-8.334363
 11
525.75122
 21
-8.334363
  0
LINE
  8
0
  6
CONTINUOUS
 62
     7
 10
536.37927
 20
-5.5843635
 11
555.25122
 21
-5.5843635
  0
LINE
  8
0
  6
CONTINUOUS
 62
     7
 10
484.75122
 20
35.415638
 11
484.75122
 21
-5.5843635
  0
LINE
  8
0
  6
CONTINUOUS
 62
     7
 10
484.75122
 20
-12.084363
 11
484.75122
 21
41.915638
  0
LINE
  8
0
  6
CONTINUOUS
 62
     7
 10
503.25119
 20
-12.084363
 11
503.25119
 21
41.915638
  0
LINE
  8
0
  6
CONTINUOUS
 62
     7
 10
501.25119
 20
43.915638
 11
486.75119
 21
43.915638
  0
LINE
  8
0
  6
CONTINUOUS
 62
     7
 10
501.25119
 20
-14.084363
 11
486.75119
 21
-14.084363
  0
LINE
  8
0
  6
CONTINUOUS
 62
     7
 10
503.25122
 20
-12.084344
 11
501.25119
 21
-14.084346
  0
LINE
  8
0
  6
CONTINUOUS
 62
     7
 10
486.75119
 20
-14.084346
 11
484.75119
 21
-12.084343
  0
LINE
  8
0
  6
CONTINUOUS
 62
     7
 10
503.25119
 20
41.915627
 11
501.25119
 21
43.91563
  0
LINE
  8
0
  6
CONTINUOUS
 62
     7
 10
486.75119
 20
43.91563
 11
484.75122
 21
41.915649
  0
LINE
  8
0
  6
CONTINUOUS
 62
     7
 10
502.25119
 20
2.903445
 11
485.75122
 21
2.903445
  0
LINE
  8
0
  6
CONTINUOUS
 62
     7
 10
502.25119
 20
26.927828
 11
485.75122
 21
26.927828
  0
LINE
  8
0
  6
CONTINUOUS
 62
     7
 10
482.75122
 20
-3.9843571
 11
482.75122
 21
33.815647
  0
LINE
  8
0
  6
CONTINUOUS
 62
     7
 10
482.75119
 20
-3.9843483
 11
484.75119
 21
-4.5202479
  0
LINE
  8
0
  6
CONTINUOUS
 62
     7
 10
482.75119
 20
33.815639
 11
484.75122
 21
34.35154
  0
LINE
  8
0
  6
CONTINUOUS
 62
     7
 10
734.60284
 20
42.189575
 11
734.60284
 21
-15.810424
  0
LINE
  8
0
  6
CENTER
 62
     7
 10
703.80286
 20
13.189576
 11
792.00287
 21
13.189576
  0
LINE
  8
0
  6
CONTINUOUS
 62
     7
 10
730.60284
 20
42.189575
 11
734.60284
 21
42.189575
  0
LINE
  8
0
  6
CONTINUOUS
 62
     7
 10
786.60284
 20
38.189575
 11
786.60284
 21
-11.810424
  0
LINE
  8
0
  6
CONTINUOUS
 62
     7
 10
738.93298
 20
39.689575
 11
757.60284
 21
39.689575
  0
LINE
  8
0
  6
CONTINUOUS
 62
     7
 10
764.69159
 20
38.189575
 11
786.60284
 21
38.189575
  0
LINE
  8
0
  6
CONTINUOUS
 62
     7
 10
743.60284
 20
41.189575
 11
743.60284
 21
39.689575
  0
LINE
  8
0
  6
CONTINUOUS
 62
     7
 10
753.60284
 20
41.189575
 11
753.60284
 21
39.689575
  0
LINE
  8
0
  6
CONTINUOUS
 62
     7
 10
743.60284
 20
41.189575
 11
753.60284
 21
41.189575
  0
LINE
  8
0
  6
CONTINUOUS
 62
     7
 10
730.60284
 20
-15.810424
 11
734.60284
 21
-15.810424
  0
LINE
  8
0
  6
CONTINUOUS
 62
     7
 10
738.93298
 20
-13.310424
 11
757.60284
 21
-13.310424
  0
LINE
  8
0
  6
CONTINUOUS
 62
     7
 10
743.60284
 20
-14.810424
 11
743.60284
 21
-13.310424
  0
LINE
  8
0
  6
CONTINUOUS
 62
     7
 10
753.60284
 20
-14.810424
 11
753.60284
 21
-13.310424
  0
LINE
  8
0
  6
CONTINUOUS
 62
     7
 10
743.60284
 20
-14.810424
 11
753.60284
 21
-14.810424
  0
LINE
  8
0
  6
CONTINUOUS
 62
     7
 10
764.69159
 20
-11.810424
 11
786.60284
 21
-11.810424
  0
LINE
  8
0
  6
CONTINUOUS
 62
     7
 10
711.60284
 20
-17.810425
 11
711.60284
 21
44.189571
  0
LINE
  8
0
  6
CONTINUOUS
 62
     7
 10
730.60284
 20
-17.810425
 11
730.60284
 21
44.189571
  0
LINE
  8
0
  6
CONTINUOUS
 62
     7
 10
709.60284
 20
-10.160415
 11
709.60284
 21
36.539581
  0
LINE
  8
0
  6
CONTINUOUS
 62
     7
 10
728.60284
 20
-19.810425
 11
713.60284
 21
-19.810425
  0
LINE
  8
0
  6
CONTINUOUS
 62
     7
 10
728.60284
 20
46.189571
 11
713.60284
 21
46.189571
  0
LINE
  8
0
  6
CONTINUOUS
 62
     7
 10
730.60284
 20
-17.810411
 11
728.60284
 21
-19.810415
  0
LINE
  8
0
  6
CONTINUOUS
 62
     7
 10
713.60284
 20
-19.810436
 11
711.60284
 21
-17.810432
  0
LINE
  8
0
  6
CONTINUOUS
 62
     7
 10
711.60284
 20
44.189568
 11
713.60284
 21
46.189571
  0
LINE
  8
0
  6
CONTINUOUS
 62
     7
 10
730.60284
 20
44.189587
 11
728.60284
 21
46.189568
  0
LINE
  8
0
  6
CONTINUOUS
 62
     7
 10
729.60284
 20
-0.47946084
 11
712.60284
 21
-0.47946084
  0
LINE
  8
0
  6
CONTINUOUS
 62
     7
 10
729.60284
 20
26.858627
 11
712.60284
 21
26.858627
  0
LINE
  8
0
  6
CONTINUOUS
 62
     7
 10
709.60291
 20
-10.160423
 11
711.60284
 21
-10.696307
  0
LINE
  8
0
  6
CONTINUOUS
 62
     7
 10
709.60284
 20
36.539577
 11
711.60284
 21
37.075478
  0
LINE
  8
0
  6
CENTER
 62
     7
 10
517.78632
 20
-129.25784
 11
608.34882
 21
-129.25784
  0
LINE
  8
0
  6
CONTINUOUS
 62
     7
 10
550.94879
 20
-96.757851
 11
550.94879
 21
-161.75784
  0
LINE
  8
0
  6
CONTINUOUS
 62
     7
 10
547.94879
 20
-96.757851
 11
550.94879
 21
-96.757851
  0
LINE
  8
0
  6
CONTINUOUS
 62
     7
 10
555.27893
 20
-99.257851
 11
570.94879
 21
-99.257851
  0
LINE
  8
0
  6
CONTINUOUS
 62
     7
 10
579.43408
 20
-101.25785
 11
603.44879
 21
-101.25785
  0
LINE
  8
0
  6
CONTINUOUS
 62
     7
 10
603.44879
 20
-101.25785
 11
603.44879
 21
-157.25784
  0
LINE
  8
0
  6
CONTINUOUS
 62
     7
 10
569.94879
 20
-97.757851
 11
569.94879
 21
-99.257851
  0
LINE
  8
0
  6
CONTINUOUS
 62
     7
 10
559.94879
 20
-97.757851
 11
559.94879
 21
-99.257851
  0
LINE
  8
0
  6
CONTINUOUS
 62
     7
 10
559.94879
 20
-97.757851
 11
569.94879
 21
-97.757851
  0
LINE
  8
0
  6
CONTINUOUS
 62
     7
 10
547.94879
 20
-161.75784
 11
550.94879
 21
-161.75784
  0
LINE
  8
0
  6
CONTINUOUS
 62
     7
 10
555.27893
 20
-159.25784
 11
570.94879
 21
-159.25784
  0
LINE
  8
0
  6
CONTINUOUS
 62
     7
 10
579.43408
 20
-157.25784
 11
603.44879
 21
-157.25784
  0
LINE
  8
0
  6
CONTINUOUS
 62
     7
 10
569.94879
 20
-160.75784
 11
569.94879
 21
-159.25784
  0
LINE
  8
0
  6
CONTINUOUS
 62
     7
 10
559.94879
 20
-160.75784
 11
559.94879
 21
-159.25784
  0
LINE
  8
0
  6
CONTINUOUS
 62
     7
 10
559.94879
 20
-160.75784
 11
569.94879
 21
-160.75784
  0
LINE
  8
0
  6
CONTINUOUS
 62
     7
 10
525.94879
 20
-163.75784
 11
525.94879
 21
-94.757851
  0
LINE
  8
0
  6
CONTINUOUS
 62
     7
 10
546.94879
 20
-129.25784
 11
526.94879
 21
-129.25784
  0
LINE
  8
0
  6
CONTINUOUS
 62
     7
 10
547.94879
 20
-163.75784
 11
547.94879
 21
-94.757851
  0
LINE
  8
0
  6
CONTINUOUS
 62
     7
 10
545.94879
 20
-165.75784
 11
527.94879
 21
-165.75784
  0
LINE
  8
0
  6
CONTINUOUS
 62
     7
 10
545.94879
 20
-92.757851
 11
527.94879
 21
-92.757851
  0
LINE
  8
0
  6
CONTINUOUS
 62
     7
 10
523.94879
 20
-155.70784
 11
523.94879
 21
-102.80785
  0
LINE
  8
0
  6
CONTINUOUS
 62
     7
 10
546.94879
 20
-151.81609
 11
526.94879
 21
-151.81609
  0
LINE
  8
0
  6
CONTINUOUS
 62
     7
 10
546.94879
 20
-106.69961
 11
526.94879
 21
-106.69961
  0
LINE
  8
0
  6
CONTINUOUS
 62
     7
 10
547.94879
 20
-163.75786
 11
545.94879
 21
-165.75787
  0
LINE
  8
0
  6
CONTINUOUS
 62
     7
 10
527.94879
 20
-165.75784
 11
525.94879
 21
-163.75784
  0
LINE
  8
0
  6
CONTINUOUS
 62
     7
 10
547.94879
 20
-94.757851
 11
545.94879
 21
-92.757851
  0
LINE
  8
0
  6
CONTINUOUS
 62
     7
 10
525.94879
 20
-94.757835
 11
527.94879
 21
-92.757828
  0
LINE
  8
0
  6
CONTINUOUS
 62
     7
 10
523.94879
 20
-155.70784
 11
525.94879
 21
-156.24374
  0
LINE
  8
0
  6
CONTINUOUS
 62
     7
 10
523.94879
 20
-102.80785
 11
525.94879
 21
-102.27196
  0
LINE
  8
0
  6
CONTINUOUS
 62
     7
 10
817.42139
 20
-87.619926
 11
817.42139
 21
-165.61993
  0
LINE
  8
0
  6
CENTER
 62
     7
 10
778.39636
 20
-126.61993
 11
886.54639
 21
-126.61993
  0
LINE
  8
0
  6
CONTINUOUS
 62
     7
 10
814.92139
 20
-87.619926
 11
817.42139
 21
-87.619926
  0
LINE
  8
0
  6
CONTINUOUS
 62
     7
 10
861.02368
 20
-92.119926
 11
877.42139
 21
-92.119926
  0
LINE
  8
0
  6
CONTINUOUS
 62
     7
 10
877.42139
 20
-92.119926
 11
877.42139
 21
-161.11993
  0
LINE
  8
0
  6
CONTINUOUS
 62
     7
 10
821.75146
 20
-90.119926
 11
852.42139
 21
-90.119926
  0
LINE
  8
0
  6
CONTINUOUS
 62
     7
 10
814.92139
 20
-165.61993
 11
817.42139
 21
-165.61993
  0
LINE
  8
0
  6
CONTINUOUS
 62
     7
 10
821.75146
 20
-163.11993
 11
852.42139
 21
-163.11993
  0
LINE
  8
0
  6
CONTINUOUS
 62
     7
 10
861.02368
 20
-161.11993
 11
877.42139
 21
-161.11993
  0
LINE
  8
0
  6
CONTINUOUS
 62
     7
 10
836.42139
 20
-88.619926
 11
836.42139
 21
-90.119926
  0
LINE
  8
0
  6
CONTINUOUS
 62
     7
 10
826.42139
 20
-88.619926
 11
826.42139
 21
-90.119926
  0
LINE
  8
0
  6
CONTINUOUS
 62
     7
 10
826.42139
 20
-88.619926
 11
836.42139
 21
-88.619926
  0
LINE
  8
0
  6
CONTINUOUS
 62
     7
 10
826.42139
 20
-164.61993
 11
836.42139
 21
-164.61993
  0
LINE
  8
0
  6
CONTINUOUS
 62
     7
 10
826.42139
 20
-164.61993
 11
826.42139
 21
-163.11993
  0
LINE
  8
0
  6
CONTINUOUS
 62
     7
 10
836.42139
 20
-164.61993
 11
836.42139
 21
-163.11993
  0
LINE
  8
0
  6
CONTINUOUS
 62
     7
 10
791.42139
 20
-168.11993
 11
791.42139
 21
-85.119926
  0
LINE
  8
0
  6
CONTINUOUS
 62
     7
 10
813.92139
 20
-126.61993
 11
792.42139
 21
-126.61993
  0
LINE
  8
0
  6
CONTINUOUS
 62
     7
 10
814.92139
 20
-168.11993
 11
814.92139
 21
-85.119926
  0
LINE
  8
0
  6
CONTINUOUS
 62
     7
 10
812.92139
 20
-170.11993
 11
793.42139
 21
-170.11993
  0
LINE
  8
0
  6
CONTINUOUS
 62
     7
 10
812.92139
 20
-83.119926
 11
793.42139
 21
-83.119926
  0
LINE
  8
0
  6
CONTINUOUS
 62
     7
 10
814.92133
 20
-168.11989
 11
812.92133
 21
-170.11989
  0
LINE
  8
0
  6
CONTINUOUS
 62
     7
 10
793.42133
 20
-170.11992
 11
791.42133
 21
-168.11992
  0
LINE
  8
0
  6
CONTINUOUS
 62
     7
 10
814.92133
 20
-85.119926
 11
812.92133
 21
-83.119926
  0
LINE
  8
0
  6
CONTINUOUS
 62
     7
 10
793.42133
 20
-83.119904
 11
791.42133
 21
-85.119911
  0
LINE
  8
0
  6
CONTINUOUS
 62
     7
 10
789.42139
 20
-159.06993
 11
789.42139
 21
-94.169922
  0
LINE
  8
0
  6
CONTINUOUS
 62
     7
 10
792.42139
 20
-153.50441
 11
813.92139
 21
-153.50441
  0
LINE
  8
0
  6
CONTINUOUS
 62
     7
 10
792.42139
 20
-99.735443
 11
813.92139
 21
-99.735443
  0
LINE
  8
0
  6
CONTINUOUS
 62
     7
 10
789.42133
 20
-159.06992
 11
791.42133
 21
-159.6058
  0
LINE
  8
0
  6
CONTINUOUS
 62
     7
 10
789.42133
 20
-94.16993
 11
791.42133
 21
-93.634033
  0
LINE
  8
0
  6
CENTER
 62
     7
 10
620.39984
 20
-337.75058
 11
736.75739
 21
-337.75058
  0
LINE
  8
0
  6
CONTINUOUS
 62
     7
 10
667.99988
 20
-288.75058
 11
667.99988
 21
-386.75058
  0
LINE
  8
0
  6
CONTINUOUS
 62
     7
 10
661.99988
 20
-288.75058
 11
667.99988
 21
-288.75058
  0
LINE
  8
0
  6
CONTINUOUS
 62
     7
 10
672.84106
 20
-292.50058
 11
691.99988
 21
-292.50058
  0
LINE
  8
0
  6
CONTINUOUS
 62
     7
 10
701.216
 20
-294.75058
 11
715.12646
 21
-294.75058
  0
LINE
  8
0
  6
CONTINUOUS
 62
     7
 10
719.99988
 20
-292.25058
 11
731.99988
 21
-292.25058
  0
LINE
  8
0
  6
CONTINUOUS
 62
     7
 10
731.99988
 20
-292.25058
 11
731.99988
 21
-383.25058
  0
LINE
  8
0
  6
CONTINUOUS
 62
     7
 10
719.99988
 20
-292.25058
 11
719.99988
 21
-383.25058
  0
LINE
  8
0
  6
CONTINUOUS
 62
     7
 10
685.99988
 20
-290.50058
 11
685.99988
 21
-292.50058
  0
LINE
  8
0
  6
CONTINUOUS
 62
     7
 10
675.99988
 20
-290.50058
 11
675.99988
 21
-292.50058
  0
LINE
  8
0
  6
CONTINUOUS
 62
     7
 10
675.99988
 20
-290.50058
 11
685.99988
 21
-290.50058
  0
LINE
  8
0
  6
CONTINUOUS
 62
     7
 10
661.99988
 20
-386.75058
 11
667.99988
 21
-386.75058
  0
LINE
  8
0
  6
CONTINUOUS
 62
     7
 10
672.84106
 20
-383.00058
 11
691.99988
 21
-383.00058
  0
LINE
  8
0
  6
CONTINUOUS
 62
     7
 10
701.216
 20
-380.75058
 11
715.12646
 21
-380.75058
  0
LINE
  8
0
  6
CONTINUOUS
 62
     7
 10
719.99988
 20
-383.25058
 11
731.99988
 21
-383.25058
  0
LINE
  8
0
  6
CONTINUOUS
 62
     7
 10
685.99988
 20
-385.00058
 11
685.99988
 21
-383.00058
  0
LINE
  8
0
  6
CONTINUOUS
 62
     7
 10
675.99988
 20
-385.00058
 11
675.99988
 21
-383.00058
  0
LINE
  8
0
  6
CONTINUOUS
 62
     7
 10
675.99988
 20
-385.00058
 11
685.99988
 21
-385.00058
  0
LINE
  8
0
  6
CONTINUOUS
 62
     7
 10
632.99988
 20
-389.75058
 11
632.99988
 21
-285.75058
  0
LINE
  8
0
  6
CONTINUOUS
 62
     7
 10
660.99988
 20
-337.75058
 11
633.99988
 21
-337.75058
  0
LINE
  8
0
  6
CONTINUOUS
 62
     7
 10
630.99988
 20
-378.15057
 11
630.99988
 21
-297.35059
  0
LINE
  8
0
  6
CONTINUOUS
 62
     7
 10
661.99988
 20
-389.75058
 11
661.99988
 21
-285.75058
  0
LINE
  8
0
  6
CONTINUOUS
 62
     7
 10
659.99988
 20
-391.75058
 11
634.99988
 21
-391.75058
  0
LINE
  8
0
  6
CONTINUOUS
 62
     7
 10
659.99988
 20
-283.75058
 11
634.99988
 21
-283.75058
  0
LINE
  8
0
  6
CONTINUOUS
 62
     7
 10
661.99982
 20
-389.75055
 11
659.99982
 21
-391.75055
  0
LINE
  8
0
  6
CONTINUOUS
 62
     7
 10
634.99982
 20
-391.75055
 11
632.99988
 21
-389.75058
  0
LINE
  8
0
  6
CONTINUOUS
 62
     7
 10
661.99988
 20
-285.75055
 11
659.99988
 21
-283.75055
  0
LINE
  8
0
  6
CONTINUOUS
 62
     7
 10
634.99988
 20
-283.75055
 11
632.99988
 21
-285.75055
  0
LINE
  8
0
  6
CONTINUOUS
 62
     7
 10
660.99988
 20
-369.88834
 11
633.99988
 21
-369.88834
  0
LINE
  8
0
  6
CONTINUOUS
 62
     7
 10
660.99988
 20
-305.61279
 11
633.99988
 21
-305.61279
  0
LINE
  8
0
  6
CONTINUOUS
 62
     7
 10
630.99988
 20
-378.15057
 11
632.99988
 21
-378.68646
  0
LINE
  8
0
  6
CONTINUOUS
 62
     7
 10
630.99988
 20
-297.35059
 11
632.99988
 21
-296.81467
  0
LINE
  8
0
  6
CONTINUOUS
 62
     7
 10
668.17786
 20
-463.13745
 11
668.17786
 21
-575.13745
  0
LINE
  8
0
  6
CENTER
 62
     7
 10
621.45782
 20
-519.13745
 11
746.47784
 21
-519.13745
  0
LINE
  8
0
  6
CONTINUOUS
 62
     7
 10
661.67786
 20
-463.13745
 11
668.17786
 21
-463.13745
  0
LINE
  8
0
  6
CONTINUOUS
 62
     7
 10
673.01904
 20
-466.88745
 11
692.17786
 21
-466.88745
  0
LINE
  8
0
  6
CONTINUOUS
 62
     7
 10
702.4339
 20
-469.63745
 11
717.09528
 21
-469.63745
  0
LINE
  8
0
  6
CONTINUOUS
 62
     7
 10
734.67786
 20
-466.63745
 11
734.67786
 21
-571.63745
  0
LINE
  8
0
  6
CONTINUOUS
 62
     7
 10
721.67786
 20
-466.63745
 11
734.67786
 21
-466.63745
  0
LINE
  8
0
  6
CONTINUOUS
 62
     7
 10
721.67786
 20
-466.63745
 11
721.67786
 21
-571.63745
  0
LINE
  8
0
  6
CONTINUOUS
 62
     7
 10
661.67786
 20
-575.13745
 11
668.17786
 21
-575.13745
  0
LINE
  8
0
  6
CONTINUOUS
 62
     7
 10
673.01904
 20
-571.38745
 11
692.17786
 21
-571.38745
  0
LINE
  8
0
  6
CONTINUOUS
 62
     7
 10
702.4339
 20
-568.63745
 11
717.09528
 21
-568.63745
  0
LINE
  8
0
  6
CONTINUOUS
 62
     7
 10
721.67786
 20
-571.63745
 11
734.67786
 21
-571.63745
  0
LINE
  8
0
  6
CONTINUOUS
 62
     7
 10
660.67786
 20
-519.13745
 11
633.67786
 21
-519.13745
  0
LINE
  8
0
  6
CONTINUOUS
 62
     7
 10
632.67786
 20
-578.63745
 11
632.67786
 21
-459.63745
  0
LINE
  8
0
  6
CONTINUOUS
 62
     7
 10
661.67786
 20
-578.63745
 11
661.67786
 21
-459.63745
  0
LINE
  8
0
  6
CONTINUOUS
 62
     7
 10
659.67786
 20
-457.63745
 11
634.67786
 21
-457.63745
  0
LINE
  8
0
  6
CONTINUOUS
 62
     7
 10
659.67786
 20
-580.63745
 11
634.67786
 21
-580.63745
  0
LINE
  8
0
  6
CONTINUOUS
 62
     7
 10
659.6778
 20
-580.63745
 11
661.6778
 21
-578.63745
  0
LINE
  8
0
  6
CONTINUOUS
 62
     7
 10
661.6778
 20
-459.63745
 11
659.6778
 21
-457.63745
  0
LINE
  8
0
  6
CONTINUOUS
 62
     7
 10
634.67786
 20
-457.63745
 11
632.67786
 21
-459.63745
  0
LINE
  8
0
  6
CONTINUOUS
 62
     7
 10
634.67786
 20
-580.63745
 11
632.6778
 21
-578.63745
  0
LINE
  8
0
  6
CONTINUOUS
 62
     7
 10
630.67786
 20
-565.98743
 11
630.67786
 21
-472.28745
  0
LINE
  8
0
  6
CONTINUOUS
 62
     7
 10
630.6778
 20
-565.98743
 11
632.6778
 21
-566.52332
  0
LINE
  8
0
  6
CONTINUOUS
 62
     7
 10
630.67786
 20
-472.28745
 11
632.67786
 21
-471.75156
  0
LINE
  8
0
  6
CONTINUOUS
 62
     7
 10
660.67786
 20
-557.14655
 11
633.67786
 21
-557.14655
  0
LINE
  8
0
  6
CONTINUOUS
 62
     7
 10
660.67786
 20
-481.12836
 11
633.67786
 21
-481.12836
  0
LINE
  8
0
  6
CONTINUOUS
 62
     7
 10
317
 20
-210
 11
317
 21
210
  0
LINE
  8
0
  6
CONTINUOUS
 62
     7
 10
911
 20
-210
 11
317
 21
-210
  0
LINE
  8
0
  6
CONTINUOUS
 62
     7
 10
911
 20
210
 11
911
 21
-210
  0
LINE
  8
0
  6
CONTINUOUS
 62
     7
 10
317
 20
210
 11
911
 21
210
  0
LINE
  8
0
  6
CONTINUOUS
 62
     7
 10
598.84283
 20
-519.13739
 11
586.49292
 21
-481.12836
  0
LINE
  8
0
  6
CONTINUOUS
 62
     7
 10
586.49292
 20
-481.12842
 11
554.1604
 21
-457.63748
  0
LINE
  8
0
  6
CONTINUOUS
 62
     7
 10
514.19531
 20
-457.63745
 11
554.16046
 21
-457.63745
  0
LINE
  8
0
  6
CONTINUOUS
 62
     7
 10
481.86282
 20
-481.12839
 11
514.19531
 21
-457.63745
  0
LINE
  8
0
  6
CONTINUOUS
 62
     7
 10
469.51294
 20
-519.13745
 11
481.86282
 21
-481.12836
  0
LINE
  8
0
  6
CONTINUOUS
 62
     7
 10
481.86282
 20
-557.14648
 11
469.51294
 21
-519.13745
  0
LINE
  8
0
  6
CONTINUOUS
 62
     7
 10
514.19531
 20
-580.63751
 11
481.86282
 21
-557.14655
  0
LINE
  8
0
  6
CONTINUOUS
 62
     7
 10
554.16046
 20
-580.63745
 11
514.19531
 21
-580.63745
  0
LINE
  8
0
  6
CONTINUOUS
 62
     7
 10
586.49292
 20
-557.14655
 11
554.1604
 21
-580.63745
  0
LINE
  8
0
  6
CONTINUOUS
 62
     7
 10
598.84277
 20
-519.13745
 11
586.49286
 21
-557.14655
  0
LINE
  8
0
  6
CONTINUOUS
 62
     7
 10
375.20261
 20
150.60365
 11
364.37869
 21
161.42758
  0
LINE
  8
0
  6
CONTINUOUS
 62
     7
 10
364.37866
 20
161.42758
 11
349.07135
 21
161.42758
  0
LINE
  8
0
  6
CONTINUOUS
 62
     7
 10
338.24741
 20
150.60365
 11
349.07132
 21
161.42758
  0
LINE
  8
0
  6
CONTINUOUS
 62
     7
 10
338.24741
 20
135.29633
 11
338.24741
 21
150.60365
  0
LINE
  8
0
  6
CONTINUOUS
 62
     7
 10
349.07135
 20
124.47238
 11
338.24741
 21
135.29631
  0
LINE
  8
0
  6
CONTINUOUS
 62
     7
 10
364.37866
 20
124.4724
 11
349.07135
 21
124.4724
  0
LINE
  8
0
  6
CONTINUOUS
 62
     7
 10
375.20258
 20
135.29631
 11
364.37866
 21
124.47238
  0
LINE
  8
0
  6
CONTINUOUS
 62
     7
 10
375.20258
 20
150.60365
 11
375.20258
 21
135.29633
  0
LINE
  8
0
  6
CONTINUOUS
 62
     7
 10
550.375
 20
151.64847
 11
538.07349
 21
163.94998
  0
LINE
  8
0
  6
CONTINUOUS
 62
     7
 10
538.07349
 20
163.95
 11
520.67651
 21
163.95
  0
LINE
  8
0
  6
CONTINUOUS
 62
     7
 10
508.37497
 20
151.64848
 11
520.67651
 21
163.95
  0
LINE
  8
0
  6
CONTINUOUS
 62
     7
 10
508.375
 20
134.25151
 11
508.375
 21
151.64847
  0
LINE
  8
0
  6
CONTINUOUS
 62
     7
 10
520.67651
 20
121.94998
 11
508.375
 21
134.2515
  0
LINE
  8
0
  6
CONTINUOUS
 62
     7
 10
538.07349
 20
121.95
 11
520.67651
 21
121.95
  0
LINE
  8
0
  6
CONTINUOUS
 62
     7
 10
550.375
 20
134.2515
 11
538.07349
 21
121.94998
  0
LINE
  8
0
  6
CONTINUOUS
 62
     7
 10
550.375
 20
151.64847
 11
550.375
 21
134.25151
  0
LINE
  8
0
  6
CONTINUOUS
 62
     7
 10
724.5578
 20
153.09109
 11
710.21613
 21
167.4328
  0
LINE
  8
0
  6
CONTINUOUS
 62
     7
 10
710.21613
 20
167.4328
 11
689.9339
 21
167.4328
  0
LINE
  8
0
  6
CONTINUOUS
 62
     7
 10
675.59222
 20
153.09109
 11
689.9339
 21
167.4328
  0
LINE
  8
0
  6
CONTINUOUS
 62
     7
 10
675.59216
 20
132.80888
 11
675.59216
 21
153.09109
  0
LINE
  8
0
  6
CONTINUOUS
 62
     7
 10
689.9339
 20
118.46716
 11
675.59216
 21
132.80887
  0
LINE
  8
0
  6
CONTINUOUS
 62
     7
 10
710.21613
 20
118.46718
 11
689.9339
 21
118.46718
  0
LINE
  8
0
  6
CONTINUOUS
 62
     7
 10
724.5578
 20
132.80888
 11
710.21613
 21
118.46719
  0
LINE
  8
0
  6
CONTINUOUS
 62
     7
 10
724.5578
 20
153.09109
 11
724.5578
 21
132.80888
  0
LINE
  8
0
  6
CONTINUOUS
 62
     7
 10
453.75122
 20
26.927803
 11
436.76337
 21
43.91563
  0
LINE
  8
0
  6
CONTINUOUS
 62
     7
 10
436.7634
 20
43.915638
 11
412.73901
 21
43.915638
  0
LINE
  8
0
  6
CONTINUOUS
 62
     7
 10
395.75122
 20
26.927826
 11
412.73901
 21
43.91563
  0
LINE
  8
0
  6
CONTINUOUS
 62
     7
 10
395.75122
 20
2.9034371
 11
395.75122
 21
26.927828
  0
LINE
  8
0
  6
CONTINUOUS
 62
     7
 10
412.73901
 20
-14.08439
 11
395.75119
 21
2.9034364
  0
LINE
  8
0
  6
CONTINUOUS
 62
     7
 10
436.7634
 20
-14.084367
 11
412.73901
 21
-14.084367
  0
LINE
  8
0
  6
CONTINUOUS
 62
     7
 10
453.75122
 20
2.9034364
 11
436.7634
 21
-14.084368
  0
LINE
  8
0
  6
CONTINUOUS
 62
     7
 10
453.75122
 20
26.927828
 11
453.75122
 21
2.9034371
  0
LINE
  8
0
  6
CONTINUOUS
 62
     7
 10
684.60284
 20
26.858622
 11
665.27191
 21
46.18956
  0
LINE
  8
0
  6
CONTINUOUS
 62
     7
 10
665.27191
 20
46.189575
 11
637.93384
 21
46.189575
  0
LINE
  8
0
  6
CONTINUOUS
 62
     7
 10
618.60284
 20
26.858622
 11
637.93384
 21
46.189579
  0
LINE
  8
0
  6
CONTINUOUS
 62
     7
 10
618.60284
 20
-0.47946846
 11
618.60284
 21
26.85862
  0
LINE
  8
0
  6
CONTINUOUS
 62
     7
 10
637.93384
 20
-19.810406
 11
618.60291
 21
-0.47946796
  0
LINE
  8
0
  6
CONTINUOUS
 62
     7
 10
665.27191
 20
-19.810425
 11
637.93384
 21
-19.810425
  0
LINE
  8
0
  6
CONTINUOUS
 62
     7
 10
684.60284
 20
-0.47946796
 11
665.27191
 21
-19.810427
  0
LINE
  8
0
  6
CONTINUOUS
 62
     7
 10
684.60284
 20
26.85862
 11
684.60284
 21
-0.47946846
  0
LINE
  8
0
  6
CONTINUOUS
 62
     7
 10
504.32718
 20
-129.25786
 11
496.99756
 21
-106.6996
  0
LINE
  8
0
  6
CONTINUOUS
 62
     7
 10
496.99756
 20
-106.69961
 11
477.80835
 21
-92.757843
  0
LINE
  8
0
  6
CONTINUOUS
 62
     7
 10
454.08923
 20
-92.757843
 11
477.80835
 21
-92.757843
  0
LINE
  8
0
  6
CONTINUOUS
 62
     7
 10
434.90002
 20
-106.69961
 11
454.08923
 21
-92.757843
  0
LINE
  8
0
  6
CONTINUOUS
 62
     7
 10
427.57043
 20
-129.25786
 11
434.90005
 21
-106.6996
  0
LINE
  8
0
  6
CONTINUOUS
 62
     7
 10
434.90005
 20
-151.81609
 11
427.57043
 21
-129.25784
  0
LINE
  8
0
  6
CONTINUOUS
 62
     7
 10
454.08923
 20
-165.75784
 11
434.90005
 21
-151.81607
  0
LINE
  8
0
  6
CONTINUOUS
 62
     7
 10
477.80835
 20
-165.75784
 11
454.08923
 21
-165.75784
  0
LINE
  8
0
  6
CONTINUOUS
 62
     7
 10
496.99756
 20
-151.81609
 11
477.80835
 21
-165.75784
  0
LINE
  8
0
  6
CONTINUOUS
 62
     7
 10
504.32721
 20
-129.25786
 11
496.99759
 21
-151.8161
  0
LINE
  8
0
  6
CONTINUOUS
 62
     7
 10
755.15997
 20
-126.61993
 11
746.42462
 21
-99.735428
  0
LINE
  8
0
  6
CONTINUOUS
 62
     7
 10
746.42468
 20
-99.735451
 11
723.55542
 21
-83.119934
  0
LINE
  8
0
  6
CONTINUOUS
 62
     7
 10
695.28735
 20
-83.119926
 11
723.55536
 21
-83.119926
  0
LINE
  8
0
  6
CONTINUOUS
 62
     7
 10
672.41803
 20
-99.735451
 11
695.28735
 21
-83.119919
  0
LINE
  8
0
  6
CONTINUOUS
 62
     7
 10
663.68274
 20
-126.61993
 11
672.41803
 21
-99.735451
  0
LINE
  8
0
  6
CONTINUOUS
 62
     7
 10
672.41803
 20
-153.50441
 11
663.68274
 21
-126.61991
  0
LINE
  8
0
  6
CONTINUOUS
 62
     7
 10
695.28735
 20
-170.11992
 11
672.41809
 21
-153.50441
  0
LINE
  8
0
  6
CONTINUOUS
 62
     7
 10
723.55536
 20
-170.11992
 11
695.28735
 21
-170.11992
  0
LINE
  8
0
  6
CONTINUOUS
 62
     7
 10
746.42468
 20
-153.50436
 11
723.55536
 21
-170.1199
  0
LINE
  8
0
  6
CONTINUOUS
 62
     7
 10
755.15997
 20
-126.61993
 11
746.42468
 21
-153.50441
  0
LINE
  8
0
  6
CENTER
 62
     7
 10
356.72501
 20
166.95
 11
356.72501
 21
118.95
  0
LINE
  8
0
  6
CENTER
 62
     7
 10
332.72501
 20
142.95
 11
380.72501
 21
142.95
  0
LINE
  8
0
  6
CENTER
 62
     7
 10
529.375
 20
169.14999
 11
529.375
 21
116.75
  0
LINE
  8
0
  6
CENTER
 62
     7
 10
503.17499
 20
142.95
 11
555.57501
 21
142.95
  0
LINE
  8
0
  6
CENTER
 62
     7
 10
700.07501
 20
173.45
 11
700.07501
 21
112.45
  0
LINE
  8
0
  6
CENTER
 62
     7
 10
669.57501
 20
142.95
 11
730.57501
 21
142.95
  0
LINE
  8
0
  6
CENTER
 62
     7
 10
651.60284
 20
52.075478
 11
651.60284
 21
-25.69632
  0
LINE
  8
0
  6
CENTER
 62
     7
 10
612.71698
 20
13.189576
 11
690.48877
 21
13.189576
  0
LINE
  8
0
  6
CENTER
 62
     7
 10
424.75122
 20
47.265636
 11
424.75122
 21
-17.434364
  0
LINE
  8
0
  6
CENTER
 62
     7
 10
392.40118
 20
14.915637
 11
457.1012
 21
14.915637
  0
LINE
  8
0
  6
CENTER
 62
     7
 10
465.94879
 20
-89.557838
 11
465.94879
 21
-168.95786
  0
LINE
  8
0
  6
CENTER
 62
     7
 10
426.24878
 20
-129.25784
 11
505.6488
 21
-129.25784
  0
LINE
  8
0
  6
CENTER
 62
     7
 10
709.42139
 20
-78.634026
 11
709.42139
 21
-174.60582
  0
LINE
  8
0
  6
CENTER
 62
     7
 10
661.43549
 20
-126.61993
 11
757.40723
 21
-126.61993
  0
LINE
  8
0
  6
CENTER
 62
     7
 10
533.99988
 20
-281.81467
 11
533.99988
 21
-393.68646
  0
LINE
  8
0
  6
CENTER
 62
     7
 10
478.06396
 20
-337.75058
 11
589.93579
 21
-337.75058
  0
LINE
  8
0
  6
CENTER
 62
     7
 10
534.17786
 20
-454.03745
 11
534.17786
 21
-584.23743
  0
LINE
  8
0
  6
CENTER
 62
     7
 10
469.07785
 20
-519.13745
 11
599.27783
 21
-519.13745
  0
LINE
  8
0
  6
CONTINUOUS
 62
     7
 10
590.77881
 20
-337.75058
 11
579.935
 21
-304.37674
  0
LINE
  8
0
  6
CONTINUOUS
 62
     7
 10
579.93506
 20
-304.37674
 11
551.54553
 21
-283.75055
  0
LINE
  8
0
  6
CONTINUOUS
 62
     7
 10
516.45422
 20
-283.75058
 11
551.54553
 21
-283.75058
  0
LINE
  8
0
  6
CONTINUOUS
 62
     7
 10
488.06473
 20
-304.37677
 11
516.45422
 21
-283.75058
  0
LINE
  8
0
  6
CONTINUOUS
 62
     7
 10
477.22086
 20
-337.75058
 11
488.0647
 21
-304.37671
  0
LINE
  8
0
  6
CONTINUOUS
 62
     7
 10
488.06473
 20
-371.12442
 11
477.22089
 21
-337.75055
  0
LINE
  8
0
  6
CONTINUOUS
 62
     7
 10
516.45422
 20
-391.75058
 11
488.0647
 21
-371.12439
  0
LINE
  8
0
  6
CONTINUOUS
 62
     7
 10
551.54553
 20
-391.75058
 11
516.45422
 21
-391.75058
  0
LINE
  8
0
  6
CONTINUOUS
 62
     7
 10
579.93506
 20
-371.12442
 11
551.54553
 21
-391.75061
  0
LINE
  8
0
  6
CONTINUOUS
 62
     7
 10
590.77881
 20
-337.75055
 11
579.935
 21
-371.12439
  0
LINE
  8
0
  6
CONTINUOUS
 62
     7
 10
414.22501
 20
126.45
 11
414.22501
 21
159.45
  0
ARC
  8
0
  6
CONTINUOUS
 62
     7
 10
-157.69867
 20
152.3317
 40
5
 50
210
 51
270
  0
ARC
  8
0
  6
CONTINUOUS
 62
     7
 10
-157.69867
 20
115.3317
 40
5
 50
90.000003
 51
150
  0
ARC
  8
0
  6
CONTINUOUS
 62
     7
 10
28.121206
 20
143.3317
 40
6
 50
61.044973
 51
90.000003
  0
ARC
  8
0
  6
CONTINUOUS
 62
     7
 10
35.867172
 20
157.3317
 40
10
 50
241.04497
 51
270
  0
ARC
  8
0
  6
CONTINUOUS
 62
     7
 10
28.121206
 20
124.3317
 40
6
 50
270
 51
298.95503
  0
ARC
  8
0
  6
CONTINUOUS
 62
     7
 10
35.867172
 20
110.3317
 40
10
 50
90.000003
 51
118.95503
  0
ARC
  8
0
  6
CONTINUOUS
 62
     7
 10
12.95133
 20
154.3317
 40
5
 50
220.00175
 51
270
  0
ARC
  8
0
  6
CONTINUOUS
 62
     7
 10
12.95133
 20
113.3317
 40
5
 50
90.000003
 51
139.99825
  0
ARC
  8
0
  6
CONTINUOUS
 62
     7
 10
219.3212
 20
146.0817
 40
6
 50
62.951886
 51
90.000003
  0
ARC
  8
0
  6
CONTINUOUS
 62
     7
 10
226.59702
 20
160.3317
 40
10
 50
242.9519
 51
270
  0
ARC
  8
0
  6
CONTINUOUS
 62
     7
 10
203.78635
 20
157.0817
 40
5
 50
217.53044
 51
270
  0
ARC
  8
0
  6
CONTINUOUS
 62
     7
 10
203.78635
 20
110.5817
 40
5
 50
90.000003
 51
142.46956
  0
ARC
  8
0
  6
CONTINUOUS
 62
     7
 10
219.3212
 20
121.5817
 40
6
 50
270
 51
297.04811
  0
ARC
  8
0
  6
CONTINUOUS
 62
     7
 10
226.59702
 20
107.3317
 40
10
 50
90.000003
 51
117.0481
  0
ARC
  8
0
  6
CONTINUOUS
 62
     7
 10
-69.512604
 20
13.161544
 40
7.5
 50
64.158071
 51
90.000003
  0
ARC
  8
0
  6
CONTINUOUS
 62
     7
 10
-61.884518
 20
28.911543
 40
10
 50
244.15807
 51
270
  0
ARC
  8
0
  6
CONTINUOUS
 62
     7
 10
-87.047455
 20
25.661543
 40
5
 50
226.12967
 51
270
  0
ARC
  8
0
  6
CONTINUOUS
 62
     7
 10
-87.047455
 20
-28.838457
 40
5
 50
90.000003
 51
133.87033
  0
ARC
  8
0
  6
CONTINUOUS
 62
     7
 10
-69.512604
 20
-16.338457
 40
7.5
 50
270
 51
295.84193
  0
ARC
  8
0
  6
CONTINUOUS
 62
     7
 10
-61.884518
 20
-32.088455
 40
10
 50
90.000003
 51
115.84193
  0
ARC
  8
0
  6
CONTINUOUS
 62
     7
 10
165.15614
 20
18.076492
 40
7.5
 50
66.10449
 51
90.000003
  0
ARC
  8
0
  6
CONTINUOUS
 62
     7
 10
146.48627
 20
30.576492
 40
5
 50
228.23901
 51
270
  0
ARC
  8
0
  6
CONTINUOUS
 62
     7
 10
172.24486
 20
34.076492
 40
10
 50
246.10449
 51
270
  0
ARC
  8
0
  6
CONTINUOUS
 62
     7
 10
146.48627
 20
-32.423508
 40
5
 50
90.000003
 51
131.76099
  0
ARC
  8
0
  6
CONTINUOUS
 62
     7
 10
165.15614
 20
-19.923508
 40
7.5
 50
270
 51
293.89551
  0
ARC
  8
0
  6
CONTINUOUS
 62
     7
 10
172.24486
 20
-35.923508
 40
10
 50
90.000003
 51
113.89551
  0
ARC
  8
0
  6
CONTINUOUS
 62
     7
 10
-91.286331
 20
-112.68909
 40
9
 50
63.474649
 51
90.000003
  0
ARC
  8
0
  6
CONTINUOUS
 62
     7
 10
-82.801056
 20
-95.689087
 40
10
 50
243.47465
 51
270
  0
ARC
  8
0
  6
CONTINUOUS
 62
     7
 10
-106.95621
 20
-98.689087
 40
5
 50
242.22344
 51
270
  0
ARC
  8
0
  6
CONTINUOUS
 62
     7
 10
-106.95621
 20
-168.6891
 40
5
 50
90.000003
 51
117.77656
  0
ARC
  8
0
  6
CONTINUOUS
 62
     7
 10
-82.801056
 20
-171.6891
 40
10
 50
90.000003
 51
116.52535
  0
ARC
  8
0
  6
CONTINUOUS
 62
     7
 10
-91.286331
 20
-154.68909
 40
9
 50
270
 51
296.52535
  0
ARC
  8
0
  6
CONTINUOUS
 62
     7
 10
180.6451
 20
-105.1982
 40
9.5
 50
63.82305
 51
90.000003
  0
ARC
  8
0
  6
CONTINUOUS
 62
     7
 10
189.24742
 20
-87.698204
 40
10
 50
243.82304
 51
270
  0
ARC
  8
0
  6
CONTINUOUS
 62
     7
 10
149.97522
 20
-90.698204
 40
5
 50
254.57214
 51
270
  0
ARC
  8
0
  6
CONTINUOUS
 62
     7
 10
149.97522
 20
-173.6982
 40
5
 50
90.000003
 51
105.42786
  0
ARC
  8
0
  6
CONTINUOUS
 62
     7
 10
180.6451
 20
-159.1982
 40
9.5
 50
270
 51
296.17695
  0
ARC
  8
0
  6
CONTINUOUS
 62
     7
 10
189.24742
 20
-176.6982
 40
10
 50
90.000003
 51
116.17696
  0
ARC
  8
0
  6
CONTINUOUS
 62
     7
 10
44.511456
 20
-296.72617
 40
10
 50
62.560763
 51
90.000003
  0
ARC
  8
0
  6
CONTINUOUS
 62
     7
 10
67.638054
 20
-282.97617
 40
6
 50
270
 51
324.31468
  0
ARC
  8
0
  6
CONTINUOUS
 62
     7
 10
53.727612
 20
-278.97617
 40
10
 50
242.56076
 51
270
  0
ARC
  8
0
  6
CONTINUOUS
 62
     7
 10
25.352688
 20
-281.72617
 40
5
 50
235.37201
 51
270
  0
ARC
  8
0
  6
CONTINUOUS
 62
     7
 10
25.352688
 20
-382.22617
 40
5
 50
90.000003
 51
124.62799
  0
ARC
  8
0
  6
CONTINUOUS
 62
     7
 10
67.638054
 20
-380.97617
 40
6
 50
35.685334
 51
90.000003
  0
ARC
  8
0
  6
CONTINUOUS
 62
     7
 10
53.727612
 20
-384.97617
 40
10
 50
90.000003
 51
117.43924
  0
ARC
  8
0
  6
CONTINUOUS
 62
     7
 10
44.511456
 20
-367.22617
 40
10
 50
270
 51
297.43924
  0
ARC
  8
0
  6
CONTINUOUS
 62
     7
 10
57.498837
 20
-486.72583
 40
10.5
 50
59.980324
 51
90.000003
  0
ARC
  8
0
  6
CONTINUOUS
 62
     7
 10
67.754944
 20
-468.97583
 40
10
 50
239.98033
 51
270
  0
ARC
  8
0
  6
CONTINUOUS
 62
     7
 10
82.41626
 20
-473.97583
 40
5
 50
270
 51
336.42182
  0
ARC
  8
0
  6
CONTINUOUS
 62
     7
 10
38.340084
 20
-471.22583
 40
5
 50
235.37197
 51
270
  0
ARC
  8
0
  6
CONTINUOUS
 62
     7
 10
38.340084
 20
-585.72583
 40
5
 50
90.000003
 51
124.62803
  0
ARC
  8
0
  6
CONTINUOUS
 62
     7
 10
57.498837
 20
-570.22583
 40
10.5
 50
270
 51
300.01968
  0
ARC
  8
0
  6
CONTINUOUS
 62
     7
 10
67.754944
 20
-587.97583
 40
10
 50
90.000003
 51
120.01967
  0
ARC
  8
0
  6
CONTINUOUS
 62
     7
 10
82.41626
 20
-582.97583
 40
5
 50
23.578178
 51
90.000003
  0
CIRCLE
  8
0
  6
CONTINUOUS
 62
     7
 10
-229.02879
 20
133.8317
 40
9.5
  0
CIRCLE
  8
0
  6
CONTINUOUS
 62
     7
 10
-58.378792
 20
133.8317
 40
11.5
  0
CIRCLE
  8
0
  6
CONTINUOUS
 62
     7
 10
132.3212
 20
133.8317
 40
14.25
  0
CIRCLE
  8
0
  6
CONTINUOUS
 62
     7
 10
-169.0126
 20
-1.5884563
 40
17.75
  0
CIRCLE
  8
0
  6
CONTINUOUS
 62
     7
 10
54.156143
 20
-0.92350757
 40
22
  0
CIRCLE
  8
0
  6
CONTINUOUS
 62
     7
 10
-211.28635
 20
-133.68909
 40
25
  0
CIRCLE
  8
0
  6
CONTINUOUS
 62
     7
 10
45.145084
 20
-132.1982
 40
31
  0
CIRCLE
  8
0
  6
CONTINUOUS
 62
     7
 10
-96.488556
 20
-331.97617
 40
39.25
  0
CIRCLE
  8
0
  6
CONTINUOUS
 62
     7
 10
-93.50116
 20
-528.47583
 40
45.75
  0
ARC
  8
0
  6
CONTINUOUS
 62
     7
 10
425.05511
 20
161.45
 40
5
 50
210
 51
270
  0
ARC
  8
0
  6
CONTINUOUS
 62
     7
 10
425.05511
 20
124.45
 40
5
 50
90.000003
 51
150
  0
ARC
  8
0
  6
CONTINUOUS
 62
     7
 10
610.875
 20
152.45
 40
6
 50
61.044973
 51
90.000003
  0
ARC
  8
0
  6
CONTINUOUS
 62
     7
 10
618.62097
 20
166.45
 40
10
 50
241.04497
 51
270
  0
ARC
  8
0
  6
CONTINUOUS
 62
     7
 10
610.875
 20
133.45
 40
6
 50
270
 51
298.95503
  0
ARC
  8
0
  6
CONTINUOUS
 62
     7
 10
618.62097
 20
119.45
 40
10
 50
90.000003
 51
118.95503
  0
ARC
  8
0
  6
CONTINUOUS
 62
     7
 10
595.70514
 20
163.45
 40
5
 50
210
 51
270
  0
ARC
  8
0
  6
CONTINUOUS
 62
     7
 10
595.70514
 20
122.45
 40
5
 50
90.000003
 51
150
  0
ARC
  8
0
  6
CONTINUOUS
 62
     7
 10
792.07501
 20
155.2
 40
6
 50
62.951886
 51
90.000003
  0
ARC
  8
0
  6
CONTINUOUS
 62
     7
 10
799.35083
 20
169.45
 40
10
 50
242.9519
 51
270
  0
ARC
  8
0
  6
CONTINUOUS
 62
     7
 10
776.54016
 20
166.2
 40
5
 50
206.74368
 51
270
  0
ARC
  8
0
  6
CONTINUOUS
 62
     7
 10
776.54016
 20
119.7
 40
5
 50
90.000003
 51
153.25632
  0
ARC
  8
0
  6
CONTINUOUS
 62
     7
 10
792.07501
 20
130.7
 40
6
 50
270
 51
297.04811
  0
ARC
  8
0
  6
CONTINUOUS
 62
     7
 10
799.35083
 20
116.45
 40
10
 50
90.000003
 51
117.0481
  0
ARC
  8
0
  6
CONTINUOUS
 62
     7
 10
528.75122
 20
29.665636
 40
7.5
 50
64.158071
 51
90.000003
  0
ARC
  8
0
  6
CONTINUOUS
 62
     7
 10
536.37927
 20
45.415634
 40
10
 50
244.15807
 51
270
  0
ARC
  8
0
  6
CONTINUOUS
 62
     7
 10
511.21634
 20
42.165638
 40
5
 50
206.74368
 51
270
  0
ARC
  8
0
  6
CONTINUOUS
 62
     7
 10
511.21634
 20
-12.334363
 40
5
 50
90.000003
 51
153.25632
  0
ARC
  8
0
  6
CONTINUOUS
 62
     7
 10
528.75122
 20
0.16563673
 40
7.5
 50
270
 51
295.84193
  0
ARC
  8
0
  6
CONTINUOUS
 62
     7
 10
536.37927
 20
-15.584363
 40
10
 50
90.000003
 51
115.84193
  0
ARC
  8
0
  6
CONTINUOUS
 62
     7
 10
757.60284
 20
32.189575
 40
7.5
 50
66.10449
 51
90.000003
  0
ARC
  8
0
  6
CONTINUOUS
 62
     7
 10
738.93298
 20
44.689571
 40
5
 50
210
 51
270
  0
ARC
  8
0
  6
CONTINUOUS
 62
     7
 10
764.69159
 20
48.189571
 40
10
 50
246.10449
 51
270
  0
ARC
  8
0
  6
CONTINUOUS
 62
     7
 10
738.93298
 20
-18.310425
 40
5
 50
90.000003
 51
150
  0
ARC
  8
0
  6
CONTINUOUS
 62
     7
 10
757.60284
 20
-5.8104239
 40
7.5
 50
270
 51
293.89551
  0
ARC
  8
0
  6
CONTINUOUS
 62
     7
 10
764.69159
 20
-21.810425
 40
10
 50
90.000003
 51
113.89551
  0
ARC
  8
0
  6
CONTINUOUS
 62
     7
 10
570.94879
 20
-108.25785
 40
9
 50
63.474649
 51
90.000003
  0
ARC
  8
0
  6
CONTINUOUS
 62
     7
 10
579.43408
 20
-91.257851
 40
10
 50
243.47465
 51
270
  0
ARC
  8
0
  6
CONTINUOUS
 62
     7
 10
555.27893
 20
-94.257851
 40
5
 50
210
 51
270
  0
ARC
  8
0
  6
CONTINUOUS
 62
     7
 10
555.27893
 20
-164.25784
 40
5
 50
90.000003
 51
150
  0
ARC
  8
0
  6
CONTINUOUS
 62
     7
 10
579.43408
 20
-167.25784
 40
10
 50
90.000003
 51
116.52535
  0
ARC
  8
0
  6
CONTINUOUS
 62
     7
 10
570.94879
 20
-150.25784
 40
9
 50
270
 51
296.52535
  0
ARC
  8
0
  6
CONTINUOUS
 62
     7
 10
852.42139
 20
-99.619926
 40
9.5
 50
63.82305
 51
90.000003
  0
ARC
  8
0
  6
CONTINUOUS
 62
     7
 10
861.02368
 20
-82.119926
 40
10
 50
243.82304
 51
270
  0
ARC
  8
0
  6
CONTINUOUS
 62
     7
 10
821.75146
 20
-85.119926
 40
5
 50
210
 51
270
  0
ARC
  8
0
  6
CONTINUOUS
 62
     7
 10
821.75146
 20
-168.11993
 40
5
 50
90.000003
 51
150
  0
ARC
  8
0
  6
CONTINUOUS
 62
     7
 10
852.42139
 20
-153.61993
 40
9.5
 50
270
 51
296.17695
  0
ARC
  8
0
  6
CONTINUOUS
 62
     7
 10
861.02368
 20
-171.11993
 40
10
 50
90.000003
 51
116.17696
  0
ARC
  8
0
  6
CONTINUOUS
 62
     7
 10
691.99988
 20
-302.50058
 40
10
 50
62.560763
 51
90.000003
  0
ARC
  8
0
  6
CONTINUOUS
 62
     7
 10
715.12646
 20
-288.75058
 40
6
 50
270
 51
324.31468
  0
ARC
  8
0
  6
CONTINUOUS
 62
     7
 10
701.216
 20
-284.75058
 40
10
 50
242.56076
 51
270
  0
ARC
  8
0
  6
CONTINUOUS
 62
     7
 10
672.84106
 20
-287.50058
 40
5
 50
194.47751
 51
270
  0
ARC
  8
0
  6
CONTINUOUS
 62
     7
 10
672.84106
 20
-388.00058
 40
5
 50
90.000003
 51
165.52249
  0
ARC
  8
0
  6
CONTINUOUS
 62
     7
 10
715.12646
 20
-386.75058
 40
6
 50
35.685334
 51
90.000003
  0
ARC
  8
0
  6
CONTINUOUS
 62
     7
 10
701.216
 20
-390.75058
 40
10
 50
90.000003
 51
117.43924
  0
ARC
  8
0
  6
CONTINUOUS
 62
     7
 10
691.99988
 20
-373.00058
 40
10
 50
270
 51
297.43924
  0
ARC
  8
0
  6
CONTINUOUS
 62
     7
 10
692.17786
 20
-477.38745
 40
10.5
 50
59.980324
 51
90.000003
  0
ARC
  8
0
  6
CONTINUOUS
 62
     7
 10
702.4339
 20
-459.63745
 40
10
 50
239.98033
 51
270
  0
ARC
  8
0
  6
CONTINUOUS
 62
     7
 10
717.09528
 20
-464.63745
 40
5
 50
270
 51
336.42182
  0
ARC
  8
0
  6
CONTINUOUS
 62
     7
 10
673.01904
 20
-461.88745
 40
5
 50
194.47751
 51
270
  0
ARC
  8
0
  6
CONTINUOUS
 62
     7
 10
673.01904
 20
-576.38745
 40
5
 50
90.000003
 51
165.52249
  0
ARC
  8
0
  6
CONTINUOUS
 62
     7
 10
692.17786
 20
-560.88745
 40
10.5
 50
270
 51
300.01968
  0
ARC
  8
0
  6
CONTINUOUS
 62
     7
 10
702.4339
 20
-578.63745
 40
10
 50
90.000003
 51
120.01967
  0
ARC
  8
0
  6
CONTINUOUS
 62
     7
 10
717.09528
 20
-573.63745
 40
5
 50
23.578178
 51
90.000003
  0
CIRCLE
  8
0
  6
CONTINUOUS
 62
     7
 10
533.99988
 20
-337.75058
 40
40.400002
  0
CIRCLE
  8
0
  6
CONTINUOUS
 62
     7
 10
533.99988
 20
-337.75058
 40
40.935898
  0
CIRCLE
  8
0
  6
CONTINUOUS
 62
     7
 10
533.99988
 20
-337.75058
 40
38.650002
  0
CIRCLE
  8
0
  6
CONTINUOUS
 62
     7
 10
534.17786
 20
-519.13745
 40
46.849998
  0
CIRCLE
  8
0
  6
CONTINUOUS
 62
     7
 10
534.17786
 20
-519.13745
 40
47.385899
  0
CIRCLE
  8
0
  6
CONTINUOUS
 62
     7
 10
534.17786
 20
-519.13745
 40
45.099998
  0
CIRCLE
  8
0
  6
CONTINUOUS
 62
     7
 10
356.72501
 20
142.95
 40
9
  0
CIRCLE
  8
0
  6
CONTINUOUS
 62
     7
 10
356.72501
 20
142.95
 40
10.55
  0
CIRCLE
  8
0
  6
CONTINUOUS
 62
     7
 10
356.72501
 20
142.95
 40
11.085898
  0
CIRCLE
  8
0
  6
CONTINUOUS
 62
     7
 10
529.375
 20
142.95
 40
11.2
  0
CIRCLE
  8
0
  6
CONTINUOUS
 62
     7
 10
529.375
 20
142.95
 40
12.75
  0
CIRCLE
  8
0
  6
CONTINUOUS
 62
     7
 10
529.375
 20
142.95
 40
13.285898
  0
CIRCLE
  8
0
  6
CONTINUOUS
 62
     7
 10
700.07501
 20
142.95
 40
16.035898
  0
CIRCLE
  8
0
  6
CONTINUOUS
 62
     7
 10
700.07501
 20
142.95
 40
13.95
  0
CIRCLE
  8
0
  6
CONTINUOUS
 62
     7
 10
700.07501
 20
142.95
 40
15.5
  0
CIRCLE
  8
0
  6
CONTINUOUS
 62
     7
 10
424.75122
 20
14.915637
 40
18.9
  0
CIRCLE
  8
0
  6
CONTINUOUS
 62
     7
 10
424.75122
 20
14.915637
 40
19.435898
  0
CIRCLE
  8
0
  6
CONTINUOUS
 62
     7
 10
424.75122
 20
14.915637
 40
17.35
  0
CIRCLE
  8
0
  6
CONTINUOUS
 62
     7
 10
651.60284
 20
13.189576
 40
23.35
  0
CIRCLE
  8
0
  6
CONTINUOUS
 62
     7
 10
651.60284
 20
13.189576
 40
23.885899
  0
CIRCLE
  8
0
  6
CONTINUOUS
 62
     7
 10
651.60284
 20
13.189576
 40
21.700001
  0
CIRCLE
  8
0
  6
CONTINUOUS
 62
     7
 10
465.94879
 20
-129.25784
 40
26.450001
  0
CIRCLE
  8
0
  6
CONTINUOUS
 62
     7
 10
465.94879
 20
-129.25784
 40
26.985899
  0
CIRCLE
  8
0
  6
CONTINUOUS
 62
     7
 10
465.94879
 20
-129.25784
 40
24.700001
  0
CIRCLE
  8
0
  6
CONTINUOUS
 62
     7
 10
709.42139
 20
-126.61993
 40
32.450001
  0
CIRCLE
  8
0
  6
CONTINUOUS
 62
     7
 10
709.42139
 20
-126.61993
 40
32.985897
  0
CIRCLE
  8
0
  6
CONTINUOUS
 62
     7
 10
709.42139
 20
-126.61993
 40
30.700001
  0
TEXT
  8
0
  6
CONTINUOUS
 62
     7
 10
-215.34179
 20
174.70581
 40
10
 41
1.0071429
  1
3/8x1/2
  0
TEXT
  8
0
  6
CONTINUOUS
 62
     7
 10
-31.845337
 20
174.70581
 40
10
 41
1.0178573
  1
1/2
  0
TEXT
  8
0
  6
CONTINUOUS
 62
     7
 10
157.38539
 20
177.57295
 40
10
 41
1.0178573
  1
3/4
  0
TEXT
  8
0
  6
CONTINUOUS
 62
     7
 10
-130.76139
 20
44.251305
 40
10
 41
1.0714291
  1
1
  0
TEXT
  8
0
  6
CONTINUOUS
 62
     7
 10
88.574215
 20
45.684872
 40
10
 41
1.0129871
  1
11/4
  0
TEXT
  8
0
  6
CONTINUOUS
 62
     7
 10
-167.82979
 20
-84.213577
 40
10
 41
1.0129871
  1
11/2
  0
TEXT
  8
0
  6
CONTINUOUS
 62
     7
 10
99.348705
 20
-74.1213
 40
10
 41
1.0714291
  1
2
  0
TEXT
  8
0
  6
CONTINUOUS
 62
     7
 10
-47.018036
 20
-260.99715
 40
10
 41
1.0129871
  1
21/2
  0
TEXT
  8
0
  6
CONTINUOUS
 62
     7
 10
-28.261421
 20
-450.32898
 40
10
 41
1.0714291
  1
3
  0
TEXT
  8
0
  6
CONTINUOUS
 62
     7
 10
-290.44208
 20
221.09485
 40
15
 41
0.84306452
  1
ＬＡ　めすアダプタ－　（ＡＱ）
  0
TEXT
  8
0
  6
CONTINUOUS
 62
     7
 10
392.81608
 20
169.175
 40
10
 41
1.0071429
  1
3/8x1/2
  0
TEXT
  8
0
  6
CONTINUOUS
 62
     7
 10
585.78062
 20
168.36185
 40
10
 41
1.0178573
  1
1/2
  0
TEXT
  8
0
  6
CONTINUOUS
 62
     7
 10
772.33604
 20
169.8
 40
10
 41
1.0178573
  1
3/4
  0
TEXT
  8
0
  6
CONTINUOUS
 62
     7
 10
507.29228
 20
46.14064
 40
10
 41
1.0714291
  1
1
  0
TEXT
  8
0
  6
CONTINUOUS
 62
     7
 10
724.43144
 20
48.764568
 40
10
 41
1.0129871
  1
11/4
  0
TEXT
  8
0
  6
CONTINUOUS
 62
     7
 10
544.75236
 20
-91.557846
 40
10
 41
1.0129871
  1
11/2
  0
TEXT
  8
0
  6
CONTINUOUS
 62
     7
 10
823.82493
 20
-82.26992
 40
10
 41
1.0714291
  1
2
  0
TEXT
  8
0
  6
CONTINUOUS
 62
     7
 10
672.30345
 20
-280.80057
 40
10
 41
1.0129871
  1
21/2
  0
TEXT
  8
0
  6
CONTINUOUS
 62
     7
 10
682.80638
 20
-457.28745
 40
10
 41
1.0714291
  1
3
  0
TEXT
  8
0
  6
CONTINUOUS
 62
     7
 10
319.22693
 20
220.87833
 40
15
 41
0.84202696
  1
ＨＩ－ＬＡ（Ｐ－ＬＡ）　めすアダプタ－　（ＡＱ）
  0
TEXT
  8
0
  6
CONTINUOUS
 62
     7
 10
521.3455
 20
-267.88446
 40
10
 41
1.0129871
  1
21/2
  0
TEXT
  8
0
  6
CONTINUOUS
 62
     7
 10
529.01347
 20
-446.08145
 40
10
 41
1.0714291
  1
3
  0
TEXT
  8
0
  6
CONTINUOUS
 62
     7
 10
699.05192
 20
223.59485
 40
10
 41
0.84195842
  1
ＨＩ－ＬＡとＰ－ＬＡの寸法は同じになっております。
  0
LINE
  8
0
  6
CONTINUOUS
 62
     7
 10
-147.72879
 20
136.8317
 11
-147.72879
 21
136.00996
  0
LINE
  8
0
  6
CONTINUOUS
 62
     7
 10
-148.32879
 20
136.8317
 11
-148.32879
 21
136.00996
  0
LINE
  8
0
  6
CONTINUOUS
 62
     7
 10
-148.32879
 20
131.65343
 11
-148.32879
 21
130.8317
  0
LINE
  8
0
  6
CONTINUOUS
 62
     7
 10
-147.72879
 20
131.65343
 11
-147.72879
 21
130.8317
  0
LINE
  8
0
  6
CONTINUOUS
 62
     7
 10
-148.32879
 20
135.40778
 11
-148.32879
 21
133.8317
  0
LINE
  8
0
  6
CONTINUOUS
 62
     7
 10
-147.72879
 20
135.40778
 11
-147.72879
 21
133.8317
  0
ARC
  8
0
  6
CONTINUOUS
 62
     7
 10
-146.82879
 20
133.8317
 40
1.2
 50
306.00832
 51
53.991676
  0
ARC
  8
0
  6
CONTINUOUS
 62
     7
 10
-146.82879
 20
133.8317
 40
1.8
 50
306.00832
 51
53.991676
  0
ARC
  8
0
  6
CONTINUOUS
 62
     7
 10
-149.22879
 20
133.8317
 40
1.2
 50
126.00833
 51
233.99168
  0
ARC
  8
0
  6
CONTINUOUS
 62
     7
 10
-149.22879
 20
133.8317
 40
1.8
 50
126.00833
 51
233.99168
  0
ARC
  8
0
  6
CONTINUOUS
 62
     7
 10
-148.02879
 20
132.18054
 40
3.8411539
 50
53.991676
 51
85.520553
  0
ARC
  8
0
  6
CONTINUOUS
 62
     7
 10
-148.02879
 20
132.18054
 40
3.241154
 50
53.991676
 51
84.689121
  0
ARC
  8
0
  6
CONTINUOUS
 62
     7
 10
-148.02879
 20
135.48285
 40
3.241154
 50
233.99167
 51
306.00832
  0
ARC
  8
0
  6
CONTINUOUS
 62
     7
 10
-148.02879
 20
135.48285
 40
3.8411539
 50
233.99167
 51
265.52055
  0
ARC
  8
0
  6
CONTINUOUS
 62
     7
 10
-148.02879
 20
136.6067
 40
0.375
 50
36.869897
 51
143.1301
  0
ARC
  8
0
  6
CONTINUOUS
 62
     7
 10
-148.02879
 20
134.0567
 40
0.375
 50
216.8699
 51
323.1301
  0
ARC
  8
0
  6
CONTINUOUS
 62
     7
 10
-148.02879
 20
131.0567
 40
0.375
 50
216.8699
 51
323.1301
  0
ARC
  8
0
  6
CONTINUOUS
 62
     7
 10
-148.02879
 20
135.48285
 40
3.8411539
 50
274.47945
 51
306.00832
  0
ARC
  8
0
  6
CONTINUOUS
 62
     7
 10
-148.02879
 20
132.18054
 40
3.241154
 50
95.310878
 51
126.00833
  0
ARC
  8
0
  6
CONTINUOUS
 62
     7
 10
-148.02879
 20
132.18054
 40
3.8411539
 50
94.479452
 51
126.00833
  0
LINE
  8
0
  6
CONTINUOUS
 62
     7
 10
22.921206
 20
136.8317
 11
22.921206
 21
136.00996
  0
LINE
  8
0
  6
CONTINUOUS
 62
     7
 10
22.321206
 20
136.8317
 11
22.321206
 21
136.00996
  0
LINE
  8
0
  6
CONTINUOUS
 62
     7
 10
22.321206
 20
131.65343
 11
22.321206
 21
130.8317
  0
LINE
  8
0
  6
CONTINUOUS
 62
     7
 10
22.921206
 20
131.65343
 11
22.921206
 21
130.8317
  0
LINE
  8
0
  6
CONTINUOUS
 62
     7
 10
22.321206
 20
135.40778
 11
22.321206
 21
133.8317
  0
LINE
  8
0
  6
CONTINUOUS
 62
     7
 10
22.921206
 20
135.40778
 11
22.921206
 21
133.8317
  0
ARC
  8
0
  6
CONTINUOUS
 62
     7
 10
23.821206
 20
133.8317
 40
1.2
 50
306.00832
 51
53.991676
  0
ARC
  8
0
  6
CONTINUOUS
 62
     7
 10
23.821206
 20
133.8317
 40
1.8
 50
306.00832
 51
53.991676
  0
ARC
  8
0
  6
CONTINUOUS
 62
     7
 10
21.421206
 20
133.8317
 40
1.2
 50
126.00833
 51
233.99168
  0
ARC
  8
0
  6
CONTINUOUS
 62
     7
 10
21.421206
 20
133.8317
 40
1.8
 50
126.00833
 51
233.99168
  0
ARC
  8
0
  6
CONTINUOUS
 62
     7
 10
22.621206
 20
132.18054
 40
3.8411539
 50
53.991676
 51
85.520553
  0
ARC
  8
0
  6
CONTINUOUS
 62
     7
 10
22.621206
 20
132.18054
 40
3.241154
 50
53.991676
 51
84.689121
  0
ARC
  8
0
  6
CONTINUOUS
 62
     7
 10
22.621206
 20
135.48285
 40
3.241154
 50
233.99167
 51
306.00832
  0
ARC
  8
0
  6
CONTINUOUS
 62
     7
 10
22.621206
 20
135.48285
 40
3.8411539
 50
233.99167
 51
265.52055
  0
ARC
  8
0
  6
CONTINUOUS
 62
     7
 10
22.621206
 20
136.6067
 40
0.375
 50
36.869897
 51
143.1301
  0
ARC
  8
0
  6
CONTINUOUS
 62
     7
 10
22.621206
 20
134.0567
 40
0.375
 50
216.8699
 51
323.1301
  0
ARC
  8
0
  6
CONTINUOUS
 62
     7
 10
22.621206
 20
131.0567
 40
0.375
 50
216.8699
 51
323.1301
  0
ARC
  8
0
  6
CONTINUOUS
 62
     7
 10
22.621206
 20
135.48285
 40
3.8411539
 50
274.47945
 51
306.00832
  0
ARC
  8
0
  6
CONTINUOUS
 62
     7
 10
22.621206
 20
132.18054
 40
3.241154
 50
95.310878
 51
126.00833
  0
ARC
  8
0
  6
CONTINUOUS
 62
     7
 10
22.621206
 20
132.18054
 40
3.8411539
 50
94.479452
 51
126.00833
  0
LINE
  8
0
  6
CONTINUOUS
 62
     7
 10
213.7712
 20
138.3317
 11
213.7712
 21
137.0991
  0
LINE
  8
0
  6
CONTINUOUS
 62
     7
 10
212.8712
 20
138.3317
 11
212.8712
 21
137.0991
  0
LINE
  8
0
  6
CONTINUOUS
 62
     7
 10
212.8712
 20
130.5643
 11
212.8712
 21
129.3317
  0
LINE
  8
0
  6
CONTINUOUS
 62
     7
 10
213.7712
 20
130.5643
 11
213.7712
 21
129.3317
  0
LINE
  8
0
  6
CONTINUOUS
 62
     7
 10
212.8712
 20
136.19582
 11
212.8712
 21
133.8317
  0
LINE
  8
0
  6
CONTINUOUS
 62
     7
 10
213.7712
 20
136.19582
 11
213.7712
 21
133.8317
  0
ARC
  8
0
  6
CONTINUOUS
 62
     7
 10
215.1212
 20
133.8317
 40
1.8
 50
306.00832
 51
53.991676
  0
ARC
  8
0
  6
CONTINUOUS
 62
     7
 10
215.1212
 20
133.8317
 40
2.7
 50
306.00832
 51
53.991676
  0
ARC
  8
0
  6
CONTINUOUS
 62
     7
 10
211.5212
 20
133.8317
 40
1.8
 50
126.00833
 51
233.99168
  0
ARC
  8
0
  6
CONTINUOUS
 62
     7
 10
211.5212
 20
133.8317
 40
2.7
 50
126.00833
 51
233.99168
  0
ARC
  8
0
  6
CONTINUOUS
 62
     7
 10
213.3212
 20
131.35496
 40
5.7617307
 50
53.991676
 51
85.520553
  0
ARC
  8
0
  6
CONTINUOUS
 62
     7
 10
213.3212
 20
131.35496
 40
4.8617306
 50
53.991676
 51
84.689121
  0
ARC
  8
0
  6
CONTINUOUS
 62
     7
 10
213.3212
 20
136.30843
 40
4.8617306
 50
233.99167
 51
306.00832
  0
ARC
  8
0
  6
CONTINUOUS
 62
     7
 10
213.3212
 20
136.30843
 40
5.7617307
 50
233.99167
 51
265.52055
  0
ARC
  8
0
  6
CONTINUOUS
 62
     7
 10
213.3212
 20
137.9942
 40
0.5625
 50
36.869897
 51
143.1301
  0
ARC
  8
0
  6
CONTINUOUS
 62
     7
 10
213.3212
 20
134.1692
 40
0.5625
 50
216.8699
 51
323.1301
  0
ARC
  8
0
  6
CONTINUOUS
 62
     7
 10
213.3212
 20
129.6692
 40
0.5625
 50
216.8699
 51
323.1301
  0
ARC
  8
0
  6
CONTINUOUS
 62
     7
 10
213.3212
 20
131.35496
 40
5.7617307
 50
94.479452
 51
126.00833
  0
ARC
  8
0
  6
CONTINUOUS
 62
     7
 10
213.3212
 20
131.35496
 40
4.8617306
 50
95.310878
 51
126.00833
  0
ARC
  8
0
  6
CONTINUOUS
 62
     7
 10
213.3212
 20
136.30843
 40
5.7617307
 50
274.47945
 51
306.00832
  0
LINE
  8
0
  6
CONTINUOUS
 62
     7
 10
-77.062604
 20
2.9115437
 11
-77.062604
 21
1.678944
  0
LINE
  8
0
  6
CONTINUOUS
 62
     7
 10
-77.962604
 20
2.9115437
 11
-77.962604
 21
1.678944
  0
LINE
  8
0
  6
CONTINUOUS
 62
     7
 10
-77.962604
 20
-4.8558565
 11
-77.962604
 21
-6.0884563
  0
LINE
  8
0
  6
CONTINUOUS
 62
     7
 10
-77.062604
 20
-4.8558565
 11
-77.062604
 21
-6.0884563
  0
LINE
  8
0
  6
CONTINUOUS
 62
     7
 10
-77.962604
 20
0.77567303
 11
-77.962604
 21
-1.5884563
  0
LINE
  8
0
  6
CONTINUOUS
 62
     7
 10
-77.062604
 20
0.77567303
 11
-77.062604
 21
-1.5884563
  0
ARC
  8
0
  6
CONTINUOUS
 62
     7
 10
-75.712604
 20
-1.5884563
 40
1.8
 50
306.00832
 51
53.991676
  0
ARC
  8
0
  6
CONTINUOUS
 62
     7
 10
-75.712604
 20
-1.5884563
 40
2.7
 50
306.00832
 51
53.991676
  0
ARC
  8
0
  6
CONTINUOUS
 62
     7
 10
-79.312604
 20
-1.5884563
 40
1.8
 50
126.00833
 51
233.99168
  0
ARC
  8
0
  6
CONTINUOUS
 62
     7
 10
-79.312604
 20
-1.5884563
 40
2.7
 50
126.00833
 51
233.99168
  0
ARC
  8
0
  6
CONTINUOUS
 62
     7
 10
-77.512604
 20
-4.0651871
 40
5.7617307
 50
53.991676
 51
85.520553
  0
ARC
  8
0
  6
CONTINUOUS
 62
     7
 10
-77.512604
 20
-4.0651871
 40
4.8617306
 50
53.991676
 51
84.689121
  0
ARC
  8
0
  6
CONTINUOUS
 62
     7
 10
-77.512604
 20
0.88827455
 40
4.8617306
 50
233.99167
 51
306.00832
  0
ARC
  8
0
  6
CONTINUOUS
 62
     7
 10
-77.512604
 20
0.88827455
 40
5.7617307
 50
233.99167
 51
265.52055
  0
ARC
  8
0
  6
CONTINUOUS
 62
     7
 10
-77.512604
 20
2.5740436
 40
0.5625
 50
36.869897
 51
143.1301
  0
ARC
  8
0
  6
CONTINUOUS
 62
     7
 10
-77.512604
 20
-1.2509563
 40
0.5625
 50
216.8699
 51
323.1301
  0
ARC
  8
0
  6
CONTINUOUS
 62
     7
 10
-77.512604
 20
-5.7509562
 40
0.5625
 50
216.8699
 51
323.1301
  0
ARC
  8
0
  6
CONTINUOUS
 62
     7
 10
-77.512604
 20
-4.0651871
 40
5.7617307
 50
94.479452
 51
126.00833
  0
ARC
  8
0
  6
CONTINUOUS
 62
     7
 10
-77.512604
 20
-4.0651871
 40
4.8617306
 50
95.310878
 51
126.00833
  0
ARC
  8
0
  6
CONTINUOUS
 62
     7
 10
-77.512604
 20
0.88827455
 40
5.7617307
 50
274.47945
 51
306.00832
  0
LINE
  8
0
  6
CONTINUOUS
 62
     7
 10
156.60614
 20
3.5764924
 11
156.60614
 21
2.3438927
  0
LINE
  8
0
  6
CONTINUOUS
 62
     7
 10
155.70614
 20
3.5764924
 11
155.70614
 21
2.3438927
  0
LINE
  8
0
  6
CONTINUOUS
 62
     7
 10
155.70614
 20
-4.1909078
 11
155.70614
 21
-5.4235076
  0
LINE
  8
0
  6
CONTINUOUS
 62
     7
 10
156.60614
 20
-4.1909078
 11
156.60614
 21
-5.4235076
  0
LINE
  8
0
  6
CONTINUOUS
 62
     7
 10
155.70614
 20
1.4406217
 11
155.70614
 21
-0.92350757
  0
LINE
  8
0
  6
CONTINUOUS
 62
     7
 10
156.60614
 20
1.4406217
 11
156.60614
 21
-0.92350757
  0
ARC
  8
0
  6
CONTINUOUS
 62
     7
 10
157.95614
 20
-0.92350757
 40
1.8
 50
306.00832
 51
53.991676
  0
ARC
  8
0
  6
CONTINUOUS
 62
     7
 10
157.95614
 20
-0.92350757
 40
2.7
 50
306.00832
 51
53.991676
  0
ARC
  8
0
  6
CONTINUOUS
 62
     7
 10
154.35614
 20
-0.92350757
 40
1.8
 50
126.00833
 51
233.99168
  0
ARC
  8
0
  6
CONTINUOUS
 62
     7
 10
154.35614
 20
-0.92350757
 40
2.7
 50
126.00833
 51
233.99168
  0
ARC
  8
0
  6
CONTINUOUS
 62
     7
 10
156.15614
 20
-3.4002384
 40
5.7617307
 50
53.991676
 51
85.520553
  0
ARC
  8
0
  6
CONTINUOUS
 62
     7
 10
156.15614
 20
-3.4002384
 40
4.8617306
 50
53.991676
 51
84.689121
  0
ARC
  8
0
  6
CONTINUOUS
 62
     7
 10
156.15614
 20
1.5532233
 40
4.8617306
 50
233.99167
 51
306.00832
  0
ARC
  8
0
  6
CONTINUOUS
 62
     7
 10
156.15614
 20
1.5532233
 40
5.7617307
 50
233.99167
 51
265.52055
  0
ARC
  8
0
  6
CONTINUOUS
 62
     7
 10
156.15614
 20
3.2389923
 40
0.5625
 50
36.869897
 51
143.1301
  0
ARC
  8
0
  6
CONTINUOUS
 62
     7
 10
156.15614
 20
-0.58600757
 40
0.5625
 50
216.8699
 51
323.1301
  0
ARC
  8
0
  6
CONTINUOUS
 62
     7
 10
156.15614
 20
-5.0860075
 40
0.5625
 50
216.8699
 51
323.1301
  0
ARC
  8
0
  6
CONTINUOUS
 62
     7
 10
156.15614
 20
-3.4002384
 40
5.7617307
 50
94.479452
 51
126.00833
  0
ARC
  8
0
  6
CONTINUOUS
 62
     7
 10
156.15614
 20
-3.4002384
 40
4.8617306
 50
95.310878
 51
126.00833
  0
ARC
  8
0
  6
CONTINUOUS
 62
     7
 10
156.15614
 20
1.5532233
 40
5.7617307
 50
274.47945
 51
306.00832
  0
LINE
  8
0
  6
CONTINUOUS
 62
     7
 10
-96.836331
 20
-129.18909
 11
-96.836331
 21
-130.42169
  0
LINE
  8
0
  6
CONTINUOUS
 62
     7
 10
-97.736331
 20
-129.18909
 11
-97.736331
 21
-130.42169
  0
LINE
  8
0
  6
CONTINUOUS
 62
     7
 10
-97.736331
 20
-136.95649
 11
-97.736331
 21
-138.18909
  0
LINE
  8
0
  6
CONTINUOUS
 62
     7
 10
-96.836331
 20
-136.95649
 11
-96.836331
 21
-138.18909
  0
LINE
  8
0
  6
CONTINUOUS
 62
     7
 10
-97.736331
 20
-131.32496
 11
-97.736331
 21
-133.68909
  0
LINE
  8
0
  6
CONTINUOUS
 62
     7
 10
-96.836331
 20
-131.32496
 11
-96.836331
 21
-133.68909
  0
ARC
  8
0
  6
CONTINUOUS
 62
     7
 10
-95.486331
 20
-133.68909
 40
1.8
 50
306.00832
 51
53.991676
  0
ARC
  8
0
  6
CONTINUOUS
 62
     7
 10
-95.486331
 20
-133.68909
 40
2.7
 50
306.00832
 51
53.991676
  0
ARC
  8
0
  6
CONTINUOUS
 62
     7
 10
-99.086331
 20
-133.68909
 40
1.8
 50
126.00833
 51
233.99168
  0
ARC
  8
0
  6
CONTINUOUS
 62
     7
 10
-99.086331
 20
-133.68909
 40
2.7
 50
126.00833
 51
233.99168
  0
ARC
  8
0
  6
CONTINUOUS
 62
     7
 10
-97.286331
 20
-136.16582
 40
5.7617307
 50
53.991676
 51
85.520553
  0
ARC
  8
0
  6
CONTINUOUS
 62
     7
 10
-97.286331
 20
-136.16582
 40
4.8617306
 50
53.991676
 51
84.689121
  0
ARC
  8
0
  6
CONTINUOUS
 62
     7
 10
-97.286331
 20
-131.21236
 40
4.8617306
 50
233.99167
 51
306.00832
  0
ARC
  8
0
  6
CONTINUOUS
 62
     7
 10
-97.286331
 20
-131.21236
 40
5.7617307
 50
233.99167
 51
265.52055
  0
ARC
  8
0
  6
CONTINUOUS
 62
     7
 10
-97.286331
 20
-129.52659
 40
0.5625
 50
36.869897
 51
143.1301
  0
ARC
  8
0
  6
CONTINUOUS
 62
     7
 10
-97.286331
 20
-133.35159
 40
0.5625
 50
216.8699
 51
323.1301
  0
ARC
  8
0
  6
CONTINUOUS
 62
     7
 10
-97.286331
 20
-137.85159
 40
0.5625
 50
216.8699
 51
323.1301
  0
ARC
  8
0
  6
CONTINUOUS
 62
     7
 10
-97.286331
 20
-136.16582
 40
5.7617307
 50
94.479452
 51
126.00833
  0
ARC
  8
0
  6
CONTINUOUS
 62
     7
 10
-97.286331
 20
-136.16582
 40
4.8617306
 50
95.310878
 51
126.00833
  0
ARC
  8
0
  6
CONTINUOUS
 62
     7
 10
-97.286331
 20
-131.21236
 40
5.7617307
 50
274.47945
 51
306.00832
  0
LINE
  8
0
  6
CONTINUOUS
 62
     7
 10
160.0951
 20
-127.6982
 11
160.0951
 21
-128.9308
  0
LINE
  8
0
  6
CONTINUOUS
 62
     7
 10
159.1951
 20
-127.6982
 11
159.1951
 21
-128.9308
  0
LINE
  8
0
  6
CONTINUOUS
 62
     7
 10
159.1951
 20
-135.4656
 11
159.1951
 21
-136.6982
  0
LINE
  8
0
  6
CONTINUOUS
 62
     7
 10
160.0951
 20
-135.4656
 11
160.0951
 21
-136.6982
  0
LINE
  8
0
  6
CONTINUOUS
 62
     7
 10
159.1951
 20
-129.83407
 11
159.1951
 21
-132.1982
  0
LINE
  8
0
  6
CONTINUOUS
 62
     7
 10
160.0951
 20
-129.83407
 11
160.0951
 21
-132.1982
  0
ARC
  8
0
  6
CONTINUOUS
 62
     7
 10
161.4451
 20
-132.1982
 40
1.8
 50
306.00832
 51
53.991676
  0
ARC
  8
0
  6
CONTINUOUS
 62
     7
 10
161.4451
 20
-132.1982
 40
2.7
 50
306.00832
 51
53.991676
  0
ARC
  8
0
  6
CONTINUOUS
 62
     7
 10
157.8451
 20
-132.1982
 40
1.8
 50
126.00833
 51
233.99168
  0
ARC
  8
0
  6
CONTINUOUS
 62
     7
 10
157.8451
 20
-132.1982
 40
2.7
 50
126.00833
 51
233.99168
  0
ARC
  8
0
  6
CONTINUOUS
 62
     7
 10
159.6451
 20
-134.67493
 40
5.7617307
 50
53.991676
 51
85.520553
  0
ARC
  8
0
  6
CONTINUOUS
 62
     7
 10
159.6451
 20
-134.67493
 40
4.8617306
 50
53.991676
 51
84.689121
  0
ARC
  8
0
  6
CONTINUOUS
 62
     7
 10
159.6451
 20
-129.72147
 40
4.8617306
 50
233.99167
 51
306.00832
  0
ARC
  8
0
  6
CONTINUOUS
 62
     7
 10
159.6451
 20
-129.72147
 40
5.7617307
 50
233.99167
 51
265.52055
  0
ARC
  8
0
  6
CONTINUOUS
 62
     7
 10
159.6451
 20
-128.0357
 40
0.5625
 50
36.869897
 51
143.1301
  0
ARC
  8
0
  6
CONTINUOUS
 62
     7
 10
159.6451
 20
-131.8607
 40
0.5625
 50
216.8699
 51
323.1301
  0
ARC
  8
0
  6
CONTINUOUS
 62
     7
 10
159.6451
 20
-136.3607
 40
0.5625
 50
216.8699
 51
323.1301
  0
ARC
  8
0
  6
CONTINUOUS
 62
     7
 10
159.6451
 20
-134.67493
 40
5.7617307
 50
94.479452
 51
126.00833
  0
ARC
  8
0
  6
CONTINUOUS
 62
     7
 10
159.6451
 20
-134.67493
 40
4.8617306
 50
95.310878
 51
126.00833
  0
ARC
  8
0
  6
CONTINUOUS
 62
     7
 10
159.6451
 20
-129.72147
 40
5.7617307
 50
274.47945
 51
306.00832
  0
LINE
  8
0
  6
CONTINUOUS
 62
     7
 10
34.261456
 20
-324.47617
 11
34.261456
 21
-326.5305
  0
LINE
  8
0
  6
CONTINUOUS
 62
     7
 10
32.761456
 20
-324.47617
 11
32.761456
 21
-326.5305
  0
LINE
  8
0
  6
CONTINUOUS
 62
     7
 10
32.761456
 20
-337.42183
 11
32.761456
 21
-339.47617
  0
LINE
  8
0
  6
CONTINUOUS
 62
     7
 10
34.261456
 20
-337.42183
 11
34.261456
 21
-339.47617
  0
LINE
  8
0
  6
CONTINUOUS
 62
     7
 10
32.761456
 20
-328.03595
 11
32.761456
 21
-331.97617
  0
LINE
  8
0
  6
CONTINUOUS
 62
     7
 10
34.261456
 20
-328.03595
 11
34.261456
 21
-331.97617
  0
ARC
  8
0
  6
CONTINUOUS
 62
     7
 10
36.511456
 20
-331.97617
 40
3
 50
306.00832
 51
53.991676
  0
ARC
  8
0
  6
CONTINUOUS
 62
     7
 10
36.511456
 20
-331.97617
 40
4.5
 50
306.00832
 51
53.991676
  0
ARC
  8
0
  6
CONTINUOUS
 62
     7
 10
30.511456
 20
-331.97617
 40
3
 50
126.00833
 51
233.99168
  0
ARC
  8
0
  6
CONTINUOUS
 62
     7
 10
30.511456
 20
-331.97617
 40
4.5
 50
126.00833
 51
233.99168
  0
ARC
  8
0
  6
CONTINUOUS
 62
     7
 10
33.511456
 20
-336.10405
 40
9.6028843
 50
53.991676
 51
85.520553
  0
ARC
  8
0
  6
CONTINUOUS
 62
     7
 10
33.511456
 20
-336.10405
 40
8.1028843
 50
53.991676
 51
84.689121
  0
ARC
  8
0
  6
CONTINUOUS
 62
     7
 10
33.511456
 20
-327.84828
 40
8.1028843
 50
233.99167
 51
306.00832
  0
ARC
  8
0
  6
CONTINUOUS
 62
     7
 10
33.511456
 20
-327.84828
 40
9.6028843
 50
233.99167
 51
265.52055
  0
ARC
  8
0
  6
CONTINUOUS
 62
     7
 10
33.511456
 20
-325.03867
 40
0.9375
 50
36.869897
 51
143.1301
  0
ARC
  8
0
  6
CONTINUOUS
 62
     7
 10
33.511456
 20
-331.41367
 40
0.9375
 50
216.8699
 51
323.1301
  0
ARC
  8
0
  6
CONTINUOUS
 62
     7
 10
33.511456
 20
-338.91367
 40
0.9375
 50
216.8699
 51
323.1301
  0
ARC
  8
0
  6
CONTINUOUS
 62
     7
 10
33.511456
 20
-336.10405
 40
9.6028843
 50
94.479452
 51
126.00833
  0
ARC
  8
0
  6
CONTINUOUS
 62
     7
 10
33.511456
 20
-336.10405
 40
8.1028843
 50
95.310878
 51
126.00833
  0
ARC
  8
0
  6
CONTINUOUS
 62
     7
 10
33.511456
 20
-327.84828
 40
9.6028843
 50
274.47945
 51
306.00832
  0
LINE
  8
0
  6
CONTINUOUS
 62
     7
 10
47.248837
 20
-520.97583
 11
47.248837
 21
-523.03016
  0
LINE
  8
0
  6
CONTINUOUS
 62
     7
 10
45.748837
 20
-520.97583
 11
45.748837
 21
-523.03016
  0
LINE
  8
0
  6
CONTINUOUS
 62
     7
 10
45.748837
 20
-533.9215
 11
45.748837
 21
-535.97583
  0
LINE
  8
0
  6
CONTINUOUS
 62
     7
 10
47.248837
 20
-533.9215
 11
47.248837
 21
-535.97583
  0
LINE
  8
0
  6
CONTINUOUS
 62
     7
 10
45.748837
 20
-524.53561
 11
45.748837
 21
-528.47583
  0
LINE
  8
0
  6
CONTINUOUS
 62
     7
 10
47.248837
 20
-524.53561
 11
47.248837
 21
-528.47583
  0
ARC
  8
0
  6
CONTINUOUS
 62
     7
 10
49.498837
 20
-528.47583
 40
3
 50
306.00832
 51
53.991676
  0
ARC
  8
0
  6
CONTINUOUS
 62
     7
 10
49.498837
 20
-528.47583
 40
4.5
 50
306.00832
 51
53.991676
  0
ARC
  8
0
  6
CONTINUOUS
 62
     7
 10
43.498837
 20
-528.47583
 40
3
 50
126.00833
 51
233.99168
  0
ARC
  8
0
  6
CONTINUOUS
 62
     7
 10
43.498837
 20
-528.47583
 40
4.5
 50
126.00833
 51
233.99168
  0
ARC
  8
0
  6
CONTINUOUS
 62
     7
 10
46.498837
 20
-532.60371
 40
9.6028843
 50
53.991676
 51
85.520553
  0
ARC
  8
0
  6
CONTINUOUS
 62
     7
 10
46.498837
 20
-532.60371
 40
8.1028843
 50
53.991676
 51
84.689121
  0
ARC
  8
0
  6
CONTINUOUS
 62
     7
 10
46.498837
 20
-524.34795
 40
8.1028843
 50
233.99167
 51
306.00832
  0
ARC
  8
0
  6
CONTINUOUS
 62
     7
 10
46.498837
 20
-524.34795
 40
9.6028843
 50
233.99167
 51
265.52055
  0
ARC
  8
0
  6
CONTINUOUS
 62
     7
 10
46.498837
 20
-521.53833
 40
0.9375
 50
36.869897
 51
143.1301
  0
ARC
  8
0
  6
CONTINUOUS
 62
     7
 10
46.498837
 20
-527.91333
 40
0.9375
 50
216.8699
 51
323.1301
  0
ARC
  8
0
  6
CONTINUOUS
 62
     7
 10
46.498837
 20
-535.41333
 40
0.9375
 50
216.8699
 51
323.1301
  0
ARC
  8
0
  6
CONTINUOUS
 62
     7
 10
46.498837
 20
-532.60371
 40
9.6028843
 50
94.479452
 51
126.00833
  0
ARC
  8
0
  6
CONTINUOUS
 62
     7
 10
46.498837
 20
-532.60371
 40
8.1028843
 50
95.310878
 51
126.00833
  0
ARC
  8
0
  6
CONTINUOUS
 62
     7
 10
46.498837
 20
-524.34795
 40
9.6028843
 50
274.47945
 51
306.00832
  0
LINE
  8
0
  6
CONTINUOUS
 62
     7
 10
435.02501
 20
145.95
 11
435.02501
 21
145.12826
  0
LINE
  8
0
  6
CONTINUOUS
 62
     7
 10
434.42501
 20
145.95
 11
434.42501
 21
145.12826
  0
LINE
  8
0
  6
CONTINUOUS
 62
     7
 10
434.42501
 20
140.77173
 11
434.42501
 21
139.95
  0
LINE
  8
0
  6
CONTINUOUS
 62
     7
 10
435.02501
 20
140.77173
 11
435.02501
 21
139.95
  0
LINE
  8
0
  6
CONTINUOUS
 62
     7
 10
434.42501
 20
144.52608
 11
434.42501
 21
142.95
  0
LINE
  8
0
  6
CONTINUOUS
 62
     7
 10
435.02501
 20
144.52608
 11
435.02501
 21
142.95
  0
ARC
  8
0
  6
CONTINUOUS
 62
     7
 10
435.92501
 20
142.95
 40
1.2
 50
306.00832
 51
53.991676
  0
ARC
  8
0
  6
CONTINUOUS
 62
     7
 10
435.92501
 20
142.95
 40
1.8
 50
306.00832
 51
53.991676
  0
ARC
  8
0
  6
CONTINUOUS
 62
     7
 10
433.52501
 20
142.95
 40
1.2
 50
126.00833
 51
233.99168
  0
ARC
  8
0
  6
CONTINUOUS
 62
     7
 10
433.52501
 20
142.95
 40
1.8
 50
126.00833
 51
233.99168
  0
ARC
  8
0
  6
CONTINUOUS
 62
     7
 10
434.72501
 20
141.29884
 40
3.8411539
 50
53.991676
 51
85.520553
  0
ARC
  8
0
  6
CONTINUOUS
 62
     7
 10
434.72501
 20
141.29884
 40
3.241154
 50
53.991676
 51
84.689121
  0
ARC
  8
0
  6
CONTINUOUS
 62
     7
 10
434.72501
 20
144.60115
 40
3.241154
 50
233.99167
 51
306.00832
  0
ARC
  8
0
  6
CONTINUOUS
 62
     7
 10
434.72501
 20
144.60115
 40
3.8411539
 50
233.99167
 51
265.52055
  0
ARC
  8
0
  6
CONTINUOUS
 62
     7
 10
434.72501
 20
145.725
 40
0.375
 50
36.869897
 51
143.1301
  0
ARC
  8
0
  6
CONTINUOUS
 62
     7
 10
434.72501
 20
143.175
 40
0.375
 50
216.8699
 51
323.1301
  0
ARC
  8
0
  6
CONTINUOUS
 62
     7
 10
434.72501
 20
140.175
 40
0.375
 50
216.8699
 51
323.1301
  0
ARC
  8
0
  6
CONTINUOUS
 62
     7
 10
434.72501
 20
144.60115
 40
3.8411539
 50
274.47945
 51
306.00832
  0
ARC
  8
0
  6
CONTINUOUS
 62
     7
 10
434.72501
 20
141.29884
 40
3.241154
 50
95.310878
 51
126.00833
  0
ARC
  8
0
  6
CONTINUOUS
 62
     7
 10
434.72501
 20
141.29884
 40
3.8411539
 50
94.479452
 51
126.00833
  0
LINE
  8
0
  6
CONTINUOUS
 62
     7
 10
605.675
 20
145.95
 11
605.675
 21
145.12826
  0
LINE
  8
0
  6
CONTINUOUS
 62
     7
 10
605.075
 20
145.95
 11
605.075
 21
145.12826
  0
LINE
  8
0
  6
CONTINUOUS
 62
     7
 10
605.075
 20
140.77173
 11
605.075
 21
139.95
  0
LINE
  8
0
  6
CONTINUOUS
 62
     7
 10
605.675
 20
140.77173
 11
605.675
 21
139.95
  0
LINE
  8
0
  6
CONTINUOUS
 62
     7
 10
605.075
 20
144.52608
 11
605.075
 21
142.95
  0
LINE
  8
0
  6
CONTINUOUS
 62
     7
 10
605.675
 20
144.52608
 11
605.675
 21
142.95
  0
ARC
  8
0
  6
CONTINUOUS
 62
     7
 10
606.575
 20
142.95
 40
1.2
 50
306.00832
 51
53.991676
  0
ARC
  8
0
  6
CONTINUOUS
 62
     7
 10
606.575
 20
142.95
 40
1.8
 50
306.00832
 51
53.991676
  0
ARC
  8
0
  6
CONTINUOUS
 62
     7
 10
604.175
 20
142.95
 40
1.2
 50
126.00833
 51
233.99168
  0
ARC
  8
0
  6
CONTINUOUS
 62
     7
 10
604.175
 20
142.95
 40
1.8
 50
126.00833
 51
233.99168
  0
ARC
  8
0
  6
CONTINUOUS
 62
     7
 10
605.375
 20
141.29884
 40
3.8411539
 50
53.991676
 51
85.520553
  0
ARC
  8
0
  6
CONTINUOUS
 62
     7
 10
605.375
 20
141.29884
 40
3.241154
 50
53.991676
 51
84.689121
  0
ARC
  8
0
  6
CONTINUOUS
 62
     7
 10
605.375
 20
144.60115
 40
3.241154
 50
233.99167
 51
306.00832
  0
ARC
  8
0
  6
CONTINUOUS
 62
     7
 10
605.375
 20
144.60115
 40
3.8411539
 50
233.99167
 51
265.52055
  0
ARC
  8
0
  6
CONTINUOUS
 62
     7
 10
605.375
 20
145.725
 40
0.375
 50
36.869897
 51
143.1301
  0
ARC
  8
0
  6
CONTINUOUS
 62
     7
 10
605.375
 20
143.175
 40
0.375
 50
216.8699
 51
323.1301
  0
ARC
  8
0
  6
CONTINUOUS
 62
     7
 10
605.375
 20
140.175
 40
0.375
 50
216.8699
 51
323.1301
  0
ARC
  8
0
  6
CONTINUOUS
 62
     7
 10
605.375
 20
144.60115
 40
3.8411539
 50
274.47945
 51
306.00832
  0
ARC
  8
0
  6
CONTINUOUS
 62
     7
 10
605.375
 20
141.29884
 40
3.241154
 50
95.310878
 51
126.00833
  0
ARC
  8
0
  6
CONTINUOUS
 62
     7
 10
605.375
 20
141.29884
 40
3.8411539
 50
94.479452
 51
126.00833
  0
LINE
  8
0
  6
CONTINUOUS
 62
     7
 10
786.52501
 20
147.45
 11
786.52501
 21
146.2174
  0
LINE
  8
0
  6
CONTINUOUS
 62
     7
 10
785.62501
 20
147.45
 11
785.62501
 21
146.2174
  0
LINE
  8
0
  6
CONTINUOUS
 62
     7
 10
785.62501
 20
139.6826
 11
785.62501
 21
138.45
  0
LINE
  8
0
  6
CONTINUOUS
 62
     7
 10
786.52501
 20
139.6826
 11
786.52501
 21
138.45
  0
LINE
  8
0
  6
CONTINUOUS
 62
     7
 10
785.62501
 20
145.31413
 11
785.62501
 21
142.95
  0
LINE
  8
0
  6
CONTINUOUS
 62
     7
 10
786.52501
 20
145.31413
 11
786.52501
 21
142.95
  0
ARC
  8
0
  6
CONTINUOUS
 62
     7
 10
787.87501
 20
142.95
 40
1.8
 50
306.00832
 51
53.991676
  0
ARC
  8
0
  6
CONTINUOUS
 62
     7
 10
787.87501
 20
142.95
 40
2.7
 50
306.00832
 51
53.991676
  0
ARC
  8
0
  6
CONTINUOUS
 62
     7
 10
784.27501
 20
142.95
 40
1.8
 50
126.00833
 51
233.99168
  0
ARC
  8
0
  6
CONTINUOUS
 62
     7
 10
784.27501
 20
142.95
 40
2.7
 50
126.00833
 51
233.99168
  0
ARC
  8
0
  6
CONTINUOUS
 62
     7
 10
786.07501
 20
140.47327
 40
5.7617307
 50
53.991676
 51
85.520553
  0
ARC
  8
0
  6
CONTINUOUS
 62
     7
 10
786.07501
 20
140.47327
 40
4.8617306
 50
53.991676
 51
84.689121
  0
ARC
  8
0
  6
CONTINUOUS
 62
     7
 10
786.07501
 20
145.42673
 40
4.8617306
 50
233.99167
 51
306.00832
  0
ARC
  8
0
  6
CONTINUOUS
 62
     7
 10
786.07501
 20
145.42673
 40
5.7617307
 50
233.99167
 51
265.52055
  0
ARC
  8
0
  6
CONTINUOUS
 62
     7
 10
786.07501
 20
147.1125
 40
0.5625
 50
36.869897
 51
143.1301
  0
ARC
  8
0
  6
CONTINUOUS
 62
     7
 10
786.07501
 20
143.2875
 40
0.5625
 50
216.8699
 51
323.1301
  0
ARC
  8
0
  6
CONTINUOUS
 62
     7
 10
786.07501
 20
138.7875
 40
0.5625
 50
216.8699
 51
323.1301
  0
ARC
  8
0
  6
CONTINUOUS
 62
     7
 10
786.07501
 20
140.47327
 40
5.7617307
 50
94.479452
 51
126.00833
  0
ARC
  8
0
  6
CONTINUOUS
 62
     7
 10
786.07501
 20
140.47327
 40
4.8617306
 50
95.310878
 51
126.00833
  0
ARC
  8
0
  6
CONTINUOUS
 62
     7
 10
786.07501
 20
145.42673
 40
5.7617307
 50
274.47945
 51
306.00832
  0
LINE
  8
0
  6
CONTINUOUS
 62
     7
 10
521.20122
 20
19.415637
 11
521.20122
 21
18.183037
  0
LINE
  8
0
  6
CONTINUOUS
 62
     7
 10
520.30122
 20
19.415637
 11
520.30122
 21
18.183037
  0
LINE
  8
0
  6
CONTINUOUS
 62
     7
 10
520.30122
 20
11.648237
 11
520.30122
 21
10.415637
  0
LINE
  8
0
  6
CONTINUOUS
 62
     7
 10
521.20122
 20
11.648237
 11
521.20122
 21
10.415637
  0
LINE
  8
0
  6
CONTINUOUS
 62
     7
 10
520.30122
 20
17.279766
 11
520.30122
 21
14.915637
  0
LINE
  8
0
  6
CONTINUOUS
 62
     7
 10
521.20122
 20
17.279766
 11
521.20122
 21
14.915637
  0
ARC
  8
0
  6
CONTINUOUS
 62
     7
 10
522.55122
 20
14.915637
 40
1.8
 50
306.00832
 51
53.991676
  0
ARC
  8
0
  6
CONTINUOUS
 62
     7
 10
522.55122
 20
14.915637
 40
2.7
 50
306.00832
 51
53.991676
  0
ARC
  8
0
  6
CONTINUOUS
 62
     7
 10
518.95122
 20
14.915637
 40
1.8
 50
126.00833
 51
233.99168
  0
ARC
  8
0
  6
CONTINUOUS
 62
     7
 10
518.95122
 20
14.915637
 40
2.7
 50
126.00833
 51
233.99168
  0
ARC
  8
0
  6
CONTINUOUS
 62
     7
 10
520.75122
 20
12.438906
 40
5.7617307
 50
53.991676
 51
85.520553
  0
ARC
  8
0
  6
CONTINUOUS
 62
     7
 10
520.75122
 20
12.438906
 40
4.8617306
 50
53.991676
 51
84.689121
  0
ARC
  8
0
  6
CONTINUOUS
 62
     7
 10
520.75122
 20
17.392368
 40
4.8617306
 50
233.99167
 51
306.00832
  0
ARC
  8
0
  6
CONTINUOUS
 62
     7
 10
520.75122
 20
17.392368
 40
5.7617307
 50
233.99167
 51
265.52055
  0
ARC
  8
0
  6
CONTINUOUS
 62
     7
 10
520.75122
 20
19.078137
 40
0.5625
 50
36.869897
 51
143.1301
  0
ARC
  8
0
  6
CONTINUOUS
 62
     7
 10
520.75122
 20
15.253137
 40
0.5625
 50
216.8699
 51
323.1301
  0
ARC
  8
0
  6
CONTINUOUS
 62
     7
 10
520.75122
 20
10.753137
 40
0.5625
 50
216.8699
 51
323.1301
  0
ARC
  8
0
  6
CONTINUOUS
 62
     7
 10
520.75122
 20
12.438906
 40
5.7617307
 50
94.479452
 51
126.00833
  0
ARC
  8
0
  6
CONTINUOUS
 62
     7
 10
520.75122
 20
12.438906
 40
4.8617306
 50
95.310878
 51
126.00833
  0
ARC
  8
0
  6
CONTINUOUS
 62
     7
 10
520.75122
 20
17.392368
 40
5.7617307
 50
274.47945
 51
306.00832
  0
LINE
  8
0
  6
CONTINUOUS
 62
     7
 10
749.05284
 20
17.689576
 11
749.05284
 21
16.456976
  0
LINE
  8
0
  6
CONTINUOUS
 62
     7
 10
748.15284
 20
17.689576
 11
748.15284
 21
16.456976
  0
LINE
  8
0
  6
CONTINUOUS
 62
     7
 10
748.15284
 20
9.9221759
 11
748.15284
 21
8.6895761
  0
LINE
  8
0
  6
CONTINUOUS
 62
     7
 10
749.05284
 20
9.9221759
 11
749.05284
 21
8.6895761
  0
LINE
  8
0
  6
CONTINUOUS
 62
     7
 10
748.15284
 20
15.553705
 11
748.15284
 21
13.189576
  0
LINE
  8
0
  6
CONTINUOUS
 62
     7
 10
749.05284
 20
15.553705
 11
749.05284
 21
13.189576
  0
ARC
  8
0
  6
CONTINUOUS
 62
     7
 10
750.40284
 20
13.189576
 40
1.8
 50
306.00832
 51
53.991676
  0
ARC
  8
0
  6
CONTINUOUS
 62
     7
 10
750.40284
 20
13.189576
 40
2.7
 50
306.00832
 51
53.991676
  0
ARC
  8
0
  6
CONTINUOUS
 62
     7
 10
746.80284
 20
13.189576
 40
1.8
 50
126.00833
 51
233.99168
  0
ARC
  8
0
  6
CONTINUOUS
 62
     7
 10
746.80284
 20
13.189576
 40
2.7
 50
126.00833
 51
233.99168
  0
ARC
  8
0
  6
CONTINUOUS
 62
     7
 10
748.60284
 20
10.712845
 40
5.7617307
 50
53.991676
 51
85.520553
  0
ARC
  8
0
  6
CONTINUOUS
 62
     7
 10
748.60284
 20
10.712845
 40
4.8617306
 50
53.991676
 51
84.689121
  0
ARC
  8
0
  6
CONTINUOUS
 62
     7
 10
748.60284
 20
15.666307
 40
4.8617306
 50
233.99167
 51
306.00832
  0
ARC
  8
0
  6
CONTINUOUS
 62
     7
 10
748.60284
 20
15.666307
 40
5.7617307
 50
233.99167
 51
265.52055
  0
ARC
  8
0
  6
CONTINUOUS
 62
     7
 10
748.60284
 20
17.352076
 40
0.5625
 50
36.869897
 51
143.1301
  0
ARC
  8
0
  6
CONTINUOUS
 62
     7
 10
748.60284
 20
13.527076
 40
0.5625
 50
216.8699
 51
323.1301
  0
ARC
  8
0
  6
CONTINUOUS
 62
     7
 10
748.60284
 20
9.0270762
 40
0.5625
 50
216.8699
 51
323.1301
  0
ARC
  8
0
  6
CONTINUOUS
 62
     7
 10
748.60284
 20
10.712845
 40
5.7617307
 50
94.479452
 51
126.00833
  0
ARC
  8
0
  6
CONTINUOUS
 62
     7
 10
748.60284
 20
10.712845
 40
4.8617306
 50
95.310878
 51
126.00833
  0
ARC
  8
0
  6
CONTINUOUS
 62
     7
 10
748.60284
 20
15.666307
 40
5.7617307
 50
274.47945
 51
306.00832
  0
LINE
  8
0
  6
CONTINUOUS
 62
     7
 10
565.39879
 20
-124.75784
 11
565.39879
 21
-125.99044
  0
LINE
  8
0
  6
CONTINUOUS
 62
     7
 10
564.49879
 20
-124.75784
 11
564.49879
 21
-125.99044
  0
LINE
  8
0
  6
CONTINUOUS
 62
     7
 10
564.49879
 20
-132.52524
 11
564.49879
 21
-133.75784
  0
LINE
  8
0
  6
CONTINUOUS
 62
     7
 10
565.39879
 20
-132.52524
 11
565.39879
 21
-133.75784
  0
LINE
  8
0
  6
CONTINUOUS
 62
     7
 10
564.49879
 20
-126.89371
 11
564.49879
 21
-129.25784
  0
LINE
  8
0
  6
CONTINUOUS
 62
     7
 10
565.39879
 20
-126.89371
 11
565.39879
 21
-129.25784
  0
ARC
  8
0
  6
CONTINUOUS
 62
     7
 10
566.74879
 20
-129.25784
 40
1.8
 50
306.00832
 51
53.991676
  0
ARC
  8
0
  6
CONTINUOUS
 62
     7
 10
566.74879
 20
-129.25784
 40
2.7
 50
306.00832
 51
53.991676
  0
ARC
  8
0
  6
CONTINUOUS
 62
     7
 10
563.14879
 20
-129.25784
 40
1.8
 50
126.00833
 51
233.99168
  0
ARC
  8
0
  6
CONTINUOUS
 62
     7
 10
563.14879
 20
-129.25784
 40
2.7
 50
126.00833
 51
233.99168
  0
ARC
  8
0
  6
CONTINUOUS
 62
     7
 10
564.94879
 20
-131.73457
 40
5.7617307
 50
53.991676
 51
85.520553
  0
ARC
  8
0
  6
CONTINUOUS
 62
     7
 10
564.94879
 20
-131.73457
 40
4.8617306
 50
53.991676
 51
84.689121
  0
ARC
  8
0
  6
CONTINUOUS
 62
     7
 10
564.94879
 20
-126.78111
 40
4.8617306
 50
233.99167
 51
306.00832
  0
ARC
  8
0
  6
CONTINUOUS
 62
     7
 10
564.94879
 20
-126.78111
 40
5.7617307
 50
233.99167
 51
265.52055
  0
ARC
  8
0
  6
CONTINUOUS
 62
     7
 10
564.94879
 20
-125.09534
 40
0.5625
 50
36.869897
 51
143.1301
  0
ARC
  8
0
  6
CONTINUOUS
 62
     7
 10
564.94879
 20
-128.92034
 40
0.5625
 50
216.8699
 51
323.1301
  0
ARC
  8
0
  6
CONTINUOUS
 62
     7
 10
564.94879
 20
-133.42034
 40
0.5625
 50
216.8699
 51
323.1301
  0
ARC
  8
0
  6
CONTINUOUS
 62
     7
 10
564.94879
 20
-131.73457
 40
5.7617307
 50
94.479452
 51
126.00833
  0
ARC
  8
0
  6
CONTINUOUS
 62
     7
 10
564.94879
 20
-131.73457
 40
4.8617306
 50
95.310878
 51
126.00833
  0
ARC
  8
0
  6
CONTINUOUS
 62
     7
 10
564.94879
 20
-126.78111
 40
5.7617307
 50
274.47945
 51
306.00832
  0
LINE
  8
0
  6
CONTINUOUS
 62
     7
 10
831.87139
 20
-122.11993
 11
831.87139
 21
-123.35253
  0
LINE
  8
0
  6
CONTINUOUS
 62
     7
 10
830.97139
 20
-122.11993
 11
830.97139
 21
-123.35253
  0
LINE
  8
0
  6
CONTINUOUS
 62
     7
 10
830.97139
 20
-129.88733
 11
830.97139
 21
-131.11993
  0
LINE
  8
0
  6
CONTINUOUS
 62
     7
 10
831.87139
 20
-129.88733
 11
831.87139
 21
-131.11993
  0
LINE
  8
0
  6
CONTINUOUS
 62
     7
 10
830.97139
 20
-124.2558
 11
830.97139
 21
-126.61993
  0
LINE
  8
0
  6
CONTINUOUS
 62
     7
 10
831.87139
 20
-124.2558
 11
831.87139
 21
-126.61993
  0
ARC
  8
0
  6
CONTINUOUS
 62
     7
 10
833.22139
 20
-126.61993
 40
1.8
 50
306.00832
 51
53.991676
  0
ARC
  8
0
  6
CONTINUOUS
 62
     7
 10
833.22139
 20
-126.61993
 40
2.7
 50
306.00832
 51
53.991676
  0
ARC
  8
0
  6
CONTINUOUS
 62
     7
 10
829.62139
 20
-126.61993
 40
1.8
 50
126.00833
 51
233.99168
  0
ARC
  8
0
  6
CONTINUOUS
 62
     7
 10
829.62139
 20
-126.61993
 40
2.7
 50
126.00833
 51
233.99168
  0
ARC
  8
0
  6
CONTINUOUS
 62
     7
 10
831.42139
 20
-129.09666
 40
5.7617307
 50
53.991676
 51
85.520553
  0
ARC
  8
0
  6
CONTINUOUS
 62
     7
 10
831.42139
 20
-129.09666
 40
4.8617306
 50
53.991676
 51
84.689121
  0
ARC
  8
0
  6
CONTINUOUS
 62
     7
 10
831.42139
 20
-124.1432
 40
4.8617306
 50
233.99167
 51
306.00832
  0
ARC
  8
0
  6
CONTINUOUS
 62
     7
 10
831.42139
 20
-124.1432
 40
5.7617307
 50
233.99167
 51
265.52055
  0
ARC
  8
0
  6
CONTINUOUS
 62
     7
 10
831.42139
 20
-122.45743
 40
0.5625
 50
36.869897
 51
143.1301
  0
ARC
  8
0
  6
CONTINUOUS
 62
     7
 10
831.42139
 20
-126.28243
 40
0.5625
 50
216.8699
 51
323.1301
  0
ARC
  8
0
  6
CONTINUOUS
 62
     7
 10
831.42139
 20
-130.78243
 40
0.5625
 50
216.8699
 51
323.1301
  0
ARC
  8
0
  6
CONTINUOUS
 62
     7
 10
831.42139
 20
-129.09666
 40
5.7617307
 50
94.479452
 51
126.00833
  0
ARC
  8
0
  6
CONTINUOUS
 62
     7
 10
831.42139
 20
-129.09666
 40
4.8617306
 50
95.310878
 51
126.00833
  0
ARC
  8
0
  6
CONTINUOUS
 62
     7
 10
831.42139
 20
-124.1432
 40
5.7617307
 50
274.47945
 51
306.00832
  0
LINE
  8
0
  6
CONTINUOUS
 62
     7
 10
681.74988
 20
-330.25058
 11
681.74988
 21
-332.30491
  0
LINE
  8
0
  6
CONTINUOUS
 62
     7
 10
680.24988
 20
-330.25058
 11
680.24988
 21
-332.30491
  0
LINE
  8
0
  6
CONTINUOUS
 62
     7
 10
680.24988
 20
-343.19625
 11
680.24988
 21
-345.25058
  0
LINE
  8
0
  6
CONTINUOUS
 62
     7
 10
681.74988
 20
-343.19625
 11
681.74988
 21
-345.25058
  0
LINE
  8
0
  6
CONTINUOUS
 62
     7
 10
680.24988
 20
-333.81036
 11
680.24988
 21
-337.75058
  0
LINE
  8
0
  6
CONTINUOUS
 62
     7
 10
681.74988
 20
-333.81036
 11
681.74988
 21
-337.75058
  0
ARC
  8
0
  6
CONTINUOUS
 62
     7
 10
683.99988
 20
-337.75058
 40
3
 50
306.00832
 51
53.991676
  0
ARC
  8
0
  6
CONTINUOUS
 62
     7
 10
683.99988
 20
-337.75058
 40
4.5
 50
306.00832
 51
53.991676
  0
ARC
  8
0
  6
CONTINUOUS
 62
     7
 10
677.99988
 20
-337.75058
 40
3
 50
126.00833
 51
233.99168
  0
ARC
  8
0
  6
CONTINUOUS
 62
     7
 10
677.99988
 20
-337.75058
 40
4.5
 50
126.00833
 51
233.99168
  0
ARC
  8
0
  6
CONTINUOUS
 62
     7
 10
680.99988
 20
-341.87846
 40
9.6028843
 50
53.991676
 51
85.520553
  0
ARC
  8
0
  6
CONTINUOUS
 62
     7
 10
680.99988
 20
-341.87846
 40
8.1028843
 50
53.991676
 51
84.689121
  0
ARC
  8
0
  6
CONTINUOUS
 62
     7
 10
680.99988
 20
-333.6227
 40
8.1028843
 50
233.99167
 51
306.00832
  0
ARC
  8
0
  6
CONTINUOUS
 62
     7
 10
680.99988
 20
-333.6227
 40
9.6028843
 50
233.99167
 51
265.52055
  0
ARC
  8
0
  6
CONTINUOUS
 62
     7
 10
680.99988
 20
-330.81308
 40
0.9375
 50
36.869897
 51
143.1301
  0
ARC
  8
0
  6
CONTINUOUS
 62
     7
 10
680.99988
 20
-337.18808
 40
0.9375
 50
216.8699
 51
323.1301
  0
ARC
  8
0
  6
CONTINUOUS
 62
     7
 10
680.99988
 20
-344.68808
 40
0.9375
 50
216.8699
 51
323.1301
  0
ARC
  8
0
  6
CONTINUOUS
 62
     7
 10
680.99988
 20
-341.87846
 40
9.6028843
 50
94.479452
 51
126.00833
  0
ARC
  8
0
  6
CONTINUOUS
 62
     7
 10
680.99988
 20
-341.87846
 40
8.1028843
 50
95.310878
 51
126.00833
  0
ARC
  8
0
  6
CONTINUOUS
 62
     7
 10
680.99988
 20
-333.6227
 40
9.6028843
 50
274.47945
 51
306.00832
  0
LINE
  8
0
  6
CONTINUOUS
 62
     7
 10
681.92786
 20
-511.63745
 11
681.92786
 21
-513.69178
  0
LINE
  8
0
  6
CONTINUOUS
 62
     7
 10
680.42786
 20
-511.63745
 11
680.42786
 21
-513.69178
  0
LINE
  8
0
  6
CONTINUOUS
 62
     7
 10
680.42786
 20
-524.58312
 11
680.42786
 21
-526.63745
  0
LINE
  8
0
  6
CONTINUOUS
 62
     7
 10
681.92786
 20
-524.58312
 11
681.92786
 21
-526.63745
  0
LINE
  8
0
  6
CONTINUOUS
 62
     7
 10
680.42786
 20
-515.19724
 11
680.42786
 21
-519.13745
  0
LINE
  8
0
  6
CONTINUOUS
 62
     7
 10
681.92786
 20
-515.19724
 11
681.92786
 21
-519.13745
  0
ARC
  8
0
  6
CONTINUOUS
 62
     7
 10
684.17786
 20
-519.13745
 40
3
 50
306.00832
 51
53.991676
  0
ARC
  8
0
  6
CONTINUOUS
 62
     7
 10
684.17786
 20
-519.13745
 40
4.5
 50
306.00832
 51
53.991676
  0
ARC
  8
0
  6
CONTINUOUS
 62
     7
 10
678.17786
 20
-519.13745
 40
3
 50
126.00833
 51
233.99168
  0
ARC
  8
0
  6
CONTINUOUS
 62
     7
 10
678.17786
 20
-519.13745
 40
4.5
 50
126.00833
 51
233.99168
  0
ARC
  8
0
  6
CONTINUOUS
 62
     7
 10
681.17786
 20
-523.26534
 40
9.6028843
 50
53.991676
 51
85.520553
  0
ARC
  8
0
  6
CONTINUOUS
 62
     7
 10
681.17786
 20
-523.26534
 40
8.1028843
 50
53.991676
 51
84.689121
  0
ARC
  8
0
  6
CONTINUOUS
 62
     7
 10
681.17786
 20
-515.00957
 40
8.1028843
 50
233.99167
 51
306.00832
  0
ARC
  8
0
  6
CONTINUOUS
 62
     7
 10
681.17786
 20
-515.00957
 40
9.6028843
 50
233.99167
 51
265.52055
  0
ARC
  8
0
  6
CONTINUOUS
 62
     7
 10
681.17786
 20
-512.19995
 40
0.9375
 50
36.869897
 51
143.1301
  0
ARC
  8
0
  6
CONTINUOUS
 62
     7
 10
681.17786
 20
-518.57495
 40
0.9375
 50
216.8699
 51
323.1301
  0
ARC
  8
0
  6
CONTINUOUS
 62
     7
 10
681.17786
 20
-526.07495
 40
0.9375
 50
216.8699
 51
323.1301
  0
ARC
  8
0
  6
CONTINUOUS
 62
     7
 10
681.17786
 20
-523.26534
 40
9.6028843
 50
94.479452
 51
126.00833
  0
ARC
  8
0
  6
CONTINUOUS
 62
     7
 10
681.17786
 20
-523.26534
 40
8.1028843
 50
95.310878
 51
126.00833
  0
ARC
  8
0
  6
CONTINUOUS
 62
     7
 10
681.17786
 20
-515.00957
 40
9.6028843
 50
274.47945
 51
306.00832
  0
ENDSEC
  0
EOF
