  0
SECTION
  2
HEADER
  9
$EXTMAX
 10
297
 20
210
  9
$EXTMIN
 10
-297
 20
-210
  0
ENDSEC
  0
SECTION
  2
TABLES
  0
TABLE
  2
LTYPE
 70
    22
  0
LTYPE
  2
CONTINUOUS
 70
    64
  3
Solid line
 72
    65
 73
     0
 40
0.000000
  0
LTYPE
  2
DASHED
 70
    64
  3
__ __ __ __ __ __ __ __ __ __ __ __ __ __ __
 72
    65
 73
     2
 40
3.500000
 49
2.000000
 49
-1.500000
  0
LTYPE
  2
CENTER
 70
    64
  3
____ _ ____ _ ____ _ ____ _ ____ _ ____ _ ____
 72
    65
 73
     4
 40
17.500000
 49
13.000000
 49
-1.500000
 49
1.500000
 49
-1.500000
  0
LTYPE
  2
PHANTOM
 70
    64
  3
_____ _ _ _____ _ _ _____ _ _ _____ _ _ ____  
 72
    65
 73
     6
 40
15.500000
 49
8.000000
 49
-1.500000
 49
1.500000
 49
-1.500000
 49
1.500000
 49
-1.500000
  0
LTYPE
  2
DOT
 70
    64
  3
. . . . . . . . . . . . . . . . . . . . . . . .
 72
    65
 73
     2
 40
0.25
 49
0.0
 49
-0.25
  0
ENDTAB
  0
TABLE
  2
LAYER
 70
     1
  0
LAYER
  2
0
 70
     0
 62
     7
  6
CONTINUOUS
  0
ENDTAB
  0
TABLE
  2
STYLE
 70
     1
  0
STYLE
  2
STANDARD
 70
     0
 40
0.000000
 41
1.000000
 50
0.000000
 71
     0
 42
0.200000
  3
txt
  4
BIGFONT
  0
ENDTAB
  0
TABLE
  2
VIEW
 70
     0
  0
ENDTAB
  0
ENDSEC
  0
SECTION
  2
BLOCKS
  0
ENDSEC
  0
SECTION
  2
ENTITIES
  0
POINT
  8
0
  6
CONTINUOUS
 62
     7
 10
-192.22501
 20
136.45
  0
POINT
  8
0
  6
CONTINUOUS
 62
     7
 10
-28.824997
 20
136.45
  0
POINT
  8
0
  6
CONTINUOUS
 62
     7
 10
-112.01825
 20
-126.25965
  0
POINT
  8
0
  6
CONTINUOUS
 62
     7
 10
126.3125
 20
13.141353
  0
POINT
  8
0
  6
CONTINUOUS
 62
     7
 10
33.335915
 20
-339.10849
  0
POINT
  8
0
  6
CONTINUOUS
 62
     7
 10
39.331657
 20
-535.46906
  0
POINT
  8
0
  6
CONTINUOUS
 62
     7
 10
-232.22501
 20
136.45
  0
POINT
  8
0
  6
CONTINUOUS
 62
     7
 10
-68.824997
 20
136.45
  0
POINT
  8
0
  6
CONTINUOUS
 62
     7
 10
112.75001
 20
136.45
  0
POINT
  8
0
  6
CONTINUOUS
 62
     7
 10
66.3125
 20
13.141353
  0
POINT
  8
0
  6
CONTINUOUS
 62
     7
 10
-147.99434
 20
11.605346
  0
POINT
  8
0
  6
CONTINUOUS
 62
     7
 10
-172.01825
 20
-126.25965
  0
POINT
  8
0
  6
CONTINUOUS
 62
     7
 10
82.24437
 20
-123.26178
  0
POINT
  8
0
  6
CONTINUOUS
 62
     7
 10
-60.668343
 20
-535.46906
  0
POINT
  8
0
  6
CONTINUOUS
 62
     7
 10
-46.664085
 20
-339.10849
  0
POINT
  8
0
  6
CONTINUOUS
 62
     7
 10
426.77499
 20
136.45
  0
POINT
  8
0
  6
CONTINUOUS
 62
     7
 10
620.17499
 20
136.45
  0
POINT
  8
0
  6
CONTINUOUS
 62
     7
 10
800.25
 20
136.45
  0
POINT
  8
0
  6
CONTINUOUS
 62
     7
 10
501.7052
 20
-120.85683
  0
POINT
  8
0
  6
CONTINUOUS
 62
     7
 10
723.58521
 20
20.606829
  0
POINT
  8
0
  6
CONTINUOUS
 62
     7
 10
503.04532
 20
18.726583
  0
POINT
  8
0
  6
CONTINUOUS
 62
     7
 10
748.30042
 20
-118.48927
  0
POINT
  8
0
  6
CONTINUOUS
 62
     7
 10
609.66302
 20
-331.81415
  0
POINT
  8
0
  6
CONTINUOUS
 62
     7
 10
613.52679
 20
-521.1394
  0
POINT
  8
0
  6
CONTINUOUS
 62
     7
 10
384.77499
 20
136.45
  0
POINT
  8
0
  6
CONTINUOUS
 62
     7
 10
570.17499
 20
136.45
  0
POINT
  8
0
  6
CONTINUOUS
 62
     7
 10
750.25
 20
136.45
  0
POINT
  8
0
  6
CONTINUOUS
 62
     7
 10
443.04532
 20
18.726583
  0
POINT
  8
0
  6
CONTINUOUS
 62
     7
 10
663.58521
 20
20.606829
  0
POINT
  8
0
  6
CONTINUOUS
 62
     7
 10
421.7052
 20
-120.85683
  0
POINT
  8
0
  6
CONTINUOUS
 62
     7
 10
667.30042
 20
-118.48927
  0
POINT
  8
0
  6
CONTINUOUS
 62
     7
 10
510.66299
 20
-331.81415
  0
POINT
  8
0
  6
CONTINUOUS
 62
     7
 10
514.52679
 20
-521.1394
  0
POINT
  8
0
  6
CONTINUOUS
 62
     7
 10
426.77499
 20
136.45
  0
POINT
  8
0
  6
CONTINUOUS
 62
     7
 10
620.17499
 20
136.45
  0
POINT
  8
0
  6
CONTINUOUS
 62
     7
 10
620.17499
 20
136.45
  0
POINT
  8
0
  6
CONTINUOUS
 62
     7
 10
748.30042
 20
-118.48927
  0
LINE
  8
0
  6
CONTINUOUS
 62
     7
 10
-297
 20
-650
 11
-297
 21
-230
  0
LINE
  8
0
  6
CONTINUOUS
 62
     7
 10
-297
 20
-230
 11
297
 21
-230
  0
LINE
  8
0
  6
CONTINUOUS
 62
     7
 10
297
 20
-650
 11
-297
 21
-650
  0
LINE
  8
0
  6
CONTINUOUS
 62
     7
 10
297
 20
-230
 11
297
 21
-650
  0
LINE
  8
0
  6
CONTINUOUS
 62
     7
 10
-159.22501
 20
149.95
 11
-170.45531
 21
149.95
  0
LINE
  8
0
  6
CONTINUOUS
 62
     7
 10
-159.22501
 20
122.95
 11
-170.45531
 21
122.95
  0
LINE
  8
0
  6
CENTER
 62
     7
 10
-125.47235
 20
136.45
 11
-201.57153
 21
136.45
  0
LINE
  8
0
  6
CONTINUOUS
 62
     7
 10
-137.45593
 20
146.72658
 11
-135.22501
 21
144.35173
  0
LINE
  8
0
  6
CONTINUOUS
 62
     7
 10
-174.78543
 20
152.45
 11
-176.72499
 21
152.45
  0
LINE
  8
0
  6
CONTINUOUS
 62
     7
 10
-174.78543
 20
120.45
 11
-176.72499
 21
120.45
  0
LINE
  8
0
  6
CONTINUOUS
 62
     7
 10
-137.45595
 20
126.17342
 11
-135.22501
 21
128.54828
  0
LINE
  8
0
  6
CONTINUOUS
 62
     7
 10
-150.22501
 20
145.99982
 11
-136.36638
 21
145.56674
  0
LINE
  8
0
  6
CONTINUOUS
 62
     7
 10
-152.53752
 20
147.99103
 11
-151.59872
 21
147.96169
  0
LINE
  8
0
  6
CONTINUOUS
 62
     7
 10
-152.53751
 20
124.90898
 11
-151.59871
 21
124.93832
  0
LINE
  8
0
  6
CONTINUOUS
 62
     7
 10
-151.05646
 20
147.18724
 11
-137.49043
 21
146.76331
  0
LINE
  8
0
  6
CONTINUOUS
 62
     7
 10
-151.59872
 20
147.96169
 11
-150.22501
 21
145.99982
  0
LINE
  8
0
  6
CONTINUOUS
 62
     7
 10
-151.59871
 20
124.93832
 11
-150.22499
 21
126.90018
  0
LINE
  8
0
  6
CONTINUOUS
 62
     7
 10
-151.05644
 20
125.71275
 11
-137.49042
 21
126.1367
  0
LINE
  8
0
  6
CONTINUOUS
 62
     7
 10
-150.22501
 20
126.90018
 11
-136.36639
 21
127.33326
  0
LINE
  8
0
  6
CONTINUOUS
 62
     7
 10
-174.78543
 20
152.45
 11
-174.78543
 21
120.45
  0
LINE
  8
0
  6
CONTINUOUS
 62
     7
 10
-137.49042
 20
146.76329
 11
-137.49042
 21
126.1367
  0
LINE
  8
0
  6
CONTINUOUS
 62
     7
 10
-150.22501
 20
126.90019
 11
-150.22501
 21
145.99982
  0
LINE
  8
0
  6
CONTINUOUS
 62
     7
 10
-151.59872
 20
147.96169
 11
-151.59872
 21
124.93832
  0
LINE
  8
0
  6
CONTINUOUS
 62
     7
 10
-192.22501
 20
119.95
 11
-192.22501
 21
152.95
  0
LINE
  8
0
  6
CONTINUOUS
 62
     7
 10
-176.72499
 20
119.95
 11
-176.72499
 21
152.95
  0
LINE
  8
0
  6
CONTINUOUS
 62
     7
 10
-178.72499
 20
154.95
 11
-190.22501
 21
154.95
  0
LINE
  8
0
  6
CONTINUOUS
 62
     7
 10
-178.72499
 20
117.95
 11
-190.22501
 21
117.95
  0
LINE
  8
0
  6
CONTINUOUS
 62
     7
 10
-176.72499
 20
128.79633
 11
-192.22501
 21
128.79633
  0
LINE
  8
0
  6
CONTINUOUS
 62
     7
 10
-176.72499
 20
144.10367
 11
-192.22501
 21
144.10367
  0
LINE
  8
0
  6
CONTINUOUS
 62
     7
 10
-178.72501
 20
117.95
 11
-176.72501
 21
119.95
  0
LINE
  8
0
  6
CONTINUOUS
 62
     7
 10
-190.22499
 20
117.95
 11
-192.22501
 21
119.95
  0
LINE
  8
0
  6
CONTINUOUS
 62
     7
 10
-176.72501
 20
152.95001
 11
-178.72501
 21
154.95001
  0
LINE
  8
0
  6
CONTINUOUS
 62
     7
 10
-190.22501
 20
154.95001
 11
-192.22501
 21
152.95001
  0
LINE
  8
0
  6
CENTER
 62
     7
 10
39.92765
 20
136.45
 11
-35.962494
 21
136.45
  0
LINE
  8
0
  6
CONTINUOUS
 62
     7
 10
29.909588
 20
146.76329
 11
32.175003
 21
144.35172
  0
LINE
  8
0
  6
CONTINUOUS
 62
     7
 10
17.175003
 20
145.99982
 11
31.033625
 21
145.56674
  0
LINE
  8
0
  6
CONTINUOUS
 62
     7
 10
-7.0552979
 20
151.95
 11
5.6750031
 21
151.95
  0
LINE
  8
0
  6
CONTINUOUS
 62
     7
 10
-7.0552979
 20
120.95
 11
5.6750031
 21
120.95
  0
LINE
  8
0
  6
CONTINUOUS
 62
     7
 10
14.862496
 20
147.99103
 11
15.801292
 21
147.96169
  0
LINE
  8
0
  6
CONTINUOUS
 62
     7
 10
14.862495
 20
124.90898
 11
15.801291
 21
124.93832
  0
LINE
  8
0
  6
CONTINUOUS
 62
     7
 10
29.909584
 20
126.13671
 11
32.175007
 21
128.54829
  0
LINE
  8
0
  6
CONTINUOUS
 62
     7
 10
16.343561
 20
147.18724
 11
29.909584
 21
146.76331
  0
LINE
  8
0
  6
CONTINUOUS
 62
     7
 10
15.801285
 20
147.96169
 11
17.175003
 21
145.99982
  0
LINE
  8
0
  6
CONTINUOUS
 62
     7
 10
15.801273
 20
124.93834
 11
17.174982
 21
126.90019
  0
LINE
  8
0
  6
CONTINUOUS
 62
     7
 10
16.343552
 20
125.71276
 11
29.909584
 21
126.1367
  0
LINE
  8
0
  6
CONTINUOUS
 62
     7
 10
17.175001
 20
126.90018
 11
31.033623
 21
127.33327
  0
LINE
  8
0
  6
CONTINUOUS
 62
     7
 10
29.909584
 20
146.76329
 11
29.909584
 21
126.1367
  0
LINE
  8
0
  6
CONTINUOUS
 62
     7
 10
17.175003
 20
126.90019
 11
17.175003
 21
145.99982
  0
LINE
  8
0
  6
CONTINUOUS
 62
     7
 10
15.801285
 20
124.93834
 11
15.801285
 21
147.96169
  0
LINE
  8
0
  6
CONTINUOUS
 62
     7
 10
-28.824997
 20
117.45
 11
-28.824997
 21
155.45
  0
LINE
  8
0
  6
CONTINUOUS
 62
     7
 10
-13.324997
 20
115.45
 11
-26.824997
 21
115.45
  0
LINE
  8
0
  6
CONTINUOUS
 62
     7
 10
-13.324997
 20
157.45
 11
-26.824997
 21
157.45
  0
LINE
  8
0
  6
CONTINUOUS
 62
     7
 10
-11.324997
 20
117.45
 11
-11.324997
 21
155.45
  0
LINE
  8
0
  6
CONTINUOUS
 62
     7
 10
-12.324997
 20
127.75151
 11
-27.824997
 21
127.75151
  0
LINE
  8
0
  6
CONTINUOUS
 62
     7
 10
-12.324997
 20
145.14848
 11
-27.824997
 21
145.14848
  0
LINE
  8
0
  6
CONTINUOUS
 62
     7
 10
-13.325006
 20
115.45001
 11
-11.32501
 21
117.45001
  0
LINE
  8
0
  6
CONTINUOUS
 62
     7
 10
-26.824995
 20
115.45
 11
-28.824997
 21
117.45
  0
LINE
  8
0
  6
CONTINUOUS
 62
     7
 10
-28.825001
 20
155.45
 11
-26.825005
 21
157.45
  0
LINE
  8
0
  6
CONTINUOUS
 62
     7
 10
-11.325012
 20
155.45001
 11
-13.325004
 21
157.45
  0
LINE
  8
0
  6
CENTER
 62
     7
 10
154.9754
 20
136.45
 11
232.68878
 21
136.45
  0
LINE
  8
0
  6
CONTINUOUS
 62
     7
 10
182.09123
 20
154.7
 11
196.25
 21
154.7
  0
LINE
  8
0
  6
CONTINUOUS
 62
     7
 10
207.25002
 20
148.74194
 11
224.25
 21
148.21069
  0
LINE
  8
0
  6
CONTINUOUS
 62
     7
 10
182.09123
 20
118.2
 11
196.25
 21
118.2
  0
LINE
  8
0
  6
CONTINUOUS
 62
     7
 10
206.05054
 20
149.94142
 11
223.50304
 21
149.39603
  0
LINE
  8
0
  6
CONTINUOUS
 62
     7
 10
205.24416
 20
150.74779
 11
207.25002
 21
148.74193
  0
LINE
  8
0
  6
CONTINUOUS
 62
     7
 10
205.24414
 20
122.15219
 11
207.25002
 21
124.15806
  0
LINE
  8
0
  6
CONTINUOUS
 62
     7
 10
207.25
 20
124.15807
 11
224.25002
 21
124.68932
  0
LINE
  8
0
  6
CONTINUOUS
 62
     7
 10
206.05052
 20
122.95859
 11
223.50302
 21
123.50397
  0
LINE
  8
0
  6
CONTINUOUS
 62
     7
 10
223.50302
 20
149.39603
 11
224.25
 21
148.60085
  0
LINE
  8
0
  6
CONTINUOUS
 62
     7
 10
223.50302
 20
123.50397
 11
224.25
 21
124.29915
  0
LINE
  8
0
  6
CONTINUOUS
 62
     7
 10
207.25
 20
124.15807
 11
207.25
 21
148.74194
  0
LINE
  8
0
  6
CONTINUOUS
 62
     7
 10
205.24416
 20
150.74779
 11
205.24416
 21
122.15219
  0
LINE
  8
0
  6
CONTINUOUS
 62
     7
 10
223.50302
 20
149.39603
 11
223.50302
 21
123.50397
  0
LINE
  8
0
  6
CONTINUOUS
 62
     7
 10
160.25
 20
113.95
 11
160.25
 21
158.95
  0
LINE
  8
0
  6
CONTINUOUS
 62
     7
 10
178.75
 20
113.95
 11
178.75
 21
158.95
  0
LINE
  8
0
  6
CONTINUOUS
 62
     7
 10
176.75
 20
111.95
 11
162.25
 21
111.95
  0
LINE
  8
0
  6
CONTINUOUS
 62
     7
 10
176.75
 20
160.95
 11
162.25
 21
160.95
  0
LINE
  8
0
  6
CONTINUOUS
 62
     7
 10
178.75
 20
113.94999
 11
176.75002
 21
111.95
  0
LINE
  8
0
  6
CONTINUOUS
 62
     7
 10
176.75
 20
160.95
 11
178.75
 21
158.95
  0
LINE
  8
0
  6
CONTINUOUS
 62
     7
 10
162.25002
 20
111.95
 11
160.25002
 21
113.95
  0
LINE
  8
0
  6
CONTINUOUS
 62
     7
 10
160.25
 20
158.95
 11
162.25
 21
160.95
  0
LINE
  8
0
  6
CONTINUOUS
 62
     7
 10
177.75
 20
126.30888
 11
161.25
 21
126.30888
  0
LINE
  8
0
  6
CONTINUOUS
 62
     7
 10
177.75
 20
146.59111
 11
161.25
 21
146.59111
  0
LINE
  8
0
  6
CONTINUOUS
 62
     7
 10
-135.22501
 20
128.54828
 11
-135.22501
 21
144.35173
  0
LINE
  8
0
  6
CONTINUOUS
 62
     7
 10
32.175003
 20
128.54829
 11
32.175003
 21
144.35172
  0
LINE
  8
0
  6
CONTINUOUS
 62
     7
 10
224.25
 20
124.29915
 11
224.25
 21
148.60085
  0
LINE
  8
0
  6
CENTER
 62
     7
 10
-103.75684
 20
11.605346
 11
-18.983412
 21
11.605346
  0
LINE
  8
0
  6
CONTINUOUS
 62
     7
 10
-28.494329
 20
25.405148
 11
-28.494329
 21
-2.1944592
  0
LINE
  8
0
  6
CONTINUOUS
 62
     7
 10
-76.02919
 20
33.855343
 11
-59.494339
 21
33.855343
  0
LINE
  8
0
  6
CONTINUOUS
 62
     7
 10
-47.494331
 20
27.519911
 11
-30.0644
 21
26.975225
  0
LINE
  8
0
  6
CONTINUOUS
 62
     7
 10
-49.021042
 20
29.046614
 11
-31.591106
 21
28.501928
  0
LINE
  8
0
  6
CONTINUOUS
 62
     7
 10
-47.494328
 20
27.519911
 11
-49.329765
 21
29.35535
  0
LINE
  8
0
  6
CONTINUOUS
 62
     7
 10
-76.02919
 20
-10.644654
 11
-59.494339
 21
-10.644654
  0
LINE
  8
0
  6
CONTINUOUS
 62
     7
 10
-47.494339
 20
-4.3092132
 11
-30.064392
 21
-3.7645271
  0
LINE
  8
0
  6
CONTINUOUS
 62
     7
 10
-47.494331
 20
-4.3092136
 11
-49.329769
 21
-6.1446533
  0
LINE
  8
0
  6
CONTINUOUS
 62
     7
 10
-47.494339
 20
27.519909
 11
-47.494339
 21
-4.3092203
  0
LINE
  8
0
  6
CONTINUOUS
 62
     7
 10
-49.329773
 20
-6.1446548
 11
-49.329773
 21
29.356396
  0
LINE
  8
0
  6
CONTINUOUS
 62
     7
 10
-31.494329
 20
28.498913
 11
-31.494329
 21
-5.1944742
  0
LINE
  8
0
  6
CONTINUOUS
 62
     7
 10
-31.591116
 20
28.501934
 11
-28.494335
 21
25.405153
  0
LINE
  8
0
  6
CONTINUOUS
 62
     7
 10
-49.021034
 20
-5.8359308
 11
-31.591105
 21
-5.2912455
  0
LINE
  8
0
  6
CONTINUOUS
 62
     7
 10
-31.591101
 20
-5.2912326
 11
-28.494337
 21
-2.1944685
  0
LINE
  8
0
  6
CONTINUOUS
 62
     7
 10
-98.494331
 20
-15.394653
 11
-98.494331
 21
38.605343
  0
LINE
  8
0
  6
CONTINUOUS
 62
     7
 10
-79.994331
 20
-15.394653
 11
-79.994331
 21
38.605343
  0
LINE
  8
0
  6
CONTINUOUS
 62
     7
 10
-81.994331
 20
40.605343
 11
-96.494331
 21
40.605343
  0
LINE
  8
0
  6
CONTINUOUS
 62
     7
 10
-81.994331
 20
-17.394653
 11
-96.494331
 21
-17.394653
  0
LINE
  8
0
  6
CONTINUOUS
 62
     7
 10
-79.994324
 20
-15.394653
 11
-81.994316
 21
-17.394644
  0
LINE
  8
0
  6
CONTINUOUS
 62
     7
 10
-96.494308
 20
-17.394655
 11
-98.494308
 21
-15.394657
  0
LINE
  8
0
  6
CONTINUOUS
 62
     7
 10
-79.994316
 20
38.605331
 11
-81.994316
 21
40.605335
  0
LINE
  8
0
  6
CONTINUOUS
 62
     7
 10
-96.494324
 20
40.605335
 11
-98.494316
 21
38.605343
  0
LINE
  8
0
  6
CONTINUOUS
 62
     7
 10
-80.994331
 20
-0.40684617
 11
-97.494331
 21
-0.40684617
  0
LINE
  8
0
  6
CONTINUOUS
 62
     7
 10
-80.994331
 20
23.617537
 11
-97.494331
 21
23.617537
  0
LINE
  8
0
  6
CENTER
 62
     7
 10
114.11749
 20
13.141353
 11
200.32671
 21
13.141353
  0
LINE
  8
0
  6
CONTINUOUS
 62
     7
 10
148.64262
 20
39.64135
 11
164.3125
 21
39.64135
  0
LINE
  8
0
  6
CONTINUOUS
 62
     7
 10
198.3125
 20
30.793221
 11
198.3125
 21
-4.5105186
  0
LINE
  8
0
  6
CONTINUOUS
 62
     7
 10
176.3125
 20
32.907974
 11
196.8392
 21
32.266514
  0
LINE
  8
0
  6
CONTINUOUS
 62
     7
 10
174.78578
 20
34.434692
 11
195.31248
 21
33.793232
  0
LINE
  8
0
  6
CONTINUOUS
 62
     7
 10
195.3125
 20
33.793232
 11
198.3125
 21
30.79323
  0
LINE
  8
0
  6
CONTINUOUS
 62
     7
 10
176.3125
 20
32.907982
 11
176.3125
 21
-6.6252799
  0
LINE
  8
0
  6
CONTINUOUS
 62
     7
 10
176.31248
 20
32.907974
 11
173.96301
 21
35.257458
  0
LINE
  8
0
  6
CONTINUOUS
 62
     7
 10
148.64262
 20
-13.358646
 11
164.3125
 21
-13.358646
  0
LINE
  8
0
  6
CONTINUOUS
 62
     7
 10
176.3125
 20
-6.625278
 11
196.83919
 21
-5.983819
  0
LINE
  8
0
  6
CONTINUOUS
 62
     7
 10
174.78578
 20
-8.1519814
 11
195.31248
 21
-7.5105214
  0
LINE
  8
0
  6
CONTINUOUS
 62
     7
 10
195.31248
 20
-7.5105281
 11
198.31248
 21
-4.5105247
  0
LINE
  8
0
  6
CONTINUOUS
 62
     7
 10
176.31248
 20
-6.6252794
 11
173.96301
 21
-8.9747562
  0
LINE
  8
0
  6
CONTINUOUS
 62
     7
 10
173.96301
 20
35.257454
 11
173.96301
 21
-8.9747515
  0
LINE
  8
0
  6
CONTINUOUS
 62
     7
 10
195.3125
 20
-7.5105186
 11
195.3125
 21
33.793221
  0
LINE
  8
0
  6
CONTINUOUS
 62
     7
 10
126.3125
 20
-17.858646
 11
126.3125
 21
44.14135
  0
LINE
  8
0
  6
CONTINUOUS
 62
     7
 10
145.3125
 20
-17.858646
 11
145.3125
 21
44.14135
  0
LINE
  8
0
  6
CONTINUOUS
 62
     7
 10
143.3125
 20
-19.858646
 11
128.3125
 21
-19.858646
  0
LINE
  8
0
  6
CONTINUOUS
 62
     7
 10
143.3125
 20
46.14135
 11
128.3125
 21
46.14135
  0
LINE
  8
0
  6
CONTINUOUS
 62
     7
 10
145.3125
 20
-17.858639
 11
143.31248
 21
-19.858641
  0
LINE
  8
0
  6
CONTINUOUS
 62
     7
 10
128.3125
 20
-19.858641
 11
126.3125
 21
-17.858643
  0
LINE
  8
0
  6
CONTINUOUS
 62
     7
 10
126.3125
 20
44.141357
 11
128.3125
 21
46.14135
  0
LINE
  8
0
  6
CONTINUOUS
 62
     7
 10
145.31248
 20
44.141342
 11
143.31248
 21
46.141338
  0
LINE
  8
0
  6
CONTINUOUS
 62
     7
 10
144.3125
 20
-0.52769947
 11
127.3125
 21
-0.52769947
  0
LINE
  8
0
  6
CONTINUOUS
 62
     7
 10
144.3125
 20
26.810402
 11
127.3125
 21
26.810402
  0
LINE
  8
0
  6
CENTER
 62
     7
 10
-119.73825
 20
-126.25965
 11
-31.205753
 21
-126.25965
  0
LINE
  8
0
  6
CONTINUOUS
 62
     7
 10
-39.018253
 20
-105.66128
 11
-39.018253
 21
-146.85803
  0
LINE
  8
0
  6
CONTINUOUS
 62
     7
 10
-87.68811
 20
-96.259651
 11
-74.01825
 21
-96.259651
  0
LINE
  8
0
  6
CONTINUOUS
 62
     7
 10
-61.018261
 20
-103.54652
 11
-40.491539
 21
-104.18799
  0
LINE
  8
0
  6
CONTINUOUS
 62
     7
 10
-61.018253
 20
-103.54652
 11
-61.018253
 21
-148.97278
  0
LINE
  8
0
  6
CONTINUOUS
 62
     7
 10
-62.544941
 20
-102.01981
 11
-42.018234
 21
-102.66128
  0
LINE
  8
0
  6
CONTINUOUS
 62
     7
 10
-63.473927
 20
-101.09083
 11
-61.018238
 21
-103.54652
  0
LINE
  8
0
  6
CONTINUOUS
 62
     7
 10
-42.018253
 20
-102.66128
 11
-42.018253
 21
-149.85803
  0
LINE
  8
0
  6
CONTINUOUS
 62
     7
 10
-42.01825
 20
-102.66126
 11
-39.018246
 21
-105.66126
  0
LINE
  8
0
  6
CONTINUOUS
 62
     7
 10
-87.68811
 20
-156.25966
 11
-74.01825
 21
-156.25966
  0
LINE
  8
0
  6
CONTINUOUS
 62
     7
 10
-62.54496
 20
-150.49948
 11
-42.018234
 21
-149.85802
  0
LINE
  8
0
  6
CONTINUOUS
 62
     7
 10
-63.473938
 20
-151.42845
 11
-61.01825
 21
-148.97276
  0
LINE
  8
0
  6
CONTINUOUS
 62
     7
 10
-61.018261
 20
-148.97278
 11
-40.491539
 21
-148.33131
  0
LINE
  8
0
  6
CONTINUOUS
 62
     7
 10
-42.018238
 20
-149.85802
 11
-39.018234
 21
-146.85802
  0
LINE
  8
0
  6
CONTINUOUS
 62
     7
 10
-63.473942
 20
-101.09083
 11
-63.473942
 21
-151.42847
  0
LINE
  8
0
  6
CONTINUOUS
 62
     7
 10
-112.01825
 20
-160.75964
 11
-112.01825
 21
-91.759651
  0
LINE
  8
0
  6
CONTINUOUS
 62
     7
 10
-91.01825
 20
-126.25965
 11
-111.01825
 21
-126.25965
  0
LINE
  8
0
  6
CONTINUOUS
 62
     7
 10
-90.01825
 20
-160.75964
 11
-90.01825
 21
-91.759651
  0
LINE
  8
0
  6
CONTINUOUS
 62
     7
 10
-92.01825
 20
-162.75964
 11
-110.01825
 21
-162.75964
  0
LINE
  8
0
  6
CONTINUOUS
 62
     7
 10
-92.01825
 20
-89.759651
 11
-110.01825
 21
-89.759651
  0
LINE
  8
0
  6
CONTINUOUS
 62
     7
 10
-91.01825
 20
-148.81789
 11
-111.01825
 21
-148.81789
  0
LINE
  8
0
  6
CONTINUOUS
 62
     7
 10
-91.01825
 20
-103.70141
 11
-111.01825
 21
-103.70141
  0
LINE
  8
0
  6
CONTINUOUS
 62
     7
 10
-90.018234
 20
-160.75964
 11
-92.018234
 21
-162.75964
  0
LINE
  8
0
  6
CONTINUOUS
 62
     7
 10
-110.01824
 20
-162.75964
 11
-112.01823
 21
-160.75964
  0
LINE
  8
0
  6
CONTINUOUS
 62
     7
 10
-90.018234
 20
-91.759651
 11
-92.018242
 21
-89.759651
  0
LINE
  8
0
  6
CONTINUOUS
 62
     7
 10
-112.01824
 20
-91.759651
 11
-110.01823
 21
-89.759651
  0
LINE
  8
0
  6
CENTER
 62
     7
 10
155.10437
 20
-123.26178
 11
255.34438
 21
-123.26178
  0
LINE
  8
0
  6
CONTINUOUS
 62
     7
 10
187.07451
 20
-86.76178
 11
205.74437
 21
-86.76178
  0
LINE
  8
0
  6
CONTINUOUS
 62
     7
 10
244.24437
 20
-96.857277
 11
244.24437
 21
-149.66628
  0
LINE
  8
0
  6
CONTINUOUS
 62
     7
 10
218.24438
 20
-94.617523
 11
242.77109
 21
-95.38398
  0
LINE
  8
0
  6
CONTINUOUS
 62
     7
 10
218.24437
 20
-94.617523
 11
218.24437
 21
-151.90604
  0
LINE
  8
0
  6
CONTINUOUS
 62
     7
 10
216.71767
 20
-93.09082
 11
241.24437
 21
-93.857277
  0
LINE
  8
0
  6
CONTINUOUS
 62
     7
 10
215.03186
 20
-91.405014
 11
218.24437
 21
-94.617531
  0
LINE
  8
0
  6
CONTINUOUS
 62
     7
 10
241.24437
 20
-93.857277
 11
241.24437
 21
-152.66628
  0
LINE
  8
0
  6
CONTINUOUS
 62
     7
 10
241.24438
 20
-93.857277
 11
244.24438
 21
-96.857277
  0
LINE
  8
0
  6
CONTINUOUS
 62
     7
 10
187.07451
 20
-159.76178
 11
205.74437
 21
-159.76178
  0
LINE
  8
0
  6
CONTINUOUS
 62
     7
 10
215.03186
 20
-155.11856
 11
218.24438
 21
-151.90604
  0
LINE
  8
0
  6
CONTINUOUS
 62
     7
 10
216.71768
 20
-153.43274
 11
241.24438
 21
-152.66628
  0
LINE
  8
0
  6
CONTINUOUS
 62
     7
 10
218.24438
 20
-151.90604
 11
242.7711
 21
-151.13957
  0
LINE
  8
0
  6
CONTINUOUS
 62
     7
 10
241.24437
 20
-152.66628
 11
244.24438
 21
-149.66628
  0
LINE
  8
0
  6
CONTINUOUS
 62
     7
 10
216.71767
 20
-93.09082
 11
216.71767
 21
-153.43274
  0
LINE
  8
0
  6
CONTINUOUS
 62
     7
 10
162.24437
 20
-164.76178
 11
162.24437
 21
-81.76178
  0
LINE
  8
0
  6
CONTINUOUS
 62
     7
 10
184.74437
 20
-123.26178
 11
163.24437
 21
-123.26178
  0
LINE
  8
0
  6
CONTINUOUS
 62
     7
 10
185.74437
 20
-164.76178
 11
185.74437
 21
-81.76178
  0
LINE
  8
0
  6
CONTINUOUS
 62
     7
 10
183.74437
 20
-166.76178
 11
164.24437
 21
-166.76178
  0
LINE
  8
0
  6
CONTINUOUS
 62
     7
 10
183.74437
 20
-79.76178
 11
164.24437
 21
-79.76178
  0
LINE
  8
0
  6
CONTINUOUS
 62
     7
 10
185.74438
 20
-164.76178
 11
183.74437
 21
-166.76178
  0
LINE
  8
0
  6
CONTINUOUS
 62
     7
 10
164.24438
 20
-166.76175
 11
162.2444
 21
-164.76176
  0
LINE
  8
0
  6
CONTINUOUS
 62
     7
 10
185.74437
 20
-81.76178
 11
183.74437
 21
-79.761787
  0
LINE
  8
0
  6
CONTINUOUS
 62
     7
 10
164.24437
 20
-79.76178
 11
162.24437
 21
-81.76178
  0
LINE
  8
0
  6
CONTINUOUS
 62
     7
 10
163.24437
 20
-150.14626
 11
184.74437
 21
-150.14626
  0
LINE
  8
0
  6
CONTINUOUS
 62
     7
 10
163.24437
 20
-96.377304
 11
184.74437
 21
-96.377304
  0
LINE
  8
0
  6
CENTER
 62
     7
 10
22.07342
 20
-339.10849
 11
139.67342
 21
-339.10849
  0
LINE
  8
0
  6
CONTINUOUS
 62
     7
 10
65.177147
 20
-293.85849
 11
82.335915
 21
-293.85849
  0
LINE
  8
0
  6
CONTINUOUS
 62
     7
 10
126.33591
 20
-304.96838
 11
126.33591
 21
-373.24863
  0
LINE
  8
0
  6
CONTINUOUS
 62
     7
 10
96.335907
 20
-302.60361
 11
124.86263
 21
-303.49506
  0
LINE
  8
0
  6
CONTINUOUS
 62
     7
 10
96.335915
 20
-302.60364
 11
96.335915
 21
-375.61337
  0
LINE
  8
0
  6
CONTINUOUS
 62
     7
 10
94.809196
 20
-301.0769
 11
123.33591
 21
-301.96835
  0
LINE
  8
0
  6
CONTINUOUS
 62
     7
 10
92.805206
 20
-299.07291
 11
96.33593
 21
-302.60364
  0
LINE
  8
0
  6
CONTINUOUS
 62
     7
 10
123.33591
 20
-301.96838
 11
123.33591
 21
-376.24863
  0
LINE
  8
0
  6
CONTINUOUS
 62
     7
 10
123.33591
 20
-301.96835
 11
126.33591
 21
-304.96835
  0
LINE
  8
0
  6
CONTINUOUS
 62
     7
 10
65.177147
 20
-384.35849
 11
82.335915
 21
-384.35849
  0
LINE
  8
0
  6
CONTINUOUS
 62
     7
 10
92.805206
 20
-379.14407
 11
96.335922
 21
-375.61337
  0
LINE
  8
0
  6
CONTINUOUS
 62
     7
 10
94.809196
 20
-377.14011
 11
123.33591
 21
-376.24863
  0
LINE
  8
0
  6
CONTINUOUS
 62
     7
 10
96.335915
 20
-375.6134
 11
124.86262
 21
-374.72192
  0
LINE
  8
0
  6
CONTINUOUS
 62
     7
 10
123.33591
 20
-376.24863
 11
126.33592
 21
-373.24863
  0
LINE
  8
0
  6
CONTINUOUS
 62
     7
 10
92.805199
 20
-299.07291
 11
92.805199
 21
-379.14407
  0
LINE
  8
0
  6
CONTINUOUS
 62
     7
 10
33.335915
 20
-391.10849
 11
33.335915
 21
-287.10849
  0
LINE
  8
0
  6
CONTINUOUS
 62
     7
 10
61.335915
 20
-339.10849
 11
34.335915
 21
-339.10849
  0
LINE
  8
0
  6
CONTINUOUS
 62
     7
 10
62.335915
 20
-391.10849
 11
62.335915
 21
-287.10849
  0
LINE
  8
0
  6
CONTINUOUS
 62
     7
 10
60.335915
 20
-393.10849
 11
35.335915
 21
-393.10849
  0
LINE
  8
0
  6
CONTINUOUS
 62
     7
 10
60.335915
 20
-285.10849
 11
35.335915
 21
-285.10849
  0
LINE
  8
0
  6
CONTINUOUS
 62
     7
 10
62.335918
 20
-391.10849
 11
60.335918
 21
-393.10852
  0
LINE
  8
0
  6
CONTINUOUS
 62
     7
 10
35.335911
 20
-393.10849
 11
33.335911
 21
-391.10849
  0
LINE
  8
0
  6
CONTINUOUS
 62
     7
 10
62.335915
 20
-287.10849
 11
60.335915
 21
-285.10849
  0
LINE
  8
0
  6
CONTINUOUS
 62
     7
 10
35.335918
 20
-285.10849
 11
33.335918
 21
-287.10849
  0
LINE
  8
0
  6
CONTINUOUS
 62
     7
 10
61.335915
 20
-371.24628
 11
34.335915
 21
-371.24628
  0
LINE
  8
0
  6
CONTINUOUS
 62
     7
 10
61.335915
 20
-306.97073
 11
34.335915
 21
-306.97073
  0
LINE
  8
0
  6
CENTER
 62
     7
 10
28.156639
 20
-535.46906
 11
149.61606
 21
-535.46906
  0
LINE
  8
0
  6
CONTINUOUS
 62
     7
 10
71.172874
 20
-483.21906
 11
88.331627
 21
-483.21906
  0
LINE
  8
0
  6
CONTINUOUS
 62
     7
 10
138.33163
 20
-495.07831
 11
138.33163
 21
-575.8598
  0
LINE
  8
0
  6
CONTINUOUS
 62
     7
 10
104.33165
 20
-492.58853
 11
136.85837
 21
-493.60498
  0
LINE
  8
0
  6
CONTINUOUS
 62
     7
 10
104.33163
 20
-492.58856
 11
104.33163
 21
-578.34955
  0
LINE
  8
0
  6
CONTINUOUS
 62
     7
 10
102.80492
 20
-491.06183
 11
135.33165
 21
-492.07828
  0
LINE
  8
0
  6
CONTINUOUS
 62
     7
 10
101.24795
 20
-489.50485
 11
104.33166
 21
-492.58856
  0
LINE
  8
0
  6
CONTINUOUS
 62
     7
 10
135.33163
 20
-492.07831
 11
135.33163
 21
-578.8598
  0
LINE
  8
0
  6
CONTINUOUS
 62
     7
 10
135.33165
 20
-492.07831
 11
138.33167
 21
-495.07831
  0
LINE
  8
0
  6
CONTINUOUS
 62
     7
 10
71.172874
 20
-587.71906
 11
88.331627
 21
-587.71906
  0
LINE
  8
0
  6
CONTINUOUS
 62
     7
 10
135.33167
 20
-578.8598
 11
138.33167
 21
-575.8598
  0
LINE
  8
0
  6
CONTINUOUS
 62
     7
 10
102.80494
 20
-579.87628
 11
135.33167
 21
-578.8598
  0
LINE
  8
0
  6
CONTINUOUS
 62
     7
 10
104.33167
 20
-578.34955
 11
136.85838
 21
-577.33307
  0
LINE
  8
0
  6
CONTINUOUS
 62
     7
 10
101.24795
 20
-581.43329
 11
104.33166
 21
-578.34955
  0
LINE
  8
0
  6
CONTINUOUS
 62
     7
 10
102.80495
 20
-579.87628
 11
102.80495
 21
-491.06186
  0
LINE
  8
0
  6
CONTINUOUS
 62
     7
 10
67.331627
 20
-535.46906
 11
40.331657
 21
-535.46906
  0
LINE
  8
0
  6
CONTINUOUS
 62
     7
 10
39.331657
 20
-594.96906
 11
39.331657
 21
-475.96906
  0
LINE
  8
0
  6
CONTINUOUS
 62
     7
 10
68.331627
 20
-594.96906
 11
68.331627
 21
-475.96906
  0
LINE
  8
0
  6
CONTINUOUS
 62
     7
 10
66.331627
 20
-473.96906
 11
41.331657
 21
-473.96906
  0
LINE
  8
0
  6
CONTINUOUS
 62
     7
 10
66.331627
 20
-596.96906
 11
41.331657
 21
-596.96906
  0
LINE
  8
0
  6
CONTINUOUS
 62
     7
 10
66.331642
 20
-596.96906
 11
68.331642
 21
-594.96906
  0
LINE
  8
0
  6
CONTINUOUS
 62
     7
 10
68.331657
 20
-475.96906
 11
66.331657
 21
-473.96906
  0
LINE
  8
0
  6
CONTINUOUS
 62
     7
 10
41.33165
 20
-473.96906
 11
39.33165
 21
-475.96909
  0
LINE
  8
0
  6
CONTINUOUS
 62
     7
 10
41.33165
 20
-596.96906
 11
39.331646
 21
-594.96906
  0
LINE
  8
0
  6
CONTINUOUS
 62
     7
 10
67.331627
 20
-573.47815
 11
40.331657
 21
-573.47815
  0
LINE
  8
0
  6
CONTINUOUS
 62
     7
 10
67.331627
 20
-497.45996
 11
40.331657
 21
-497.45996
  0
LINE
  8
0
  6
CONTINUOUS
 62
     7
 10
-161.72501
 20
150.95
 11
-167.22501
 21
150.95
  0
LINE
  8
0
  6
CONTINUOUS
 62
     7
 10
-167.22501
 20
150.95
 11
-167.22501
 21
149.95
  0
LINE
  8
0
  6
CONTINUOUS
 62
     7
 10
-161.72501
 20
150.95
 11
-161.72501
 21
149.95
  0
LINE
  8
0
  6
CONTINUOUS
 62
     7
 10
-161.72501
 20
121.95
 11
-167.22501
 21
121.95
  0
LINE
  8
0
  6
CONTINUOUS
 62
     7
 10
-167.22501
 20
121.95
 11
-167.22501
 21
122.95
  0
LINE
  8
0
  6
CONTINUOUS
 62
     7
 10
-161.72501
 20
121.95
 11
-161.72501
 21
122.95
  0
LINE
  8
0
  6
CONTINUOUS
 62
     7
 10
-2.8249969
 20
152.95
 11
-2.8249969
 21
151.95
  0
LINE
  8
0
  6
CONTINUOUS
 62
     7
 10
7.1750031
 20
152.95
 11
7.1750031
 21
151.80812
  0
LINE
  8
0
  6
CONTINUOUS
 62
     7
 10
-2.8249969
 20
152.95
 11
7.1750031
 21
152.95
  0
LINE
  8
0
  6
CONTINUOUS
 62
     7
 10
-2.8249969
 20
119.95
 11
-2.8249969
 21
120.95
  0
LINE
  8
0
  6
CONTINUOUS
 62
     7
 10
7.1750031
 20
119.95
 11
7.1750031
 21
121.09187
  0
LINE
  8
0
  6
CONTINUOUS
 62
     7
 10
-2.8249969
 20
119.95
 11
7.1750031
 21
119.95
  0
LINE
  8
0
  6
CONTINUOUS
 62
     7
 10
196.25
 20
155.7
 11
196.25
 21
154.7
  0
LINE
  8
0
  6
CONTINUOUS
 62
     7
 10
186.25
 20
155.7
 11
186.25
 21
154.7
  0
LINE
  8
0
  6
CONTINUOUS
 62
     7
 10
186.25
 20
155.7
 11
196.25
 21
155.7
  0
LINE
  8
0
  6
CONTINUOUS
 62
     7
 10
186.25
 20
117.2
 11
196.25
 21
117.2
  0
LINE
  8
0
  6
CONTINUOUS
 62
     7
 10
196.25
 20
117.2
 11
196.25
 21
118.2
  0
LINE
  8
0
  6
CONTINUOUS
 62
     7
 10
186.25
 20
117.2
 11
186.25
 21
118.2
  0
LINE
  8
0
  6
CONTINUOUS
 62
     7
 10
-71.494339
 20
35.355343
 11
-71.494339
 21
33.855343
  0
LINE
  8
0
  6
CONTINUOUS
 62
     7
 10
-61.494339
 20
35.355343
 11
-61.494339
 21
33.855343
  0
LINE
  8
0
  6
CONTINUOUS
 62
     7
 10
-71.494339
 20
35.355343
 11
-61.494339
 21
35.355343
  0
LINE
  8
0
  6
CONTINUOUS
 62
     7
 10
-71.494339
 20
-12.144653
 11
-61.494339
 21
-12.144653
  0
LINE
  8
0
  6
CONTINUOUS
 62
     7
 10
-71.494339
 20
-12.144653
 11
-71.494339
 21
-10.644654
  0
LINE
  8
0
  6
CONTINUOUS
 62
     7
 10
-61.494339
 20
-12.144653
 11
-61.494339
 21
-10.644654
  0
LINE
  8
0
  6
CONTINUOUS
 62
     7
 10
163.3125
 20
41.14135
 11
163.3125
 21
39.64135
  0
LINE
  8
0
  6
CONTINUOUS
 62
     7
 10
153.3125
 20
41.14135
 11
153.3125
 21
39.64135
  0
LINE
  8
0
  6
CONTINUOUS
 62
     7
 10
163.3125
 20
-14.858646
 11
163.3125
 21
-13.358646
  0
LINE
  8
0
  6
CONTINUOUS
 62
     7
 10
153.3125
 20
-14.858646
 11
153.3125
 21
-13.358646
  0
LINE
  8
0
  6
CONTINUOUS
 62
     7
 10
-84.01825
 20
-94.759651
 11
-84.01825
 21
-96.259651
  0
LINE
  8
0
  6
CONTINUOUS
 62
     7
 10
-74.01825
 20
-94.759651
 11
-74.01825
 21
-96.259651
  0
LINE
  8
0
  6
CONTINUOUS
 62
     7
 10
-84.01825
 20
-94.759651
 11
-74.01825
 21
-94.759651
  0
LINE
  8
0
  6
CONTINUOUS
 62
     7
 10
153.3125
 20
41.14135
 11
163.3125
 21
41.14135
  0
LINE
  8
0
  6
CONTINUOUS
 62
     7
 10
153.3125
 20
-14.858646
 11
163.3125
 21
-14.858646
  0
LINE
  8
0
  6
CONTINUOUS
 62
     7
 10
-84.01825
 20
-157.75966
 11
-74.01825
 21
-157.75966
  0
LINE
  8
0
  6
CONTINUOUS
 62
     7
 10
-84.01825
 20
-157.75966
 11
-84.01825
 21
-156.25966
  0
LINE
  8
0
  6
CONTINUOUS
 62
     7
 10
-74.01825
 20
-157.75966
 11
-74.01825
 21
-156.25966
  0
LINE
  8
0
  6
CONTINUOUS
 62
     7
 10
192.74437
 20
-85.26178
 11
192.74437
 21
-86.76178
  0
LINE
  8
0
  6
CONTINUOUS
 62
     7
 10
202.74437
 20
-85.26178
 11
202.74437
 21
-86.76178
  0
LINE
  8
0
  6
CONTINUOUS
 62
     7
 10
192.74437
 20
-85.26178
 11
202.74437
 21
-85.26178
  0
LINE
  8
0
  6
CONTINUOUS
 62
     7
 10
192.74437
 20
-161.26178
 11
202.74437
 21
-161.26178
  0
LINE
  8
0
  6
CONTINUOUS
 62
     7
 10
192.74437
 20
-161.26178
 11
192.74437
 21
-159.76178
  0
LINE
  8
0
  6
CONTINUOUS
 62
     7
 10
202.74437
 20
-161.26178
 11
202.74437
 21
-159.76178
  0
LINE
  8
0
  6
CONTINUOUS
 62
     7
 10
68.335915
 20
-292.35849
 11
83.335915
 21
-292.35849
  0
LINE
  8
0
  6
CONTINUOUS
 62
     7
 10
68.335915
 20
-385.85849
 11
83.335915
 21
-385.85849
  0
LINE
  8
0
  6
CONTINUOUS
 62
     7
 10
89.331627
 20
-481.71906
 11
89.331627
 21
-483.26678
  0
LINE
  8
0
  6
CONTINUOUS
 62
     7
 10
74.331627
 20
-481.71906
 11
74.331627
 21
-483.21906
  0
LINE
  8
0
  6
CONTINUOUS
 62
     7
 10
74.331627
 20
-481.71906
 11
89.331627
 21
-481.71906
  0
LINE
  8
0
  6
CONTINUOUS
 62
     7
 10
74.331627
 20
-589.21906
 11
89.331627
 21
-589.21906
  0
LINE
  8
0
  6
CONTINUOUS
 62
     7
 10
74.331627
 20
-589.21906
 11
74.331627
 21
-587.71906
  0
LINE
  8
0
  6
CONTINUOUS
 62
     7
 10
89.331627
 20
-589.21906
 11
89.331627
 21
-587.67133
  0
LINE
  8
0
  6
CONTINUOUS
 62
     7
 10
68.335915
 20
-292.35849
 11
68.335915
 21
-293.85849
  0
LINE
  8
0
  6
CONTINUOUS
 62
     7
 10
83.335915
 20
-292.35849
 11
83.335915
 21
-293.90863
  0
LINE
  8
0
  6
CONTINUOUS
 62
     7
 10
68.335915
 20
-384.35849
 11
68.335915
 21
-385.85849
  0
LINE
  8
0
  6
CONTINUOUS
 62
     7
 10
83.335915
 20
-384.30838
 11
83.335915
 21
-385.85849
  0
LINE
  8
0
  6
CONTINUOUS
 62
     7
 10
-213.74741
 20
144.10365
 11
-224.57133
 21
154.92757
  0
LINE
  8
0
  6
CONTINUOUS
 62
     7
 10
-224.57135
 20
154.92758
 11
-239.87868
 21
154.92758
  0
LINE
  8
0
  6
CONTINUOUS
 62
     7
 10
-250.70261
 20
144.10367
 11
-239.87869
 21
154.92758
  0
LINE
  8
0
  6
CONTINUOUS
 62
     7
 10
-250.70261
 20
128.79633
 11
-250.70261
 21
144.10365
  0
LINE
  8
0
  6
CONTINUOUS
 62
     7
 10
-239.87868
 20
117.97239
 11
-250.70259
 21
128.79631
  0
LINE
  8
0
  6
CONTINUOUS
 62
     7
 10
-224.57133
 20
117.97239
 11
-239.87868
 21
117.97239
  0
LINE
  8
0
  6
CONTINUOUS
 62
     7
 10
-213.74742
 20
128.79633
 11
-224.57135
 21
117.9724
  0
LINE
  8
0
  6
CONTINUOUS
 62
     7
 10
-213.74742
 20
144.10365
 11
-213.74742
 21
128.79633
  0
LINE
  8
0
  6
CENTER
 62
     7
 10
-232.22501
 20
157.53589
 11
-232.22501
 21
115.36408
  0
LINE
  8
0
  6
CONTINUOUS
 62
     7
 10
-47.825012
 20
145.14848
 11
-60.126518
 21
157.44998
  0
LINE
  8
0
  6
CONTINUOUS
 62
     7
 10
-60.126526
 20
157.45
 11
-77.523483
 21
157.45
  0
LINE
  8
0
  6
CONTINUOUS
 62
     7
 10
-89.82502
 20
145.14848
 11
-77.523499
 21
157.45
  0
LINE
  8
0
  6
CONTINUOUS
 62
     7
 10
-89.824997
 20
127.75151
 11
-89.824997
 21
145.14847
  0
LINE
  8
0
  6
CONTINUOUS
 62
     7
 10
-77.523499
 20
115.44999
 11
-89.825005
 21
127.7515
  0
LINE
  8
0
  6
CONTINUOUS
 62
     7
 10
-60.126526
 20
115.45
 11
-77.523483
 21
115.45
  0
LINE
  8
0
  6
CONTINUOUS
 62
     7
 10
-47.825008
 20
127.7515
 11
-60.126526
 21
115.44999
  0
LINE
  8
0
  6
CONTINUOUS
 62
     7
 10
-47.824997
 20
145.14847
 11
-47.824997
 21
127.75151
  0
LINE
  8
0
  6
CENTER
 62
     7
 10
-68.824997
 20
159.73589
 11
-68.824997
 21
113.16409
  0
LINE
  8
0
  6
CONTINUOUS
 62
     7
 10
137.23282
 20
146.59111
 11
122.89112
 21
160.9328
  0
LINE
  8
0
  6
CONTINUOUS
 62
     7
 10
122.89112
 20
160.9328
 11
102.60889
 21
160.9328
  0
LINE
  8
0
  6
CONTINUOUS
 62
     7
 10
88.267189
 20
146.59109
 11
102.60889
 21
160.9328
  0
LINE
  8
0
  6
CONTINUOUS
 62
     7
 10
88.267197
 20
126.30888
 11
88.267197
 21
146.59109
  0
LINE
  8
0
  6
CONTINUOUS
 62
     7
 10
102.60888
 20
111.96717
 11
88.267181
 21
126.30887
  0
LINE
  8
0
  6
CONTINUOUS
 62
     7
 10
122.89112
 20
111.96718
 11
102.60889
 21
111.96718
  0
LINE
  8
0
  6
CONTINUOUS
 62
     7
 10
137.2328
 20
126.30888
 11
122.89111
 21
111.96718
  0
LINE
  8
0
  6
CONTINUOUS
 62
     7
 10
137.23282
 20
146.59109
 11
137.23282
 21
126.30888
  0
LINE
  8
0
  6
CENTER
 62
     7
 10
112.75001
 20
162.48589
 11
112.75001
 21
110.41409
  0
LINE
  8
0
  6
CONTINUOUS
 62
     7
 10
-118.99433
 20
23.617535
 11
-135.98215
 21
40.60535
  0
LINE
  8
0
  6
CONTINUOUS
 62
     7
 10
-135.98215
 20
40.60535
 11
-160.00653
 21
40.60535
  0
LINE
  8
0
  6
CONTINUOUS
 62
     7
 10
-176.99434
 20
23.61754
 11
-160.00653
 21
40.605343
  0
LINE
  8
0
  6
CONTINUOUS
 62
     7
 10
-176.99434
 20
-0.4068538
 11
-176.99434
 21
23.617535
  0
LINE
  8
0
  6
CONTINUOUS
 62
     7
 10
-160.00653
 20
-17.394659
 11
-176.99434
 21
-0.40684319
  0
LINE
  8
0
  6
CONTINUOUS
 62
     7
 10
-135.98215
 20
-17.394655
 11
-160.00653
 21
-17.394655
  0
LINE
  8
0
  6
CONTINUOUS
 62
     7
 10
-118.99433
 20
-0.40685397
 11
-135.98213
 21
-17.394659
  0
LINE
  8
0
  6
CONTINUOUS
 62
     7
 10
-118.99434
 20
23.617535
 11
-118.99434
 21
-0.4068538
  0
LINE
  8
0
  6
CENTER
 62
     7
 10
-147.99434
 20
46.71423
 11
-147.99434
 21
-22.522951
  0
LINE
  8
0
  6
CONTINUOUS
 62
     7
 10
99.312515
 20
26.810396
 11
79.981552
 21
46.141361
  0
LINE
  8
0
  6
CONTINUOUS
 62
     7
 10
79.981552
 20
46.14135
 11
52.643448
 21
46.14135
  0
LINE
  8
0
  6
CONTINUOUS
 62
     7
 10
33.312508
 20
26.810402
 11
52.643463
 21
46.141357
  0
LINE
  8
0
  6
CONTINUOUS
 62
     7
 10
33.3125
 20
-0.52769947
 11
33.3125
 21
26.810394
  0
LINE
  8
0
  6
CONTINUOUS
 62
     7
 10
52.643471
 20
-19.858648
 11
33.312508
 21
-0.52768528
  0
LINE
  8
0
  6
CONTINUOUS
 62
     7
 10
79.981552
 20
-19.858648
 11
52.643448
 21
-19.858648
  0
LINE
  8
0
  6
CONTINUOUS
 62
     7
 10
99.312515
 20
-0.52769202
 11
79.98156
 21
-19.858648
  0
LINE
  8
0
  6
CONTINUOUS
 62
     7
 10
99.3125
 20
26.810394
 11
99.3125
 21
-0.52769947
  0
LINE
  8
0
  6
CENTER
 62
     7
 10
66.3125
 20
47.027245
 11
66.3125
 21
-20.744543
  0
LINE
  8
0
  6
CENTER
 62
     7
 10
-172.01825
 20
-84.434639
 11
-172.01825
 21
-168.78464
  0
LINE
  8
0
  6
CONTINUOUS
 62
     7
 10
-133.63989
 20
-126.25965
 11
-140.9695
 21
-103.70142
  0
LINE
  8
0
  6
CONTINUOUS
 62
     7
 10
-140.9695
 20
-103.7014
 11
-160.15868
 21
-89.759636
  0
LINE
  8
0
  6
CONTINUOUS
 62
     7
 10
-183.87782
 20
-89.759651
 11
-160.15868
 21
-89.759651
  0
LINE
  8
0
  6
CONTINUOUS
 62
     7
 10
-203.06699
 20
-103.7014
 11
-183.87782
 21
-89.759659
  0
LINE
  8
0
  6
CONTINUOUS
 62
     7
 10
-210.39662
 20
-126.25964
 11
-203.067
 21
-103.7014
  0
LINE
  8
0
  6
CONTINUOUS
 62
     7
 10
-203.06702
 20
-148.81789
 11
-210.39662
 21
-126.25967
  0
LINE
  8
0
  6
CONTINUOUS
 62
     7
 10
-183.87781
 20
-162.75964
 11
-203.067
 21
-148.81787
  0
LINE
  8
0
  6
CONTINUOUS
 62
     7
 10
-160.15868
 20
-162.75964
 11
-183.87781
 21
-162.75964
  0
LINE
  8
0
  6
CONTINUOUS
 62
     7
 10
-140.9695
 20
-148.8179
 11
-160.15866
 21
-162.75964
  0
LINE
  8
0
  6
CONTINUOUS
 62
     7
 10
-133.63988
 20
-126.25964
 11
-140.96948
 21
-148.81789
  0
LINE
  8
0
  6
CONTINUOUS
 62
     7
 10
127.98299
 20
-123.26177
 11
119.2477
 21
-96.377289
  0
LINE
  8
0
  6
CONTINUOUS
 62
     7
 10
119.24769
 20
-96.377274
 11
96.378387
 21
-79.761757
  0
LINE
  8
0
  6
CONTINUOUS
 62
     7
 10
68.110367
 20
-79.76178
 11
96.378372
 21
-79.76178
  0
LINE
  8
0
  6
CONTINUOUS
 62
     7
 10
45.241074
 20
-96.377304
 11
68.110382
 21
-79.76178
  0
LINE
  8
0
  6
CONTINUOUS
 62
     7
 10
36.505775
 20
-123.26177
 11
45.241074
 21
-96.377289
  0
LINE
  8
0
  6
CONTINUOUS
 62
     7
 10
45.241051
 20
-150.14626
 11
36.505753
 21
-123.26177
  0
LINE
  8
0
  6
CONTINUOUS
 62
     7
 10
68.110367
 20
-166.76175
 11
45.241074
 21
-150.14624
  0
LINE
  8
0
  6
CONTINUOUS
 62
     7
 10
96.378387
 20
-166.76178
 11
68.110367
 21
-166.76178
  0
LINE
  8
0
  6
CONTINUOUS
 62
     7
 10
119.24767
 20
-150.14622
 11
96.378365
 21
-166.76175
  0
LINE
  8
0
  6
CONTINUOUS
 62
     7
 10
127.983
 20
-123.26177
 11
119.2477
 21
-150.14626
  0
LINE
  8
0
  6
CENTER
 62
     7
 10
82.24437
 20
-70.061768
 11
82.24437
 21
-174.36176
  0
LINE
  8
0
  6
CENTER
 62
     7
 10
-46.664085
 20
-282.29367
 11
-46.664085
 21
-396.64511
  0
LINE
  8
0
  6
CENTER
 62
     7
 10
-60.668343
 20
-473.96906
 11
-60.668343
 21
-596.96906
  0
LINE
  8
0
  6
CONTINUOUS
 62
     7
 10
3.996582
 20
-535.46906
 11
-8.3533278
 21
-497.45993
  0
LINE
  8
0
  6
CONTINUOUS
 62
     7
 10
-8.3533077
 20
-497.45996
 11
-40.685768
 21
-473.96906
  0
LINE
  8
0
  6
CONTINUOUS
 62
     7
 10
-80.650917
 20
-473.96906
 11
-40.685799
 21
-473.96906
  0
LINE
  8
0
  6
CONTINUOUS
 62
     7
 10
-112.98336
 20
-497.45996
 11
-80.650902
 21
-473.96906
  0
LINE
  8
0
  6
CONTINUOUS
 62
     7
 10
-125.33327
 20
-535.46906
 11
-112.98337
 21
-497.45999
  0
LINE
  8
0
  6
CONTINUOUS
 62
     7
 10
-112.9834
 20
-573.47815
 11
-125.33331
 21
-535.46906
  0
LINE
  8
0
  6
CONTINUOUS
 62
     7
 10
-80.650894
 20
-596.96906
 11
-112.98335
 21
-573.47815
  0
LINE
  8
0
  6
CONTINUOUS
 62
     7
 10
-40.685799
 20
-596.96906
 11
-80.650917
 21
-596.96906
  0
LINE
  8
0
  6
CONTINUOUS
 62
     7
 10
-8.3532829
 20
-573.47821
 11
-40.685741
 21
-596.96912
  0
LINE
  8
0
  6
CONTINUOUS
 62
     7
 10
3.9965541
 20
-535.46906
 11
-8.3533468
 21
-573.47815
  0
LINE
  8
0
  6
CENTER
 62
     7
 10
-103.98901
 20
-339.10849
 11
13.332665
 21
-339.10849
  0
LINE
  8
0
  6
CENTER
 62
     7
 10
-127.83512
 20
-535.46906
 11
8.1816635
 21
-535.46906
  0
LINE
  8
0
  6
CENTER
 62
     7
 10
31.951357
 20
-123.26178
 11
133.87408
 21
-123.26178
  0
LINE
  8
0
  6
CENTER
 62
     7
 10
-214.85214
 20
-126.25965
 11
-129.16286
 21
-126.25965
  0
LINE
  8
0
  6
CENTER
 62
     7
 10
24.308321
 20
13.141353
 11
107.82495
 21
13.141353
  0
LINE
  8
0
  6
CENTER
 62
     7
 10
-183.53633
 20
11.605346
 11
-111.37531
 21
11.605346
  0
LINE
  8
0
  6
CENTER
 62
     7
 10
-258.35236
 20
136.45
 11
-204.84079
 21
136.45
  0
LINE
  8
0
  6
CENTER
 62
     7
 10
-96.292229
 20
136.45
 11
-42.795044
 21
136.45
  0
LINE
  8
0
  6
CENTER
 62
     7
 10
79.727821
 20
136.45
 11
142.90979
 21
136.45
  0
LINE
  8
0
  6
CONTINUOUS
 62
     7
 10
10.114861
 20
-339.10849
 11
-0.72894967
 21
-305.73465
  0
LINE
  8
0
  6
CONTINUOUS
 62
     7
 10
-0.72892928
 20
-305.73465
 11
-29.11842
 21
-285.10849
  0
LINE
  8
0
  6
CONTINUOUS
 62
     7
 10
-64.209747
 20
-285.10849
 11
-29.118422
 21
-285.10849
  0
LINE
  8
0
  6
CONTINUOUS
 62
     7
 10
-92.599236
 20
-305.73468
 11
-64.209763
 21
-285.10849
  0
LINE
  8
0
  6
CONTINUOUS
 62
     7
 10
-103.44305
 20
-339.10852
 11
-92.599236
 21
-305.73465
  0
LINE
  8
0
  6
CONTINUOUS
 62
     7
 10
-92.599236
 20
-372.4823
 11
-103.44305
 21
-339.10849
  0
LINE
  8
0
  6
CONTINUOUS
 62
     7
 10
-64.209724
 20
-393.10849
 11
-92.59922
 21
-372.48233
  0
LINE
  8
0
  6
CONTINUOUS
 62
     7
 10
-29.118422
 20
-393.10852
 11
-64.209747
 21
-393.10852
  0
LINE
  8
0
  6
CONTINUOUS
 62
     7
 10
-0.72897154
 20
-372.4823
 11
-29.118448
 21
-393.10849
  0
LINE
  8
0
  6
CONTINUOUS
 62
     7
 10
10.114863
 20
-339.10849
 11
-0.728957
 21
-372.48233
  0
LINE
  8
0
  6
CONTINUOUS
 62
     7
 10
-297
 20
-210
 11
-297
 21
210
  0
LINE
  8
0
  6
CONTINUOUS
 62
     7
 10
297
 20
-210
 11
-297
 21
-210
  0
LINE
  8
0
  6
CONTINUOUS
 62
     7
 10
297
 20
210
 11
297
 21
-210
  0
LINE
  8
0
  6
CONTINUOUS
 62
     7
 10
-297
 20
210
 11
297
 21
210
  0
LINE
  8
0
  6
CONTINUOUS
 62
     7
 10
317
 20
-650
 11
317
 21
-230
  0
LINE
  8
0
  6
CONTINUOUS
 62
     7
 10
317
 20
-230
 11
911
 21
-230
  0
LINE
  8
0
  6
CONTINUOUS
 62
     7
 10
911
 20
-650
 11
317
 21
-650
  0
LINE
  8
0
  6
CONTINUOUS
 62
     7
 10
911
 20
-230
 11
911
 21
-650
  0
LINE
  8
0
  6
CONTINUOUS
 62
     7
 10
464.77499
 20
149.95
 11
453.54468
 21
149.95
  0
LINE
  8
0
  6
CONTINUOUS
 62
     7
 10
464.77499
 20
122.95
 11
453.54468
 21
122.95
  0
LINE
  8
0
  6
CENTER
 62
     7
 10
493.52765
 20
136.45
 11
417.42847
 21
136.45
  0
LINE
  8
0
  6
CONTINUOUS
 62
     7
 10
486.54407
 20
146.72659
 11
488.77499
 21
144.35175
  0
LINE
  8
0
  6
CONTINUOUS
 62
     7
 10
449.21457
 20
152.45
 11
442.27502
 21
152.45
  0
LINE
  8
0
  6
CONTINUOUS
 62
     7
 10
449.21457
 20
120.45
 11
442.27502
 21
120.45
  0
LINE
  8
0
  6
CONTINUOUS
 62
     7
 10
486.54407
 20
126.17341
 11
488.77502
 21
128.54828
  0
LINE
  8
0
  6
CONTINUOUS
 62
     7
 10
473.77502
 20
145.99982
 11
487.63364
 21
145.56673
  0
LINE
  8
0
  6
CONTINUOUS
 62
     7
 10
471.46249
 20
147.99101
 11
472.40131
 21
147.96169
  0
LINE
  8
0
  6
CONTINUOUS
 62
     7
 10
471.46249
 20
124.90898
 11
472.40128
 21
124.93832
  0
LINE
  8
0
  6
CONTINUOUS
 62
     7
 10
472.94357
 20
147.18724
 11
486.50958
 21
146.76331
  0
LINE
  8
0
  6
CONTINUOUS
 62
     7
 10
472.40128
 20
147.96169
 11
473.77499
 21
145.99983
  0
LINE
  8
0
  6
CONTINUOUS
 62
     7
 10
472.40128
 20
124.93832
 11
473.77499
 21
126.90018
  0
LINE
  8
0
  6
CONTINUOUS
 62
     7
 10
472.94357
 20
125.71275
 11
486.50958
 21
126.1367
  0
LINE
  8
0
  6
CONTINUOUS
 62
     7
 10
473.77499
 20
126.90018
 11
487.63361
 21
127.33326
  0
LINE
  8
0
  6
CONTINUOUS
 62
     7
 10
449.21457
 20
152.45
 11
449.21457
 21
120.45
  0
LINE
  8
0
  6
CONTINUOUS
 62
     7
 10
486.50958
 20
146.76329
 11
486.50958
 21
126.1367
  0
LINE
  8
0
  6
CONTINUOUS
 62
     7
 10
473.77499
 20
126.90019
 11
473.77499
 21
145.99982
  0
LINE
  8
0
  6
CONTINUOUS
 62
     7
 10
472.40128
 20
147.96169
 11
472.40128
 21
124.93832
  0
LINE
  8
0
  6
CONTINUOUS
 62
     7
 10
426.77499
 20
119.95
 11
426.77499
 21
152.95
  0
LINE
  8
0
  6
CONTINUOUS
 62
     7
 10
442.27502
 20
119.95
 11
442.27502
 21
152.94998
  0
LINE
  8
0
  6
CONTINUOUS
 62
     7
 10
440.27502
 20
154.95
 11
428.77499
 21
154.95
  0
LINE
  8
0
  6
CONTINUOUS
 62
     7
 10
440.27502
 20
117.95
 11
428.77499
 21
117.95
  0
LINE
  8
0
  6
CONTINUOUS
 62
     7
 10
442.27502
 20
128.79633
 11
426.77499
 21
128.79633
  0
LINE
  8
0
  6
CONTINUOUS
 62
     7
 10
442.27502
 20
144.10367
 11
426.77499
 21
144.10367
  0
LINE
  8
0
  6
CONTINUOUS
 62
     7
 10
440.27502
 20
117.94998
 11
442.27502
 21
119.94999
  0
LINE
  8
0
  6
CONTINUOUS
 62
     7
 10
428.77499
 20
117.94999
 11
426.77499
 21
119.95
  0
LINE
  8
0
  6
CONTINUOUS
 62
     7
 10
442.27502
 20
152.95
 11
440.27502
 21
154.95
  0
LINE
  8
0
  6
CONTINUOUS
 62
     7
 10
428.77499
 20
154.94998
 11
426.77499
 21
152.94998
  0
LINE
  8
0
  6
CONTINUOUS
 62
     7
 10
424.77499
 20
125.89999
 11
424.77499
 21
147
  0
LINE
  8
0
  6
CONTINUOUS
 62
     7
 10
426.77499
 20
125.36411
 11
424.77499
 21
125.90001
  0
LINE
  8
0
  6
CONTINUOUS
 62
     7
 10
426.77499
 20
147.53589
 11
424.77499
 21
147
  0
LINE
  8
0
  6
CENTER
 62
     7
 10
689.92767
 20
136.45
 11
614.03748
 21
136.45
  0
LINE
  8
0
  6
CONTINUOUS
 62
     7
 10
683.90961
 20
146.76329
 11
686.17499
 21
144.35172
  0
LINE
  8
0
  6
CONTINUOUS
 62
     7
 10
671.17499
 20
145.99982
 11
685.03363
 21
145.56673
  0
LINE
  8
0
  6
CONTINUOUS
 62
     7
 10
646.9447
 20
151.95
 11
659.67499
 21
151.95
  0
LINE
  8
0
  6
CONTINUOUS
 62
     7
 10
646.9447
 20
120.95
 11
659.67499
 21
120.95
  0
LINE
  8
0
  6
CONTINUOUS
 62
     7
 10
668.86249
 20
147.99101
 11
669.80127
 21
147.96169
  0
LINE
  8
0
  6
CONTINUOUS
 62
     7
 10
668.86249
 20
124.90898
 11
669.80127
 21
124.93832
  0
LINE
  8
0
  6
CONTINUOUS
 62
     7
 10
683.90961
 20
126.13672
 11
686.17499
 21
128.54828
  0
LINE
  8
0
  6
CONTINUOUS
 62
     7
 10
670.34357
 20
147.18724
 11
683.90955
 21
146.76331
  0
LINE
  8
0
  6
CONTINUOUS
 62
     7
 10
642.61456
 20
154.45
 11
637.67499
 21
154.45
  0
LINE
  8
0
  6
CONTINUOUS
 62
     7
 10
642.61456
 20
118.45
 11
637.67499
 21
118.45
  0
LINE
  8
0
  6
CONTINUOUS
 62
     7
 10
669.80127
 20
147.96169
 11
671.17499
 21
145.99983
  0
LINE
  8
0
  6
CONTINUOUS
 62
     7
 10
669.80127
 20
124.93835
 11
671.17499
 21
126.90021
  0
LINE
  8
0
  6
CONTINUOUS
 62
     7
 10
670.34351
 20
125.71276
 11
683.90961
 21
126.1367
  0
LINE
  8
0
  6
CONTINUOUS
 62
     7
 10
671.17499
 20
126.90018
 11
685.03357
 21
127.33327
  0
LINE
  8
0
  6
CONTINUOUS
 62
     7
 10
683.90961
 20
146.76329
 11
683.90961
 21
126.1367
  0
LINE
  8
0
  6
CONTINUOUS
 62
     7
 10
671.17499
 20
126.90019
 11
671.17499
 21
145.99982
  0
LINE
  8
0
  6
CONTINUOUS
 62
     7
 10
669.80127
 20
124.93834
 11
669.80127
 21
147.96169
  0
LINE
  8
0
  6
CONTINUOUS
 62
     7
 10
642.61456
 20
118.45
 11
642.61456
 21
154.45
  0
LINE
  8
0
  6
CONTINUOUS
 62
     7
 10
620.17499
 20
117.45
 11
620.17499
 21
155.45
  0
LINE
  8
0
  6
CONTINUOUS
 62
     7
 10
635.67499
 20
115.45
 11
622.17499
 21
115.45
  0
LINE
  8
0
  6
CONTINUOUS
 62
     7
 10
635.67499
 20
157.45
 11
622.17499
 21
157.45
  0
LINE
  8
0
  6
CONTINUOUS
 62
     7
 10
637.67499
 20
117.45
 11
637.67499
 21
155.45
  0
LINE
  8
0
  6
CONTINUOUS
 62
     7
 10
636.67499
 20
127.75151
 11
621.17499
 21
127.75151
  0
LINE
  8
0
  6
CONTINUOUS
 62
     7
 10
636.67499
 20
145.14848
 11
621.17499
 21
145.14848
  0
LINE
  8
0
  6
CONTINUOUS
 62
     7
 10
635.67499
 20
115.44999
 11
637.67499
 21
117.44999
  0
LINE
  8
0
  6
CONTINUOUS
 62
     7
 10
622.17499
 20
115.45
 11
620.17499
 21
117.45
  0
LINE
  8
0
  6
CONTINUOUS
 62
     7
 10
620.17499
 20
155.45
 11
622.17499
 21
157.45
  0
LINE
  8
0
  6
CONTINUOUS
 62
     7
 10
637.67499
 20
155.45
 11
635.67499
 21
157.45
  0
LINE
  8
0
  6
CONTINUOUS
 62
     7
 10
618.17499
 20
123.7
 11
618.17499
 21
149.2
  0
LINE
  8
0
  6
CONTINUOUS
 62
     7
 10
620.17499
 20
123.16411
 11
618.17499
 21
123.70001
  0
LINE
  8
0
  6
CONTINUOUS
 62
     7
 10
620.17499
 20
149.73589
 11
618.17499
 21
149.19998
  0
LINE
  8
0
  6
CENTER
 62
     7
 10
792.4754
 20
136.45
 11
870.18878
 21
136.45
  0
LINE
  8
0
  6
CONTINUOUS
 62
     7
 10
826.25
 20
154.7
 11
840.25
 21
154.7
  0
LINE
  8
0
  6
CONTINUOUS
 62
     7
 10
851.25
 20
148.74194
 11
868.25
 21
148.21069
  0
LINE
  8
0
  6
CONTINUOUS
 62
     7
 10
826.25
 20
118.2
 11
840.25
 21
118.2
  0
LINE
  8
0
  6
CONTINUOUS
 62
     7
 10
850.05054
 20
149.94142
 11
867.50299
 21
149.39603
  0
LINE
  8
0
  6
CONTINUOUS
 62
     7
 10
849.24414
 20
150.74779
 11
851.25
 21
148.74193
  0
LINE
  8
0
  6
CONTINUOUS
 62
     7
 10
849.24414
 20
122.15218
 11
851.25
 21
124.15805
  0
LINE
  8
0
  6
CONTINUOUS
 62
     7
 10
851.25
 20
124.15807
 11
868.25
 21
124.68932
  0
LINE
  8
0
  6
CONTINUOUS
 62
     7
 10
850.05048
 20
122.95859
 11
867.50305
 21
123.50397
  0
LINE
  8
0
  6
CONTINUOUS
 62
     7
 10
818.75
 20
157.45
 11
821.6261
 21
157.45
  0
LINE
  8
0
  6
CONTINUOUS
 62
     7
 10
818.75
 20
115.45
 11
821.6261
 21
115.45
  0
LINE
  8
0
  6
CONTINUOUS
 62
     7
 10
867.50305
 20
149.39604
 11
868.25
 21
148.60086
  0
LINE
  8
0
  6
CONTINUOUS
 62
     7
 10
867.50299
 20
123.50397
 11
868.25
 21
124.29914
  0
LINE
  8
0
  6
CONTINUOUS
 62
     7
 10
821.6261
 20
157.45
 11
821.6261
 21
115.45
  0
LINE
  8
0
  6
CONTINUOUS
 62
     7
 10
851.25
 20
124.15807
 11
851.25
 21
148.74194
  0
LINE
  8
0
  6
CONTINUOUS
 62
     7
 10
849.24414
 20
150.74779
 11
849.24414
 21
122.15219
  0
LINE
  8
0
  6
CONTINUOUS
 62
     7
 10
867.50305
 20
149.39603
 11
867.50305
 21
123.50397
  0
LINE
  8
0
  6
CONTINUOUS
 62
     7
 10
800.25
 20
113.95
 11
800.25
 21
158.95
  0
LINE
  8
0
  6
CONTINUOUS
 62
     7
 10
818.75
 20
113.95
 11
818.75
 21
158.95
  0
LINE
  8
0
  6
CONTINUOUS
 62
     7
 10
816.75
 20
111.95
 11
802.25
 21
111.95
  0
LINE
  8
0
  6
CONTINUOUS
 62
     7
 10
816.75
 20
160.95
 11
802.25
 21
160.95
  0
LINE
  8
0
  6
CONTINUOUS
 62
     7
 10
818.75
 20
113.94998
 11
816.75
 21
111.94998
  0
LINE
  8
0
  6
CONTINUOUS
 62
     7
 10
816.75
 20
160.94998
 11
818.75
 21
158.94998
  0
LINE
  8
0
  6
CONTINUOUS
 62
     7
 10
802.25
 20
111.94996
 11
800.25
 21
113.94996
  0
LINE
  8
0
  6
CONTINUOUS
 62
     7
 10
800.25
 20
158.94998
 11
802.25
 21
160.95
  0
LINE
  8
0
  6
CONTINUOUS
 62
     7
 10
817.75
 20
126.30888
 11
801.25
 21
126.30888
  0
LINE
  8
0
  6
CONTINUOUS
 62
     7
 10
817.75
 20
146.59111
 11
801.25
 21
146.59111
  0
LINE
  8
0
  6
CONTINUOUS
 62
     7
 10
798.25
 20
120.95
 11
798.25
 21
151.95
  0
LINE
  8
0
  6
CONTINUOUS
 62
     7
 10
800.25
 20
120.41411
 11
798.24994
 21
120.95
  0
LINE
  8
0
  6
CONTINUOUS
 62
     7
 10
800.25
 20
152.4859
 11
798.25
 21
151.95
  0
LINE
  8
0
  6
CONTINUOUS
 62
     7
 10
488.77499
 20
128.54828
 11
488.77499
 21
144.35173
  0
LINE
  8
0
  6
CONTINUOUS
 62
     7
 10
686.17499
 20
128.54829
 11
686.17499
 21
144.35172
  0
LINE
  8
0
  6
CONTINUOUS
 62
     7
 10
868.25
 20
124.29915
 11
868.25
 21
148.60085
  0
LINE
  8
0
  6
CENTER
 62
     7
 10
497.28284
 20
18.726583
 11
582.05621
 21
18.726583
  0
LINE
  8
0
  6
CONTINUOUS
 62
     7
 10
521.54529
 20
43.726585
 11
525.04529
 21
43.726585
  0
LINE
  8
0
  6
CONTINUOUS
 62
     7
 10
525.04529
 20
43.726585
 11
525.04529
 21
-6.2734151
  0
LINE
  8
0
  6
CONTINUOUS
 62
     7
 10
577.04529
 20
32.52639
 11
577.04529
 21
4.9267802
  0
LINE
  8
0
  6
CONTINUOUS
 62
     7
 10
529.5105
 20
40.976585
 11
546.04529
 21
40.976585
  0
LINE
  8
0
  6
CONTINUOUS
 62
     7
 10
558.04535
 20
34.641151
 11
575.47522
 21
34.096466
  0
LINE
  8
0
  6
CONTINUOUS
 62
     7
 10
556.51862
 20
36.167854
 11
573.94855
 21
35.623169
  0
LINE
  8
0
  6
CONTINUOUS
 62
     7
 10
558.04529
 20
34.641155
 11
556.2099
 21
36.476593
  0
LINE
  8
0
  6
CONTINUOUS
 62
     7
 10
521.54529
 20
-6.2734151
 11
525.04529
 21
-6.2734151
  0
LINE
  8
0
  6
CONTINUOUS
 62
     7
 10
529.5105
 20
-3.5234151
 11
546.04529
 21
-3.5234151
  0
LINE
  8
0
  6
CONTINUOUS
 62
     7
 10
558.04529
 20
2.8120265
 11
575.47528
 21
3.3567131
  0
LINE
  8
0
  6
CONTINUOUS
 62
     7
 10
558.04529
 20
2.812027
 11
556.2099
 21
0.97658765
  0
LINE
  8
0
  6
CONTINUOUS
 62
     7
 10
558.04529
 20
34.641151
 11
558.04529
 21
2.8120189
  0
LINE
  8
0
  6
CONTINUOUS
 62
     7
 10
556.2099
 20
0.97658491
 11
556.2099
 21
36.477638
  0
LINE
  8
0
  6
CONTINUOUS
 62
     7
 10
574.04529
 20
35.620155
 11
574.04529
 21
1.926765
  0
LINE
  8
0
  6
CONTINUOUS
 62
     7
 10
573.94855
 20
35.623158
 11
577.04529
 21
32.526394
  0
LINE
  8
0
  6
CONTINUOUS
 62
     7
 10
556.51862
 20
1.285309
 11
573.94855
 21
1.8299935
  0
LINE
  8
0
  6
CONTINUOUS
 62
     7
 10
573.94855
 20
1.8300014
 11
577.04535
 21
4.9267654
  0
LINE
  8
0
  6
CONTINUOUS
 62
     7
 10
503.04532
 20
-8.2734146
 11
503.04532
 21
45.726585
  0
LINE
  8
0
  6
CONTINUOUS
 62
     7
 10
521.54529
 20
-8.2734146
 11
521.54529
 21
45.726585
  0
LINE
  8
0
  6
CONTINUOUS
 62
     7
 10
519.54529
 20
47.726585
 11
505.04532
 21
47.726585
  0
LINE
  8
0
  6
CONTINUOUS
 62
     7
 10
519.54529
 20
-10.273415
 11
505.04532
 21
-10.273415
  0
LINE
  8
0
  6
CONTINUOUS
 62
     7
 10
521.54529
 20
-8.2734175
 11
519.54535
 21
-10.273397
  0
LINE
  8
0
  6
CONTINUOUS
 62
     7
 10
505.04532
 20
-10.273397
 11
503.04532
 21
-8.2733946
  0
LINE
  8
0
  6
CONTINUOUS
 62
     7
 10
521.54535
 20
45.726578
 11
519.54535
 21
47.726578
  0
LINE
  8
0
  6
CONTINUOUS
 62
     7
 10
505.04532
 20
47.726578
 11
503.04535
 21
45.726597
  0
LINE
  8
0
  6
CONTINUOUS
 62
     7
 10
520.54529
 20
6.7143922
 11
504.04532
 21
6.7143922
  0
LINE
  8
0
  6
CONTINUOUS
 62
     7
 10
520.54529
 20
30.738775
 11
504.04532
 21
30.738775
  0
LINE
  8
0
  6
CONTINUOUS
 62
     7
 10
501.04532
 20
-0.17340897
 11
501.04532
 21
37.626579
  0
LINE
  8
0
  6
CONTINUOUS
 62
     7
 10
501.04532
 20
-0.17342015
 11
503.04532
 21
-0.70931965
  0
LINE
  8
0
  6
CONTINUOUS
 62
     7
 10
501.04532
 20
37.626587
 11
503.04532
 21
38.162487
  0
LINE
  8
0
  6
CENTER
 62
     7
 10
716.3902
 20
20.606829
 11
802.59937
 21
20.606829
  0
LINE
  8
0
  6
CONTINUOUS
 62
     7
 10
746.58521
 20
49.606831
 11
746.58521
 21
-8.3931694
  0
LINE
  8
0
  6
CONTINUOUS
 62
     7
 10
742.58521
 20
49.606831
 11
746.58521
 21
49.606831
  0
LINE
  8
0
  6
CONTINUOUS
 62
     7
 10
750.91528
 20
47.106831
 11
766.58521
 21
47.106831
  0
LINE
  8
0
  6
CONTINUOUS
 62
     7
 10
800.58521
 20
38.258701
 11
800.58521
 21
2.9549599
  0
LINE
  8
0
  6
CONTINUOUS
 62
     7
 10
778.58514
 20
40.373451
 11
799.11188
 21
39.731995
  0
LINE
  8
0
  6
CONTINUOUS
 62
     7
 10
777.05847
 20
41.900169
 11
797.58514
 21
41.258713
  0
LINE
  8
0
  6
CONTINUOUS
 62
     7
 10
797.58521
 20
41.258713
 11
800.58521
 21
38.258732
  0
LINE
  8
0
  6
CONTINUOUS
 62
     7
 10
778.58521
 20
40.373463
 11
778.58521
 21
0.84019846
  0
LINE
  8
0
  6
CONTINUOUS
 62
     7
 10
778.58514
 20
40.373451
 11
776.23572
 21
42.722904
  0
LINE
  8
0
  6
CONTINUOUS
 62
     7
 10
742.58521
 20
-8.3931694
 11
746.58521
 21
-8.3931694
  0
LINE
  8
0
  6
CONTINUOUS
 62
     7
 10
750.91528
 20
-5.8931694
 11
766.58521
 21
-5.8931694
  0
LINE
  8
0
  6
CONTINUOUS
 62
     7
 10
778.58514
 20
0.84019846
 11
799.11188
 21
1.4816586
  0
LINE
  8
0
  6
CONTINUOUS
 62
     7
 10
777.05847
 20
-0.68650305
 11
797.58521
 21
-0.045042939
  0
LINE
  8
0
  6
CONTINUOUS
 62
     7
 10
797.58521
 20
-0.045057341
 11
800.58521
 21
2.9549243
  0
LINE
  8
0
  6
CONTINUOUS
 62
     7
 10
778.58514
 20
0.84020722
 11
776.23572
 21
-1.5092483
  0
LINE
  8
0
  6
CONTINUOUS
 62
     7
 10
776.23572
 20
42.722935
 11
776.23572
 21
-1.5092735
  0
LINE
  8
0
  6
CONTINUOUS
 62
     7
 10
797.58521
 20
-0.045040172
 11
797.58521
 21
41.258701
  0
LINE
  8
0
  6
CONTINUOUS
 62
     7
 10
723.58521
 20
-10.393169
 11
723.58521
 21
51.606831
  0
LINE
  8
0
  6
CONTINUOUS
 62
     7
 10
742.58521
 20
-10.393169
 11
742.58521
 21
51.606831
  0
LINE
  8
0
  6
CONTINUOUS
 62
     7
 10
721.58521
 20
-2.7431755
 11
721.58521
 21
43.956837
  0
LINE
  8
0
  6
CONTINUOUS
 62
     7
 10
740.58521
 20
-12.393169
 11
725.58521
 21
-12.393169
  0
LINE
  8
0
  6
CONTINUOUS
 62
     7
 10
740.58521
 20
53.606831
 11
725.58521
 21
53.606831
  0
LINE
  8
0
  6
CONTINUOUS
 62
     7
 10
742.58521
 20
-10.393171
 11
740.58521
 21
-12.393174
  0
LINE
  8
0
  6
CONTINUOUS
 62
     7
 10
725.58514
 20
-12.393173
 11
723.58514
 21
-10.393171
  0
LINE
  8
0
  6
CONTINUOUS
 62
     7
 10
723.58521
 20
51.606831
 11
725.58521
 21
53.606834
  0
LINE
  8
0
  6
CONTINUOUS
 62
     7
 10
742.58521
 20
51.60685
 11
740.58521
 21
53.606853
  0
LINE
  8
0
  6
CONTINUOUS
 62
     7
 10
741.58521
 20
6.9377785
 11
724.58521
 21
6.9377785
  0
LINE
  8
0
  6
CONTINUOUS
 62
     7
 10
741.58521
 20
34.275883
 11
724.58521
 21
34.275883
  0
LINE
  8
0
  6
CONTINUOUS
 62
     7
 10
721.58521
 20
-2.7431741
 11
723.58521
 21
-3.2790737
  0
LINE
  8
0
  6
CONTINUOUS
 62
     7
 10
721.58521
 20
43.956833
 11
723.58521
 21
44.492733
  0
LINE
  8
0
  6
CENTER
 62
     7
 10
493.98517
 20
-120.85683
 11
582.5177
 21
-120.85683
  0
LINE
  8
0
  6
CONTINUOUS
 62
     7
 10
579.7052
 20
-100.25846
 11
579.7052
 21
-141.4552
  0
LINE
  8
0
  6
CONTINUOUS
 62
     7
 10
526.7052
 20
-88.356834
 11
526.7052
 21
-153.35683
  0
LINE
  8
0
  6
CONTINUOUS
 62
     7
 10
523.7052
 20
-88.356834
 11
526.7052
 21
-88.356834
  0
LINE
  8
0
  6
CONTINUOUS
 62
     7
 10
531.03534
 20
-90.856834
 11
544.7052
 21
-90.856834
  0
LINE
  8
0
  6
CONTINUOUS
 62
     7
 10
557.70514
 20
-98.1437
 11
578.23187
 21
-98.785164
  0
LINE
  8
0
  6
CONTINUOUS
 62
     7
 10
557.7052
 20
-98.143707
 11
557.7052
 21
-143.56996
  0
LINE
  8
0
  6
CONTINUOUS
 62
     7
 10
556.17847
 20
-96.616997
 11
576.7052
 21
-97.258453
  0
LINE
  8
0
  6
CONTINUOUS
 62
     7
 10
555.24951
 20
-95.688026
 11
557.7052
 21
-98.143715
  0
LINE
  8
0
  6
CONTINUOUS
 62
     7
 10
576.7052
 20
-97.258453
 11
576.7052
 21
-144.4552
  0
LINE
  8
0
  6
CONTINUOUS
 62
     7
 10
576.7052
 20
-97.258453
 11
579.7052
 21
-100.25845
  0
LINE
  8
0
  6
CONTINUOUS
 62
     7
 10
523.7052
 20
-153.35683
 11
526.7052
 21
-153.35683
  0
LINE
  8
0
  6
CONTINUOUS
 62
     7
 10
531.03534
 20
-150.85683
 11
544.7052
 21
-150.85683
  0
LINE
  8
0
  6
CONTINUOUS
 62
     7
 10
556.17847
 20
-145.09666
 11
576.7052
 21
-144.4552
  0
LINE
  8
0
  6
CONTINUOUS
 62
     7
 10
555.24951
 20
-146.02565
 11
557.7052
 21
-143.56995
  0
LINE
  8
0
  6
CONTINUOUS
 62
     7
 10
557.70514
 20
-143.56995
 11
578.23187
 21
-142.92848
  0
LINE
  8
0
  6
CONTINUOUS
 62
     7
 10
576.7052
 20
-144.4552
 11
579.7052
 21
-141.45518
  0
LINE
  8
0
  6
CONTINUOUS
 62
     7
 10
555.24951
 20
-95.688011
 11
555.24951
 21
-146.02565
  0
LINE
  8
0
  6
CONTINUOUS
 62
     7
 10
501.7052
 20
-155.35683
 11
501.7052
 21
-86.356834
  0
LINE
  8
0
  6
CONTINUOUS
 62
     7
 10
522.7052
 20
-120.85683
 11
502.7052
 21
-120.85683
  0
LINE
  8
0
  6
CONTINUOUS
 62
     7
 10
523.7052
 20
-155.35683
 11
523.7052
 21
-86.356834
  0
LINE
  8
0
  6
CONTINUOUS
 62
     7
 10
521.7052
 20
-157.35683
 11
503.7052
 21
-157.35683
  0
LINE
  8
0
  6
CONTINUOUS
 62
     7
 10
521.7052
 20
-84.356834
 11
503.7052
 21
-84.356834
  0
LINE
  8
0
  6
CONTINUOUS
 62
     7
 10
499.7052
 20
-147.30682
 11
499.7052
 21
-94.40683
  0
LINE
  8
0
  6
CONTINUOUS
 62
     7
 10
522.7052
 20
-143.41507
 11
502.7052
 21
-143.41507
  0
LINE
  8
0
  6
CONTINUOUS
 62
     7
 10
522.7052
 20
-98.298592
 11
502.7052
 21
-98.298592
  0
LINE
  8
0
  6
CONTINUOUS
 62
     7
 10
523.7052
 20
-155.35683
 11
521.7052
 21
-157.35683
  0
LINE
  8
0
  6
CONTINUOUS
 62
     7
 10
503.70517
 20
-157.35681
 11
501.7052
 21
-155.35683
  0
LINE
  8
0
  6
CONTINUOUS
 62
     7
 10
523.7052
 20
-86.356819
 11
521.7052
 21
-84.356819
  0
LINE
  8
0
  6
CONTINUOUS
 62
     7
 10
501.70517
 20
-86.356842
 11
503.7052
 21
-84.356834
  0
LINE
  8
0
  6
CONTINUOUS
 62
     7
 10
499.70517
 20
-147.30682
 11
501.7052
 21
-147.84273
  0
LINE
  8
0
  6
CONTINUOUS
 62
     7
 10
499.7052
 20
-94.406837
 11
501.70517
 21
-93.870941
  0
LINE
  8
0
  6
CENTER
 62
     7
 10
741.1604
 20
-118.48927
 11
841.40045
 21
-118.48927
  0
LINE
  8
0
  6
CONTINUOUS
 62
     7
 10
771.80042
 20
-79.489273
 11
774.80042
 21
-79.489273
  0
LINE
  8
0
  6
CONTINUOUS
 62
     7
 10
774.80042
 20
-79.489273
 11
774.80042
 21
-157.48927
  0
LINE
  8
0
  6
CONTINUOUS
 62
     7
 10
779.13055
 20
-81.989273
 11
797.80042
 21
-81.989273
  0
LINE
  8
0
  6
CONTINUOUS
 62
     7
 10
836.30042
 20
-92.08477
 11
836.30042
 21
-144.89377
  0
LINE
  8
0
  6
CONTINUOUS
 62
     7
 10
810.30042
 20
-89.845016
 11
834.82715
 21
-90.611481
  0
LINE
  8
0
  6
CONTINUOUS
 62
     7
 10
810.30042
 20
-89.845016
 11
810.30042
 21
-147.13353
  0
LINE
  8
0
  6
CONTINUOUS
 62
     7
 10
808.77374
 20
-88.318306
 11
833.30042
 21
-89.084763
  0
LINE
  8
0
  6
CONTINUOUS
 62
     7
 10
807.08789
 20
-86.632492
 11
810.30042
 21
-89.845032
  0
LINE
  8
0
  6
CONTINUOUS
 62
     7
 10
833.30042
 20
-89.08477
 11
833.30042
 21
-147.89377
  0
LINE
  8
0
  6
CONTINUOUS
 62
     7
 10
833.30042
 20
-89.084793
 11
836.30042
 21
-92.084778
  0
LINE
  8
0
  6
CONTINUOUS
 62
     7
 10
771.80042
 20
-157.48927
 11
774.80042
 21
-157.48927
  0
LINE
  8
0
  6
CONTINUOUS
 62
     7
 10
779.13055
 20
-154.98927
 11
797.80042
 21
-154.98927
  0
LINE
  8
0
  6
CONTINUOUS
 62
     7
 10
807.08789
 20
-150.34605
 11
810.30048
 21
-147.13351
  0
LINE
  8
0
  6
CONTINUOUS
 62
     7
 10
808.77368
 20
-148.66022
 11
833.30042
 21
-147.89377
  0
LINE
  8
0
  6
CONTINUOUS
 62
     7
 10
810.30042
 20
-147.13351
 11
834.82715
 21
-146.36707
  0
LINE
  8
0
  6
CONTINUOUS
 62
     7
 10
833.30042
 20
-147.89377
 11
836.30042
 21
-144.89377
  0
LINE
  8
0
  6
CONTINUOUS
 62
     7
 10
808.77374
 20
-88.318314
 11
808.77374
 21
-148.66023
  0
LINE
  8
0
  6
CONTINUOUS
 62
     7
 10
748.30042
 20
-159.98927
 11
748.30042
 21
-76.989273
  0
LINE
  8
0
  6
CONTINUOUS
 62
     7
 10
770.80042
 20
-118.48927
 11
749.30042
 21
-118.48927
  0
LINE
  8
0
  6
CONTINUOUS
 62
     7
 10
771.80042
 20
-159.98927
 11
771.80042
 21
-76.989273
  0
LINE
  8
0
  6
CONTINUOUS
 62
     7
 10
769.80042
 20
-161.98927
 11
750.30042
 21
-161.98927
  0
LINE
  8
0
  6
CONTINUOUS
 62
     7
 10
769.80042
 20
-74.989273
 11
750.30042
 21
-74.989273
  0
LINE
  8
0
  6
CONTINUOUS
 62
     7
 10
771.80042
 20
-159.98929
 11
769.80042
 21
-161.98929
  0
LINE
  8
0
  6
CONTINUOUS
 62
     7
 10
750.30042
 20
-161.98924
 11
748.30042
 21
-159.98924
  0
LINE
  8
0
  6
CONTINUOUS
 62
     7
 10
771.80042
 20
-76.989243
 11
769.80048
 21
-74.989281
  0
LINE
  8
0
  6
CONTINUOUS
 62
     7
 10
750.30042
 20
-74.989258
 11
748.30042
 21
-76.989265
  0
LINE
  8
0
  6
CONTINUOUS
 62
     7
 10
746.30042
 20
-150.93927
 11
746.30042
 21
-86.039276
  0
LINE
  8
0
  6
CONTINUOUS
 62
     7
 10
749.30042
 20
-145.37375
 11
770.80042
 21
-145.37375
  0
LINE
  8
0
  6
CONTINUOUS
 62
     7
 10
749.30042
 20
-91.604797
 11
770.80042
 21
-91.604797
  0
LINE
  8
0
  6
CONTINUOUS
 62
     7
 10
746.30042
 20
-150.93927
 11
748.30042
 21
-151.47517
  0
LINE
  8
0
  6
CONTINUOUS
 62
     7
 10
746.30048
 20
-86.039253
 11
748.30048
 21
-85.503357
  0
LINE
  8
0
  6
CENTER
 62
     7
 10
598.40051
 20
-331.81415
 11
716.00049
 21
-331.81415
  0
LINE
  8
0
  6
CONTINUOUS
 62
     7
 10
644.66302
 20
-282.81415
 11
644.66302
 21
-380.81415
  0
LINE
  8
0
  6
CONTINUOUS
 62
     7
 10
638.66302
 20
-282.81415
 11
644.66302
 21
-282.81415
  0
LINE
  8
0
  6
CONTINUOUS
 62
     7
 10
649.50421
 20
-286.56415
 11
666.66302
 21
-286.56415
  0
LINE
  8
0
  6
CONTINUOUS
 62
     7
 10
710.66302
 20
-297.67401
 11
710.66302
 21
-365.95428
  0
LINE
  8
0
  6
CONTINUOUS
 62
     7
 10
680.66302
 20
-295.30927
 11
709.1897
 21
-296.20074
  0
LINE
  8
0
  6
CONTINUOUS
 62
     7
 10
680.66302
 20
-295.30927
 11
680.66302
 21
-368.31903
  0
LINE
  8
0
  6
CONTINUOUS
 62
     7
 10
679.13629
 20
-293.78256
 11
707.66302
 21
-294.67404
  0
LINE
  8
0
  6
CONTINUOUS
 62
     7
 10
677.13232
 20
-291.77859
 11
680.66302
 21
-295.3093
  0
LINE
  8
0
  6
CONTINUOUS
 62
     7
 10
707.66302
 20
-294.67401
 11
707.66302
 21
-368.95428
  0
LINE
  8
0
  6
CONTINUOUS
 62
     7
 10
707.66302
 20
-294.67404
 11
710.66302
 21
-297.67401
  0
LINE
  8
0
  6
CONTINUOUS
 62
     7
 10
638.66302
 20
-380.81415
 11
644.66302
 21
-380.81415
  0
LINE
  8
0
  6
CONTINUOUS
 62
     7
 10
649.50421
 20
-377.06415
 11
666.66302
 21
-377.06415
  0
LINE
  8
0
  6
CONTINUOUS
 62
     7
 10
677.13226
 20
-371.84976
 11
680.66302
 21
-368.319
  0
LINE
  8
0
  6
CONTINUOUS
 62
     7
 10
679.13629
 20
-369.84573
 11
707.66302
 21
-368.95428
  0
LINE
  8
0
  6
CONTINUOUS
 62
     7
 10
680.66302
 20
-368.31903
 11
709.1897
 21
-367.42758
  0
LINE
  8
0
  6
CONTINUOUS
 62
     7
 10
707.66302
 20
-368.95425
 11
710.66302
 21
-365.95428
  0
LINE
  8
0
  6
CONTINUOUS
 62
     7
 10
677.13226
 20
-291.77856
 11
677.13226
 21
-371.84973
  0
LINE
  8
0
  6
CONTINUOUS
 62
     7
 10
609.66302
 20
-383.81415
 11
609.66302
 21
-279.81415
  0
LINE
  8
0
  6
CONTINUOUS
 62
     7
 10
637.66302
 20
-331.81415
 11
610.66302
 21
-331.81415
  0
LINE
  8
0
  6
CONTINUOUS
 62
     7
 10
607.66302
 20
-372.21414
 11
607.66302
 21
-291.41412
  0
LINE
  8
0
  6
CONTINUOUS
 62
     7
 10
638.66302
 20
-383.81415
 11
638.66302
 21
-279.81415
  0
LINE
  8
0
  6
CONTINUOUS
 62
     7
 10
636.66302
 20
-385.81415
 11
611.66302
 21
-385.81415
  0
LINE
  8
0
  6
CONTINUOUS
 62
     7
 10
636.66302
 20
-277.81415
 11
611.66302
 21
-277.81415
  0
LINE
  8
0
  6
CONTINUOUS
 62
     7
 10
638.66302
 20
-383.81418
 11
636.66302
 21
-385.81418
  0
LINE
  8
0
  6
CONTINUOUS
 62
     7
 10
611.66302
 20
-385.81418
 11
609.66302
 21
-383.81418
  0
LINE
  8
0
  6
CONTINUOUS
 62
     7
 10
638.66302
 20
-279.81415
 11
636.66302
 21
-277.81412
  0
LINE
  8
0
  6
CONTINUOUS
 62
     7
 10
611.66302
 20
-277.81412
 11
609.66302
 21
-279.81415
  0
LINE
  8
0
  6
CONTINUOUS
 62
     7
 10
637.66302
 20
-363.9519
 11
610.66302
 21
-363.9519
  0
LINE
  8
0
  6
CONTINUOUS
 62
     7
 10
637.66302
 20
-299.67639
 11
610.66302
 21
-299.67639
  0
LINE
  8
0
  6
CONTINUOUS
 62
     7
 10
607.66296
 20
-372.21414
 11
609.66296
 21
-372.75006
  0
LINE
  8
0
  6
CONTINUOUS
 62
     7
 10
607.66302
 20
-291.41415
 11
609.66296
 21
-290.87827
  0
LINE
  8
0
  6
CENTER
 62
     7
 10
602.35181
 20
-521.1394
 11
723.81116
 21
-521.1394
  0
LINE
  8
0
  6
CONTINUOUS
 62
     7
 10
648.52679
 20
-465.1394
 11
648.52679
 21
-577.1394
  0
LINE
  8
0
  6
CONTINUOUS
 62
     7
 10
642.52679
 20
-465.1394
 11
648.52679
 21
-465.1394
  0
LINE
  8
0
  6
CONTINUOUS
 62
     7
 10
653.36798
 20
-468.8894
 11
670.52679
 21
-468.8894
  0
LINE
  8
0
  6
CONTINUOUS
 62
     7
 10
720.52679
 20
-480.74866
 11
720.52679
 21
-561.53015
  0
LINE
  8
0
  6
CONTINUOUS
 62
     7
 10
686.52679
 20
-478.25888
 11
719.05347
 21
-479.27533
  0
LINE
  8
0
  6
CONTINUOUS
 62
     7
 10
686.52679
 20
-478.25888
 11
686.52679
 21
-564.0199
  0
LINE
  8
0
  6
CONTINUOUS
 62
     7
 10
685.00006
 20
-476.73218
 11
717.52679
 21
-477.74863
  0
LINE
  8
0
  6
CONTINUOUS
 62
     7
 10
683.44312
 20
-475.1752
 11
686.52679
 21
-478.25891
  0
LINE
  8
0
  6
CONTINUOUS
 62
     7
 10
717.52679
 20
-477.74866
 11
717.52679
 21
-564.53015
  0
LINE
  8
0
  6
CONTINUOUS
 62
     7
 10
717.52679
 20
-477.74866
 11
720.52679
 21
-480.74869
  0
LINE
  8
0
  6
CONTINUOUS
 62
     7
 10
642.52679
 20
-577.1394
 11
648.52679
 21
-577.1394
  0
LINE
  8
0
  6
CONTINUOUS
 62
     7
 10
653.36798
 20
-573.3894
 11
670.52679
 21
-573.3894
  0
LINE
  8
0
  6
CONTINUOUS
 62
     7
 10
717.52679
 20
-564.53015
 11
720.52679
 21
-561.53015
  0
LINE
  8
0
  6
CONTINUOUS
 62
     7
 10
685.00012
 20
-565.54657
 11
717.52673
 21
-564.53009
  0
LINE
  8
0
  6
CONTINUOUS
 62
     7
 10
686.52673
 20
-564.0199
 11
719.05347
 21
-563.00342
  0
LINE
  8
0
  6
CONTINUOUS
 62
     7
 10
683.44312
 20
-567.10364
 11
686.52679
 21
-564.0199
  0
LINE
  8
0
  6
CONTINUOUS
 62
     7
 10
685.00006
 20
-565.54663
 11
685.00006
 21
-476.73218
  0
LINE
  8
0
  6
CONTINUOUS
 62
     7
 10
641.52679
 20
-521.1394
 11
614.52679
 21
-521.1394
  0
LINE
  8
0
  6
CONTINUOUS
 62
     7
 10
613.52679
 20
-580.6394
 11
613.52679
 21
-461.6394
  0
LINE
  8
0
  6
CONTINUOUS
 62
     7
 10
642.52679
 20
-580.6394
 11
642.52679
 21
-461.6394
  0
LINE
  8
0
  6
CONTINUOUS
 62
     7
 10
640.52679
 20
-459.6394
 11
615.52679
 21
-459.6394
  0
LINE
  8
0
  6
CONTINUOUS
 62
     7
 10
640.52679
 20
-582.6394
 11
615.52679
 21
-582.6394
  0
LINE
  8
0
  6
CONTINUOUS
 62
     7
 10
640.52679
 20
-582.6394
 11
642.52679
 21
-580.6394
  0
LINE
  8
0
  6
CONTINUOUS
 62
     7
 10
642.52679
 20
-461.63943
 11
640.52679
 21
-459.63943
  0
LINE
  8
0
  6
CONTINUOUS
 62
     7
 10
615.52679
 20
-459.6394
 11
613.52679
 21
-461.6394
  0
LINE
  8
0
  6
CONTINUOUS
 62
     7
 10
615.52679
 20
-582.6394
 11
613.52679
 21
-580.6394
  0
LINE
  8
0
  6
CONTINUOUS
 62
     7
 10
611.52679
 20
-567.98938
 11
611.52679
 21
-474.2894
  0
LINE
  8
0
  6
CONTINUOUS
 62
     7
 10
611.52679
 20
-567.98938
 11
613.52679
 21
-568.52527
  0
LINE
  8
0
  6
CONTINUOUS
 62
     7
 10
611.52686
 20
-474.28943
 11
613.52686
 21
-473.75354
  0
LINE
  8
0
  6
CONTINUOUS
 62
     7
 10
641.52679
 20
-559.1485
 11
614.52679
 21
-559.1485
  0
LINE
  8
0
  6
CONTINUOUS
 62
     7
 10
641.52679
 20
-483.13031
 11
614.52679
 21
-483.13031
  0
LINE
  8
0
  6
CONTINUOUS
 62
     7
 10
462.27499
 20
150.95
 11
456.77499
 21
150.95
  0
LINE
  8
0
  6
CONTINUOUS
 62
     7
 10
456.77499
 20
150.95
 11
456.77499
 21
149.95
  0
LINE
  8
0
  6
CONTINUOUS
 62
     7
 10
462.27499
 20
150.95
 11
462.27499
 21
149.95
  0
LINE
  8
0
  6
CONTINUOUS
 62
     7
 10
462.27499
 20
121.95
 11
456.77499
 21
121.95
  0
LINE
  8
0
  6
CONTINUOUS
 62
     7
 10
456.77499
 20
121.95
 11
456.77499
 21
122.95
  0
LINE
  8
0
  6
CONTINUOUS
 62
     7
 10
462.27499
 20
121.95
 11
462.27499
 21
122.95
  0
LINE
  8
0
  6
CONTINUOUS
 62
     7
 10
651.17499
 20
152.95
 11
651.17499
 21
151.95
  0
LINE
  8
0
  6
CONTINUOUS
 62
     7
 10
661.17499
 20
152.95
 11
661.17499
 21
151.80812
  0
LINE
  8
0
  6
CONTINUOUS
 62
     7
 10
651.17499
 20
152.95
 11
661.17499
 21
152.95
  0
LINE
  8
0
  6
CONTINUOUS
 62
     7
 10
651.17499
 20
119.95
 11
651.17499
 21
120.95
  0
LINE
  8
0
  6
CONTINUOUS
 62
     7
 10
661.17499
 20
119.95
 11
661.17499
 21
121.09187
  0
LINE
  8
0
  6
CONTINUOUS
 62
     7
 10
651.17499
 20
119.95
 11
661.17499
 21
119.95
  0
LINE
  8
0
  6
CONTINUOUS
 62
     7
 10
840.25
 20
155.7
 11
840.25
 21
154.7
  0
LINE
  8
0
  6
CONTINUOUS
 62
     7
 10
830.25
 20
155.7
 11
830.25
 21
154.7
  0
LINE
  8
0
  6
CONTINUOUS
 62
     7
 10
830.25
 20
155.7
 11
840.25
 21
155.7
  0
LINE
  8
0
  6
CONTINUOUS
 62
     7
 10
830.25
 20
117.2
 11
840.25
 21
117.2
  0
LINE
  8
0
  6
CONTINUOUS
 62
     7
 10
840.25
 20
117.2
 11
840.25
 21
118.2
  0
LINE
  8
0
  6
CONTINUOUS
 62
     7
 10
830.25
 20
117.2
 11
830.25
 21
118.2
  0
LINE
  8
0
  6
CONTINUOUS
 62
     7
 10
534.04529
 20
42.476585
 11
534.04529
 21
40.976585
  0
LINE
  8
0
  6
CONTINUOUS
 62
     7
 10
544.04529
 20
42.476585
 11
544.04529
 21
40.976585
  0
LINE
  8
0
  6
CONTINUOUS
 62
     7
 10
534.04529
 20
42.476585
 11
544.04529
 21
42.476585
  0
LINE
  8
0
  6
CONTINUOUS
 62
     7
 10
534.04529
 20
-5.0234151
 11
544.04529
 21
-5.0234151
  0
LINE
  8
0
  6
CONTINUOUS
 62
     7
 10
534.04529
 20
-5.0234151
 11
534.04529
 21
-3.5234151
  0
LINE
  8
0
  6
CONTINUOUS
 62
     7
 10
544.04529
 20
-5.0234151
 11
544.04529
 21
-3.5234151
  0
LINE
  8
0
  6
CONTINUOUS
 62
     7
 10
765.58521
 20
48.606831
 11
765.58521
 21
47.106831
  0
LINE
  8
0
  6
CONTINUOUS
 62
     7
 10
755.58521
 20
48.606831
 11
755.58521
 21
47.106831
  0
LINE
  8
0
  6
CONTINUOUS
 62
     7
 10
765.58521
 20
-7.3931694
 11
765.58521
 21
-5.8931694
  0
LINE
  8
0
  6
CONTINUOUS
 62
     7
 10
755.58521
 20
-7.3931694
 11
755.58521
 21
-5.8931694
  0
LINE
  8
0
  6
CONTINUOUS
 62
     7
 10
534.7052
 20
-89.356834
 11
534.7052
 21
-90.856834
  0
LINE
  8
0
  6
CONTINUOUS
 62
     7
 10
544.7052
 20
-89.356834
 11
544.7052
 21
-90.856834
  0
LINE
  8
0
  6
CONTINUOUS
 62
     7
 10
534.7052
 20
-89.356834
 11
544.7052
 21
-89.356834
  0
LINE
  8
0
  6
CONTINUOUS
 62
     7
 10
755.58521
 20
48.606831
 11
765.58521
 21
48.606831
  0
LINE
  8
0
  6
CONTINUOUS
 62
     7
 10
755.58521
 20
-7.3931694
 11
765.58521
 21
-7.3931694
  0
LINE
  8
0
  6
CONTINUOUS
 62
     7
 10
534.7052
 20
-152.35683
 11
544.7052
 21
-152.35683
  0
LINE
  8
0
  6
CONTINUOUS
 62
     7
 10
534.7052
 20
-152.35683
 11
534.7052
 21
-150.85683
  0
LINE
  8
0
  6
CONTINUOUS
 62
     7
 10
544.7052
 20
-152.35683
 11
544.7052
 21
-150.85683
  0
LINE
  8
0
  6
CONTINUOUS
 62
     7
 10
784.80042
 20
-80.489273
 11
784.80042
 21
-81.989273
  0
LINE
  8
0
  6
CONTINUOUS
 62
     7
 10
794.80042
 20
-80.489273
 11
794.80042
 21
-81.989273
  0
LINE
  8
0
  6
CONTINUOUS
 62
     7
 10
784.80042
 20
-80.489273
 11
794.80042
 21
-80.489273
  0
LINE
  8
0
  6
CONTINUOUS
 62
     7
 10
784.80042
 20
-156.48927
 11
794.80042
 21
-156.48927
  0
LINE
  8
0
  6
CONTINUOUS
 62
     7
 10
784.80042
 20
-156.48927
 11
784.80042
 21
-154.98927
  0
LINE
  8
0
  6
CONTINUOUS
 62
     7
 10
794.80042
 20
-156.48927
 11
794.80042
 21
-154.98927
  0
LINE
  8
0
  6
CONTINUOUS
 62
     7
 10
652.66302
 20
-285.06415
 11
667.66302
 21
-285.06415
  0
LINE
  8
0
  6
CONTINUOUS
 62
     7
 10
652.66302
 20
-378.56415
 11
667.66302
 21
-378.56415
  0
LINE
  8
0
  6
CONTINUOUS
 62
     7
 10
671.52679
 20
-467.3894
 11
671.52679
 21
-468.9371
  0
LINE
  8
0
  6
CONTINUOUS
 62
     7
 10
656.52679
 20
-467.3894
 11
656.52679
 21
-468.8894
  0
LINE
  8
0
  6
CONTINUOUS
 62
     7
 10
656.52679
 20
-467.3894
 11
671.52679
 21
-467.3894
  0
LINE
  8
0
  6
CONTINUOUS
 62
     7
 10
656.52679
 20
-574.8894
 11
671.52679
 21
-574.8894
  0
LINE
  8
0
  6
CONTINUOUS
 62
     7
 10
656.52679
 20
-574.8894
 11
656.52679
 21
-573.3894
  0
LINE
  8
0
  6
CONTINUOUS
 62
     7
 10
671.52679
 20
-574.8894
 11
671.52679
 21
-573.34167
  0
LINE
  8
0
  6
CONTINUOUS
 62
     7
 10
652.66302
 20
-285.06415
 11
652.66302
 21
-286.56415
  0
LINE
  8
0
  6
CONTINUOUS
 62
     7
 10
667.66302
 20
-285.06415
 11
667.66302
 21
-286.61426
  0
LINE
  8
0
  6
CONTINUOUS
 62
     7
 10
652.66302
 20
-377.06415
 11
652.66302
 21
-378.56415
  0
LINE
  8
0
  6
CONTINUOUS
 62
     7
 10
667.66302
 20
-377.01401
 11
667.66302
 21
-378.56415
  0
LINE
  8
0
  6
CONTINUOUS
 62
     7
 10
317
 20
-210
 11
317
 21
210
  0
LINE
  8
0
  6
CONTINUOUS
 62
     7
 10
911
 20
-210
 11
317
 21
-210
  0
LINE
  8
0
  6
CONTINUOUS
 62
     7
 10
317
 20
210
 11
911
 21
210
  0
LINE
  8
0
  6
CONTINUOUS
 62
     7
 10
911
 20
210
 11
911
 21
-210
  0
LINE
  8
0
  6
CONTINUOUS
 62
     7
 10
579.19183
 20
-521.13934
 11
566.84192
 21
-483.13025
  0
LINE
  8
0
  6
CONTINUOUS
 62
     7
 10
566.84186
 20
-483.13034
 11
534.50934
 21
-459.63943
  0
LINE
  8
0
  6
CONTINUOUS
 62
     7
 10
494.54422
 20
-459.6394
 11
534.5094
 21
-459.6394
  0
LINE
  8
0
  6
CONTINUOUS
 62
     7
 10
462.21173
 20
-483.13031
 11
494.54422
 21
-459.63937
  0
LINE
  8
0
  6
CONTINUOUS
 62
     7
 10
449.86188
 20
-521.1394
 11
462.21179
 21
-483.13031
  0
LINE
  8
0
  6
CONTINUOUS
 62
     7
 10
462.21176
 20
-559.1485
 11
449.86185
 21
-521.13934
  0
LINE
  8
0
  6
CONTINUOUS
 62
     7
 10
494.54428
 20
-582.6394
 11
462.21179
 21
-559.1485
  0
LINE
  8
0
  6
CONTINUOUS
 62
     7
 10
534.5094
 20
-582.6394
 11
494.54422
 21
-582.6394
  0
LINE
  8
0
  6
CONTINUOUS
 62
     7
 10
566.8418
 20
-559.1485
 11
534.50934
 21
-582.6394
  0
LINE
  8
0
  6
CONTINUOUS
 62
     7
 10
579.19177
 20
-521.1394
 11
566.84186
 21
-559.1485
  0
LINE
  8
0
  6
CONTINUOUS
 62
     7
 10
403.25259
 20
144.10365
 11
392.42865
 21
154.92758
  0
LINE
  8
0
  6
CONTINUOUS
 62
     7
 10
392.42865
 20
154.92758
 11
377.12134
 21
154.92758
  0
LINE
  8
0
  6
CONTINUOUS
 62
     7
 10
366.29739
 20
144.10365
 11
377.12134
 21
154.92758
  0
LINE
  8
0
  6
CONTINUOUS
 62
     7
 10
366.29739
 20
128.79633
 11
366.29739
 21
144.10365
  0
LINE
  8
0
  6
CONTINUOUS
 62
     7
 10
377.12134
 20
117.9724
 11
366.29739
 21
128.79634
  0
LINE
  8
0
  6
CONTINUOUS
 62
     7
 10
392.42865
 20
117.9724
 11
377.12134
 21
117.9724
  0
LINE
  8
0
  6
CONTINUOUS
 62
     7
 10
403.25259
 20
128.79633
 11
392.42865
 21
117.9724
  0
LINE
  8
0
  6
CONTINUOUS
 62
     7
 10
403.25256
 20
144.10365
 11
403.25256
 21
128.79633
  0
LINE
  8
0
  6
CONTINUOUS
 62
     7
 10
591.17499
 20
145.14847
 11
578.87347
 21
157.44997
  0
LINE
  8
0
  6
CONTINUOUS
 62
     7
 10
578.87347
 20
157.45
 11
561.4765
 21
157.45
  0
LINE
  8
0
  6
CONTINUOUS
 62
     7
 10
549.17499
 20
145.14847
 11
561.4765
 21
157.44997
  0
LINE
  8
0
  6
CONTINUOUS
 62
     7
 10
549.17499
 20
127.75151
 11
549.17499
 21
145.14847
  0
LINE
  8
0
  6
CONTINUOUS
 62
     7
 10
561.4765
 20
115.45
 11
549.17499
 21
127.7515
  0
LINE
  8
0
  6
CONTINUOUS
 62
     7
 10
578.87347
 20
115.45
 11
561.4765
 21
115.45
  0
LINE
  8
0
  6
CONTINUOUS
 62
     7
 10
591.17499
 20
127.75148
 11
578.87347
 21
115.44998
  0
LINE
  8
0
  6
CONTINUOUS
 62
     7
 10
591.17499
 20
145.14847
 11
591.17499
 21
127.75151
  0
LINE
  8
0
  6
CONTINUOUS
 62
     7
 10
774.73285
 20
146.59113
 11
760.39117
 21
160.93283
  0
LINE
  8
0
  6
CONTINUOUS
 62
     7
 10
760.39111
 20
160.9328
 11
740.10889
 21
160.9328
  0
LINE
  8
0
  6
CONTINUOUS
 62
     7
 10
725.76721
 20
146.59111
 11
740.10889
 21
160.9328
  0
LINE
  8
0
  6
CONTINUOUS
 62
     7
 10
725.76721
 20
126.30888
 11
725.76721
 21
146.59109
  0
LINE
  8
0
  6
CONTINUOUS
 62
     7
 10
740.10889
 20
111.96719
 11
725.76721
 21
126.30889
  0
LINE
  8
0
  6
CONTINUOUS
 62
     7
 10
760.39111
 20
111.96718
 11
740.10889
 21
111.96718
  0
LINE
  8
0
  6
CONTINUOUS
 62
     7
 10
774.73285
 20
126.30887
 11
760.39111
 21
111.96717
  0
LINE
  8
0
  6
CONTINUOUS
 62
     7
 10
774.73279
 20
146.59109
 11
774.73279
 21
126.30888
  0
LINE
  8
0
  6
CONTINUOUS
 62
     7
 10
472.04532
 20
30.738773
 11
455.0575
 21
47.726578
  0
LINE
  8
0
  6
CONTINUOUS
 62
     7
 10
455.0575
 20
47.726585
 11
431.03314
 21
47.726585
  0
LINE
  8
0
  6
CONTINUOUS
 62
     7
 10
414.04529
 20
30.738773
 11
431.03308
 21
47.726578
  0
LINE
  8
0
  6
CONTINUOUS
 62
     7
 10
414.04532
 20
6.7143846
 11
414.04532
 21
30.738775
  0
LINE
  8
0
  6
CONTINUOUS
 62
     7
 10
431.03311
 20
-10.273419
 11
414.04532
 21
6.7143855
  0
LINE
  8
0
  6
CONTINUOUS
 62
     7
 10
455.0575
 20
-10.273419
 11
431.03314
 21
-10.273419
  0
LINE
  8
0
  6
CONTINUOUS
 62
     7
 10
472.04532
 20
6.7143641
 11
455.0575
 21
-10.27344
  0
LINE
  8
0
  6
CONTINUOUS
 62
     7
 10
472.04532
 20
30.738775
 11
472.04532
 21
6.7143846
  0
LINE
  8
0
  6
CONTINUOUS
 62
     7
 10
696.58521
 20
34.275883
 11
677.25427
 21
53.606819
  0
LINE
  8
0
  6
CONTINUOUS
 62
     7
 10
677.25421
 20
53.606831
 11
649.91614
 21
53.606831
  0
LINE
  8
0
  6
CONTINUOUS
 62
     7
 10
630.58521
 20
34.275883
 11
649.91614
 21
53.606819
  0
LINE
  8
0
  6
CONTINUOUS
 62
     7
 10
630.58521
 20
6.9377851
 11
630.58521
 21
34.275875
  0
LINE
  8
0
  6
CONTINUOUS
 62
     7
 10
649.91614
 20
-12.393164
 11
630.58521
 21
6.9377732
  0
LINE
  8
0
  6
CONTINUOUS
 62
     7
 10
677.25421
 20
-12.39317
 11
649.91614
 21
-12.39317
  0
LINE
  8
0
  6
CONTINUOUS
 62
     7
 10
696.58521
 20
6.9377732
 11
677.25427
 21
-12.393164
  0
LINE
  8
0
  6
CONTINUOUS
 62
     7
 10
696.58521
 20
34.275875
 11
696.58521
 21
6.9377851
  0
LINE
  8
0
  6
CONTINUOUS
 62
     7
 10
460.08356
 20
-120.85684
 11
452.75394
 21
-98.298592
  0
LINE
  8
0
  6
CONTINUOUS
 62
     7
 10
452.75394
 20
-98.298592
 11
433.56473
 21
-84.356827
  0
LINE
  8
0
  6
CONTINUOUS
 62
     7
 10
409.84561
 20
-84.356834
 11
433.56476
 21
-84.356834
  0
LINE
  8
0
  6
CONTINUOUS
 62
     7
 10
390.65643
 20
-98.298592
 11
409.84561
 21
-84.356827
  0
LINE
  8
0
  6
CONTINUOUS
 62
     7
 10
383.32681
 20
-120.85684
 11
390.65643
 21
-98.298592
  0
LINE
  8
0
  6
CONTINUOUS
 62
     7
 10
390.6564
 20
-143.41508
 11
383.32678
 21
-120.85684
  0
LINE
  8
0
  6
CONTINUOUS
 62
     7
 10
409.84561
 20
-157.35683
 11
390.65643
 21
-143.41505
  0
LINE
  8
0
  6
CONTINUOUS
 62
     7
 10
433.56476
 20
-157.35683
 11
409.84561
 21
-157.35683
  0
LINE
  8
0
  6
CONTINUOUS
 62
     7
 10
452.75394
 20
-143.41507
 11
433.56476
 21
-157.35683
  0
LINE
  8
0
  6
CONTINUOUS
 62
     7
 10
460.08356
 20
-120.85683
 11
452.75394
 21
-143.41508
  0
LINE
  8
0
  6
CONTINUOUS
 62
     7
 10
713.039
 20
-118.48926
 11
704.30371
 21
-91.60479
  0
LINE
  8
0
  6
CONTINUOUS
 62
     7
 10
704.30371
 20
-91.60479
 11
681.43445
 21
-74.989273
  0
LINE
  8
0
  6
CONTINUOUS
 62
     7
 10
653.16644
 20
-74.989273
 11
681.43445
 21
-74.989273
  0
LINE
  8
0
  6
CONTINUOUS
 62
     7
 10
630.29712
 20
-91.604782
 11
653.16644
 21
-74.989265
  0
LINE
  8
0
  6
CONTINUOUS
 62
     7
 10
621.56183
 20
-118.48927
 11
630.29712
 21
-91.60479
  0
LINE
  8
0
  6
CONTINUOUS
 62
     7
 10
630.29712
 20
-145.37373
 11
621.56183
 21
-118.48927
  0
LINE
  8
0
  6
CONTINUOUS
 62
     7
 10
653.16644
 20
-161.98926
 11
630.29712
 21
-145.37373
  0
LINE
  8
0
  6
CONTINUOUS
 62
     7
 10
681.43445
 20
-161.98926
 11
653.16644
 21
-161.98926
  0
LINE
  8
0
  6
CONTINUOUS
 62
     7
 10
704.30371
 20
-145.37375
 11
681.43445
 21
-161.98926
  0
LINE
  8
0
  6
CONTINUOUS
 62
     7
 10
713.03906
 20
-118.48927
 11
704.30371
 21
-145.37375
  0
LINE
  8
0
  6
CENTER
 62
     7
 10
384.77499
 20
160.45
 11
384.77499
 21
112.45
  0
LINE
  8
0
  6
CENTER
 62
     7
 10
360.77499
 20
136.45
 11
408.77499
 21
136.45
  0
LINE
  8
0
  6
CENTER
 62
     7
 10
570.17499
 20
162.64999
 11
570.17499
 21
110.25
  0
LINE
  8
0
  6
CENTER
 62
     7
 10
543.97498
 20
136.45
 11
596.375
 21
136.45
  0
LINE
  8
0
  6
CENTER
 62
     7
 10
750.25
 20
166.95
 11
750.25
 21
105.95
  0
LINE
  8
0
  6
CENTER
 62
     7
 10
719.75
 20
136.45
 11
780.75
 21
136.45
  0
LINE
  8
0
  6
CENTER
 62
     7
 10
663.58521
 20
59.492733
 11
663.58521
 21
-18.279066
  0
LINE
  8
0
  6
CENTER
 62
     7
 10
624.69928
 20
20.606829
 11
702.47107
 21
20.606829
  0
LINE
  8
0
  6
CENTER
 62
     7
 10
443.04532
 20
51.076584
 11
443.04532
 21
-13.623418
  0
LINE
  8
0
  6
CENTER
 62
     7
 10
410.69531
 20
18.726583
 11
475.39532
 21
18.726583
  0
LINE
  8
0
  6
CENTER
 62
     7
 10
421.7052
 20
-81.15683
 11
421.7052
 21
-160.55684
  0
LINE
  8
0
  6
CENTER
 62
     7
 10
382.00519
 20
-120.85683
 11
461.40518
 21
-120.85683
  0
LINE
  8
0
  6
CENTER
 62
     7
 10
667.30042
 20
-70.503372
 11
667.30042
 21
-166.47516
  0
LINE
  8
0
  6
CENTER
 62
     7
 10
619.31451
 20
-118.48927
 11
715.28632
 21
-118.48927
  0
LINE
  8
0
  6
CENTER
 62
     7
 10
510.66299
 20
-275.87823
 11
510.66299
 21
-387.75003
  0
LINE
  8
0
  6
CENTER
 62
     7
 10
454.72708
 20
-331.81415
 11
566.59894
 21
-331.81415
  0
LINE
  8
0
  6
CENTER
 62
     7
 10
514.52679
 20
-456.0394
 11
514.52679
 21
-586.23938
  0
LINE
  8
0
  6
CENTER
 62
     7
 10
449.42679
 20
-521.1394
 11
579.62677
 21
-521.1394
  0
LINE
  8
0
  6
CONTINUOUS
 62
     7
 10
567.44196
 20
-331.81415
 11
556.59814
 21
-298.44034
  0
LINE
  8
0
  6
CONTINUOUS
 62
     7
 10
556.59814
 20
-298.44031
 11
528.20868
 21
-277.81412
  0
LINE
  8
0
  6
CONTINUOUS
 62
     7
 10
493.11734
 20
-277.81415
 11
528.20868
 21
-277.81415
  0
LINE
  8
0
  6
CONTINUOUS
 62
     7
 10
464.72784
 20
-298.44031
 11
493.11734
 21
-277.81412
  0
LINE
  8
0
  6
CONTINUOUS
 62
     7
 10
453.88403
 20
-331.81415
 11
464.72784
 21
-298.44031
  0
LINE
  8
0
  6
CONTINUOUS
 62
     7
 10
464.72787
 20
-365.18799
 11
453.88406
 21
-331.81415
  0
LINE
  8
0
  6
CONTINUOUS
 62
     7
 10
493.11737
 20
-385.81415
 11
464.72784
 21
-365.18796
  0
LINE
  8
0
  6
CONTINUOUS
 62
     7
 10
528.20868
 20
-385.81415
 11
493.11734
 21
-385.81415
  0
LINE
  8
0
  6
CONTINUOUS
 62
     7
 10
556.59821
 20
-365.18802
 11
528.20868
 21
-385.81421
  0
LINE
  8
0
  6
CONTINUOUS
 62
     7
 10
567.44196
 20
-331.81415
 11
556.59814
 21
-365.18799
  0
ARC
  8
0
  6
CONTINUOUS
 62
     7
 10
-159.22501
 20
141.95
 40
8
 50
58.109952
 51
90.000003
  0
ARC
  8
0
  6
CONTINUOUS
 62
     7
 10
-170.45531
 20
154.95
 40
5
 50
210
 51
270
  0
ARC
  8
0
  6
CONTINUOUS
 62
     7
 10
-159.22501
 20
130.95
 40
8
 50
270
 51
301.89007
  0
ARC
  8
0
  6
CONTINUOUS
 62
     7
 10
-152.35722
 20
119.91217
 40
5
 50
91.789908
 51
121.89007
  0
ARC
  8
0
  6
CONTINUOUS
 62
     7
 10
-152.35722
 20
152.98782
 40
5
 50
238.10995
 51
268.21009
  0
ARC
  8
0
  6
CONTINUOUS
 62
     7
 10
-170.45531
 20
117.95
 40
5
 50
90.000003
 51
150
  0
ARC
  8
0
  6
CONTINUOUS
 62
     7
 10
-7.0552979
 20
156.95
 40
5
 50
211.35719
 51
270
  0
ARC
  8
0
  6
CONTINUOUS
 62
     7
 10
5.6750031
 20
143.95
 40
8
 50
44.049136
 51
90.000003
  0
ARC
  8
0
  6
CONTINUOUS
 62
     7
 10
15.018669
 20
152.98857
 40
5
 50
224.04914
 51
268.21009
  0
ARC
  8
0
  6
CONTINUOUS
 62
     7
 10
5.6750031
 20
128.95
 40
8
 50
270
 51
315.95086
  0
ARC
  8
0
  6
CONTINUOUS
 62
     7
 10
15.018669
 20
119.91142
 40
5
 50
91.789908
 51
135.95086
  0
ARC
  8
0
  6
CONTINUOUS
 62
     7
 10
-7.0552979
 20
115.95
 40
5
 50
90.000003
 51
148.64281
  0
ARC
  8
0
  6
CONTINUOUS
 62
     7
 10
182.09123
 20
159.7
 40
5
 50
228.06813
 51
270
  0
ARC
  8
0
  6
CONTINUOUS
 62
     7
 10
196.25
 20
146.7
 40
8
 50
44.02936
 51
90.000003
  0
ARC
  8
0
  6
CONTINUOUS
 62
     7
 10
196.25
 20
126.2
 40
8
 50
270
 51
315.97063
  0
ARC
  8
0
  6
CONTINUOUS
 62
     7
 10
205.59679
 20
155.73535
 40
5
 50
224.02936
 51
265.9556
  0
ARC
  8
0
  6
CONTINUOUS
 62
     7
 10
205.59679
 20
117.16464
 40
5
 50
91.789908
 51
135.97062
  0
ARC
  8
0
  6
CONTINUOUS
 62
     7
 10
182.09123
 20
113.2
 40
5
 50
90.000003
 51
131.93187
  0
ARC
  8
0
  6
CONTINUOUS
 62
     7
 10
-76.02919
 20
38.855343
 40
5
 50
217.53063
 51
270
  0
ARC
  8
0
  6
CONTINUOUS
 62
     7
 10
-59.494339
 20
25.355343
 40
8.5
 50
41.810317
 51
90.000003
  0
ARC
  8
0
  6
CONTINUOUS
 62
     7
 10
-49.432022
 20
34.355343
 40
5
 50
221.81031
 51
270
  0
ARC
  8
0
  6
CONTINUOUS
 62
     7
 10
-49.432022
 20
-11.144654
 40
5
 50
90.000003
 51
138.18969
  0
ARC
  8
0
  6
CONTINUOUS
 62
     7
 10
-59.494339
 20
-2.1446545
 40
8.5
 50
270
 51
318.18968
  0
ARC
  8
0
  6
CONTINUOUS
 62
     7
 10
-76.02919
 20
-15.644653
 40
5
 50
90.000003
 51
142.46937
  0
ARC
  8
0
  6
CONTINUOUS
 62
     7
 10
164.3125
 20
31.14135
 40
8.5
 50
45.208674
 51
90.000003
  0
ARC
  8
0
  6
CONTINUOUS
 62
     7
 10
148.64262
 20
44.64135
 40
5
 50
228.23901
 51
270
  0
ARC
  8
0
  6
CONTINUOUS
 62
     7
 10
175.23267
 20
42.14135
 40
7
 50
225.20868
 51
259.54997
  0
ARC
  8
0
  6
CONTINUOUS
 62
     7
 10
148.64262
 20
-18.358646
 40
5
 50
90.000003
 51
131.76099
  0
ARC
  8
0
  6
CONTINUOUS
 62
     7
 10
175.23267
 20
-15.858646
 40
7
 50
100.45003
 51
134.79132
  0
ARC
  8
0
  6
CONTINUOUS
 62
     7
 10
164.3125
 20
-4.8586478
 40
8.5
 50
270
 51
314.79133
  0
ARC
  8
0
  6
CONTINUOUS
 62
     7
 10
-74.01825
 20
-105.25965
 40
9
 50
43.927692
 51
90.000003
  0
ARC
  8
0
  6
CONTINUOUS
 62
     7
 10
-87.68811
 20
-91.259651
 40
5
 50
242.22324
 51
270
  0
ARC
  8
0
  6
CONTINUOUS
 62
     7
 10
-62.494785
 20
-94.159653
 40
7
 50
223.92769
 51
261.95923
  0
ARC
  8
0
  6
CONTINUOUS
 62
     7
 10
-87.68811
 20
-161.25964
 40
5
 50
90.000003
 51
117.77676
  0
ARC
  8
0
  6
CONTINUOUS
 62
     7
 10
-74.01825
 20
-147.25966
 40
9
 50
270
 51
316.07231
  0
ARC
  8
0
  6
CONTINUOUS
 62
     7
 10
-62.494785
 20
-158.35965
 40
7
 50
98.040774
 51
136.07231
  0
ARC
  8
0
  6
CONTINUOUS
 62
     7
 10
205.74437
 20
-96.26178
 40
9.5
 50
43.223691
 51
90.000003
  0
ARC
  8
0
  6
CONTINUOUS
 62
     7
 10
187.07451
 20
-81.76178
 40
5
 50
254.57205
 51
270
  0
ARC
  8
0
  6
CONTINUOUS
 62
     7
 10
217.76768
 20
-84.961777
 40
7
 50
223.22369
 51
246.99368
  0
ARC
  8
0
  6
CONTINUOUS
 62
     7
 10
187.07451
 20
-164.76178
 40
5
 50
90.000003
 51
105.42795
  0
ARC
  8
0
  6
CONTINUOUS
 62
     7
 10
205.74437
 20
-150.26178
 40
9.5
 50
270
 51
316.77631
  0
ARC
  8
0
  6
CONTINUOUS
 62
     7
 10
217.76768
 20
-161.56178
 40
7
 50
113.00632
 51
136.77631
  0
ARC
  8
0
  6
CONTINUOUS
 62
     7
 10
82.335915
 20
-303.85849
 40
10
 50
44.627927
 51
90.000003
  0
ARC
  8
0
  6
CONTINUOUS
 62
     7
 10
65.177147
 20
-288.85849
 40
5
 50
235.37201
 51
270
  0
ARC
  8
0
  6
CONTINUOUS
 62
     7
 10
96.569588
 20
-289.8085
 40
10
 50
224.62792
 51
247.88676
  0
ARC
  8
0
  6
CONTINUOUS
 62
     7
 10
65.177147
 20
-389.35849
 40
5
 50
90.000003
 51
124.62799
  0
ARC
  8
0
  6
CONTINUOUS
 62
     7
 10
82.335915
 20
-374.35849
 40
10
 50
270
 51
315.37207
  0
ARC
  8
0
  6
CONTINUOUS
 62
     7
 10
96.569588
 20
-388.40851
 40
10
 50
112.11324
 51
135.37208
  0
ARC
  8
0
  6
CONTINUOUS
 62
     7
 10
88.331627
 20
-493.71906
 40
10.5
 50
43.072781
 51
90.000003
  0
ARC
  8
0
  6
CONTINUOUS
 62
     7
 10
71.172874
 20
-478.21906
 40
5
 50
235.37197
 51
270
  0
ARC
  8
0
  6
CONTINUOUS
 62
     7
 10
103.3066
 20
-479.71906
 40
10
 50
223.07278
 51
258.11968
  0
ARC
  8
0
  6
CONTINUOUS
 62
     7
 10
71.172874
 20
-592.71906
 40
5
 50
90.000003
 51
124.62803
  0
ARC
  8
0
  6
CONTINUOUS
 62
     7
 10
88.331627
 20
-577.21906
 40
10.5
 50
270
 51
316.92722
  0
ARC
  8
0
  6
CONTINUOUS
 62
     7
 10
103.3066
 20
-591.21906
 40
10
 50
101.88032
 51
136.92722
  0
CIRCLE
  8
0
  6
CONTINUOUS
 62
     7
 10
-232.22501
 20
136.45
 40
9.5
  0
CIRCLE
  8
0
  6
CONTINUOUS
 62
     7
 10
-68.824997
 20
136.45
 40
11.5
  0
CIRCLE
  8
0
  6
CONTINUOUS
 62
     7
 10
112.75001
 20
136.45
 40
14.25
  0
CIRCLE
  8
0
  6
CONTINUOUS
 62
     7
 10
-147.99434
 20
11.605346
 40
17.75
  0
CIRCLE
  8
0
  6
CONTINUOUS
 62
     7
 10
66.3125
 20
13.141353
 40
22
  0
CIRCLE
  8
0
  6
CONTINUOUS
 62
     7
 10
-172.01825
 20
-126.25965
 40
25
  0
CIRCLE
  8
0
  6
CONTINUOUS
 62
     7
 10
82.24437
 20
-123.26178
 40
31
  0
CIRCLE
  8
0
  6
CONTINUOUS
 62
     7
 10
-46.664085
 20
-339.10849
 40
39.25
  0
CIRCLE
  8
0
  6
CONTINUOUS
 62
     7
 10
-60.668343
 20
-535.46906
 40
45.75
  0
ARC
  8
0
  6
CONTINUOUS
 62
     7
 10
464.77499
 20
141.95
 40
8
 50
58.109952
 51
90.000003
  0
ARC
  8
0
  6
CONTINUOUS
 62
     7
 10
453.54468
 20
154.95
 40
5
 50
210
 51
270
  0
ARC
  8
0
  6
CONTINUOUS
 62
     7
 10
464.77499
 20
130.95
 40
8
 50
270
 51
301.89007
  0
ARC
  8
0
  6
CONTINUOUS
 62
     7
 10
471.64276
 20
119.91217
 40
5
 50
91.789908
 51
121.89007
  0
ARC
  8
0
  6
CONTINUOUS
 62
     7
 10
471.64276
 20
152.98782
 40
5
 50
238.10995
 51
268.21009
  0
ARC
  8
0
  6
CONTINUOUS
 62
     7
 10
453.54468
 20
117.95
 40
5
 50
90.000003
 51
150
  0
ARC
  8
0
  6
CONTINUOUS
 62
     7
 10
646.9447
 20
156.95
 40
5
 50
210
 51
270
  0
ARC
  8
0
  6
CONTINUOUS
 62
     7
 10
659.67499
 20
143.95
 40
8
 50
44.049136
 51
90.000003
  0
ARC
  8
0
  6
CONTINUOUS
 62
     7
 10
669.01868
 20
152.98857
 40
5
 50
224.04914
 51
268.21009
  0
ARC
  8
0
  6
CONTINUOUS
 62
     7
 10
659.67499
 20
128.95
 40
8
 50
270
 51
315.95086
  0
ARC
  8
0
  6
CONTINUOUS
 62
     7
 10
669.01868
 20
119.91142
 40
5
 50
91.789908
 51
135.95086
  0
ARC
  8
0
  6
CONTINUOUS
 62
     7
 10
646.9447
 20
115.95
 40
5
 50
90.000003
 51
150
  0
ARC
  8
0
  6
CONTINUOUS
 62
     7
 10
826.09125
 20
159.7
 40
5
 50
206.74368
 51
270
  0
ARC
  8
0
  6
CONTINUOUS
 62
     7
 10
840.25
 20
146.7
 40
8
 50
44.02936
 51
90.000003
  0
ARC
  8
0
  6
CONTINUOUS
 62
     7
 10
840.25
 20
126.2
 40
8
 50
270
 51
315.97063
  0
ARC
  8
0
  6
CONTINUOUS
 62
     7
 10
849.5968
 20
155.73535
 40
5
 50
224.02936
 51
265.9556
  0
ARC
  8
0
  6
CONTINUOUS
 62
     7
 10
849.5968
 20
117.16464
 40
5
 50
91.789908
 51
135.97062
  0
ARC
  8
0
  6
CONTINUOUS
 62
     7
 10
826.09125
 20
113.2
 40
5
 50
90.000003
 51
153.25632
  0
ARC
  8
0
  6
CONTINUOUS
 62
     7
 10
529.5105
 20
45.976585
 40
5
 50
206.74368
 51
270
  0
ARC
  8
0
  6
CONTINUOUS
 62
     7
 10
546.04529
 20
32.476585
 40
8.5
 50
41.810317
 51
90.000003
  0
ARC
  8
0
  6
CONTINUOUS
 62
     7
 10
556.1076
 20
41.476585
 40
5
 50
221.81031
 51
270
  0
ARC
  8
0
  6
CONTINUOUS
 62
     7
 10
556.1076
 20
-4.0234151
 40
5
 50
90.000003
 51
138.18969
  0
ARC
  8
0
  6
CONTINUOUS
 62
     7
 10
546.04529
 20
4.9765849
 40
8.5
 50
270
 51
318.18968
  0
ARC
  8
0
  6
CONTINUOUS
 62
     7
 10
529.5105
 20
-8.5234146
 40
5
 50
90.000003
 51
153.25632
  0
ARC
  8
0
  6
CONTINUOUS
 62
     7
 10
766.58521
 20
38.606831
 40
8.5
 50
45.208674
 51
90.000003
  0
ARC
  8
0
  6
CONTINUOUS
 62
     7
 10
750.91528
 20
52.106831
 40
5
 50
210
 51
270
  0
ARC
  8
0
  6
CONTINUOUS
 62
     7
 10
777.50537
 20
49.606831
 40
7
 50
225.20868
 51
259.54997
  0
ARC
  8
0
  6
CONTINUOUS
 62
     7
 10
750.91528
 20
-10.893169
 40
5
 50
90.000003
 51
150
  0
ARC
  8
0
  6
CONTINUOUS
 62
     7
 10
777.50537
 20
-8.3931694
 40
7
 50
100.45003
 51
134.79132
  0
ARC
  8
0
  6
CONTINUOUS
 62
     7
 10
766.58521
 20
2.6068306
 40
8.5
 50
270
 51
314.79133
  0
ARC
  8
0
  6
CONTINUOUS
 62
     7
 10
544.7052
 20
-99.856834
 40
9
 50
43.927692
 51
90.000003
  0
ARC
  8
0
  6
CONTINUOUS
 62
     7
 10
531.03534
 20
-85.856834
 40
5
 50
210
 51
270
  0
ARC
  8
0
  6
CONTINUOUS
 62
     7
 10
556.22864
 20
-88.756836
 40
7
 50
223.92769
 51
261.95923
  0
ARC
  8
0
  6
CONTINUOUS
 62
     7
 10
531.03534
 20
-155.85683
 40
5
 50
90.000003
 51
150
  0
ARC
  8
0
  6
CONTINUOUS
 62
     7
 10
544.7052
 20
-141.85683
 40
9
 50
270
 51
316.07231
  0
ARC
  8
0
  6
CONTINUOUS
 62
     7
 10
556.22864
 20
-152.95683
 40
7
 50
98.040774
 51
136.07231
  0
ARC
  8
0
  6
CONTINUOUS
 62
     7
 10
797.80042
 20
-91.489273
 40
9.5
 50
43.223691
 51
90.000003
  0
ARC
  8
0
  6
CONTINUOUS
 62
     7
 10
779.13055
 20
-76.989273
 40
5
 50
210
 51
270
  0
ARC
  8
0
  6
CONTINUOUS
 62
     7
 10
809.82373
 20
-80.18927
 40
7
 50
223.22369
 51
246.99368
  0
ARC
  8
0
  6
CONTINUOUS
 62
     7
 10
779.13055
 20
-159.98927
 40
5
 50
90.000003
 51
150
  0
ARC
  8
0
  6
CONTINUOUS
 62
     7
 10
797.80042
 20
-145.48927
 40
9.5
 50
270
 51
316.77631
  0
ARC
  8
0
  6
CONTINUOUS
 62
     7
 10
809.82373
 20
-156.78928
 40
7
 50
113.00632
 51
136.77631
  0
ARC
  8
0
  6
CONTINUOUS
 62
     7
 10
666.66302
 20
-296.56415
 40
10
 50
44.627927
 51
90.000003
  0
ARC
  8
0
  6
CONTINUOUS
 62
     7
 10
649.50421
 20
-281.56415
 40
5
 50
194.47751
 51
270
  0
ARC
  8
0
  6
CONTINUOUS
 62
     7
 10
680.89667
 20
-282.51416
 40
10
 50
224.62792
 51
247.88676
  0
ARC
  8
0
  6
CONTINUOUS
 62
     7
 10
649.50421
 20
-382.06415
 40
5
 50
90.000003
 51
165.52249
  0
ARC
  8
0
  6
CONTINUOUS
 62
     7
 10
666.66302
 20
-367.06415
 40
10
 50
270
 51
315.37207
  0
ARC
  8
0
  6
CONTINUOUS
 62
     7
 10
680.89667
 20
-381.11414
 40
10
 50
112.11324
 51
135.37208
  0
ARC
  8
0
  6
CONTINUOUS
 62
     7
 10
670.52679
 20
-479.3894
 40
10.5
 50
43.072781
 51
90.000003
  0
ARC
  8
0
  6
CONTINUOUS
 62
     7
 10
653.36798
 20
-463.8894
 40
5
 50
194.47751
 51
270
  0
ARC
  8
0
  6
CONTINUOUS
 62
     7
 10
685.50177
 20
-465.3894
 40
10
 50
223.07278
 51
258.11968
  0
ARC
  8
0
  6
CONTINUOUS
 62
     7
 10
653.36798
 20
-578.3894
 40
5
 50
90.000003
 51
165.52249
  0
ARC
  8
0
  6
CONTINUOUS
 62
     7
 10
670.52679
 20
-562.8894
 40
10.5
 50
270
 51
316.92722
  0
ARC
  8
0
  6
CONTINUOUS
 62
     7
 10
685.50177
 20
-576.8894
 40
10
 50
101.88032
 51
136.92722
  0
CIRCLE
  8
0
  6
CONTINUOUS
 62
     7
 10
510.66299
 20
-331.81415
 40
40.400002
  0
CIRCLE
  8
0
  6
CONTINUOUS
 62
     7
 10
510.66299
 20
-331.81415
 40
40.935898
  0
CIRCLE
  8
0
  6
CONTINUOUS
 62
     7
 10
510.66299
 20
-331.81415
 40
38.650002
  0
CIRCLE
  8
0
  6
CONTINUOUS
 62
     7
 10
514.52679
 20
-521.1394
 40
46.849998
  0
CIRCLE
  8
0
  6
CONTINUOUS
 62
     7
 10
514.52679
 20
-521.1394
 40
47.385899
  0
CIRCLE
  8
0
  6
CONTINUOUS
 62
     7
 10
514.52679
 20
-521.1394
 40
45.099998
  0
CIRCLE
  8
0
  6
CONTINUOUS
 62
     7
 10
384.77499
 20
136.45
 40
9
  0
CIRCLE
  8
0
  6
CONTINUOUS
 62
     7
 10
384.77499
 20
136.45
 40
10.55
  0
CIRCLE
  8
0
  6
CONTINUOUS
 62
     7
 10
384.77499
 20
136.45
 40
11.085898
  0
CIRCLE
  8
0
  6
CONTINUOUS
 62
     7
 10
570.17499
 20
136.45
 40
11.2
  0
CIRCLE
  8
0
  6
CONTINUOUS
 62
     7
 10
570.17499
 20
136.45
 40
12.75
  0
CIRCLE
  8
0
  6
CONTINUOUS
 62
     7
 10
570.17499
 20
136.45
 40
13.285898
  0
CIRCLE
  8
0
  6
CONTINUOUS
 62
     7
 10
750.25
 20
136.45
 40
16.035898
  0
CIRCLE
  8
0
  6
CONTINUOUS
 62
     7
 10
750.25
 20
136.45
 40
13.95
  0
CIRCLE
  8
0
  6
CONTINUOUS
 62
     7
 10
750.25
 20
136.45
 40
15.5
  0
CIRCLE
  8
0
  6
CONTINUOUS
 62
     7
 10
443.04532
 20
18.726583
 40
18.9
  0
CIRCLE
  8
0
  6
CONTINUOUS
 62
     7
 10
443.04532
 20
18.726583
 40
19.435898
  0
CIRCLE
  8
0
  6
CONTINUOUS
 62
     7
 10
443.04532
 20
18.726583
 40
17.35
  0
CIRCLE
  8
0
  6
CONTINUOUS
 62
     7
 10
663.58521
 20
20.606829
 40
23.35
  0
CIRCLE
  8
0
  6
CONTINUOUS
 62
     7
 10
663.58521
 20
20.606829
 40
23.885899
  0
CIRCLE
  8
0
  6
CONTINUOUS
 62
     7
 10
663.58521
 20
20.606829
 40
21.700001
  0
CIRCLE
  8
0
  6
CONTINUOUS
 62
     7
 10
421.7052
 20
-120.85683
 40
26.450001
  0
CIRCLE
  8
0
  6
CONTINUOUS
 62
     7
 10
421.7052
 20
-120.85683
 40
26.985899
  0
CIRCLE
  8
0
  6
CONTINUOUS
 62
     7
 10
421.7052
 20
-120.85683
 40
24.700001
  0
CIRCLE
  8
0
  6
CONTINUOUS
 62
     7
 10
667.30042
 20
-118.48927
 40
32.450001
  0
CIRCLE
  8
0
  6
CONTINUOUS
 62
     7
 10
667.30042
 20
-118.48927
 40
32.985897
  0
CIRCLE
  8
0
  6
CONTINUOUS
 62
     7
 10
667.30042
 20
-118.48927
 40
30.700001
  0
TEXT
  8
0
  6
CONTINUOUS
 62
     7
 10
-224.24172
 20
179.39566
 40
10
 41
1.0071429
  1
3/8x1/2
  0
TEXT
  8
0
  6
CONTINUOUS
 62
     7
 10
-34.906942
 20
172.27782
 40
10
 41
1.0178573
  1
1/2
  0
TEXT
  8
0
  6
CONTINUOUS
 62
     7
 10
134.49784
 20
179.39566
 40
10
 41
1.0178573
  1
3/4
  0
TEXT
  8
0
  6
CONTINUOUS
 62
     7
 10
-109.8788
 20
56.591839
 40
10
 41
1.0714291
  1
1
  0
TEXT
  8
0
  6
CONTINUOUS
 62
     7
 10
91.019054
 20
58.354168
 40
10
 41
1.0129871
  1
11/4
  0
TEXT
  8
0
  6
CONTINUOUS
 62
     7
 10
-154.61609
 20
-77.775475
 40
10
 41
1.0129871
  1
11/2
  0
TEXT
  8
0
  6
CONTINUOUS
 62
     7
 10
129.0408
 20
-54.236156
 40
10
 41
1.0714291
  1
2
  0
TEXT
  8
0
  6
CONTINUOUS
 62
     7
 10
4.1402254
 20
-267.23575
 40
10
 41
1.0129871
  1
21/2
  0
TEXT
  8
0
  6
CONTINUOUS
 62
     7
 10
8.362278
 20
-449.3606
 40
10
 41
1.0714291
  1
3
  0
TEXT
  8
0
  6
CONTINUOUS
 62
     7
 10
-288.14264
 20
220.17393
 40
15
 41
0.84326416
  1
ＬＡ　おすアダプタ－（ＡＱ）
  0
TEXT
  8
0
  6
CONTINUOUS
 62
     7
 10
401.14045
 20
171.44598
 40
10
 41
1.0071429
  1
3/8x1/2
  0
TEXT
  8
0
  6
CONTINUOUS
 62
     7
 10
625.23973
 20
176.59769
 40
10
 41
1.0178573
  1
1/2
  0
TEXT
  8
0
  6
CONTINUOUS
 62
     7
 10
801.68571
 20
177.88562
 40
10
 41
1.0178573
  1
3/4
  0
TEXT
  8
0
  6
CONTINUOUS
 62
     7
 10
504.1746
 20
63.260124
 40
10
 41
1.0714291
  1
1
  0
TEXT
  8
0
  6
CONTINUOUS
 62
     7
 10
716.68254
 20
70.987686
 40
10
 41
1.0129871
  1
11/4
  0
TEXT
  8
0
  6
CONTINUOUS
 62
     7
 10
488.71949
 20
-62.956707
 40
10
 41
1.0129871
  1
11/2
  0
TEXT
  8
0
  6
CONTINUOUS
 62
     7
 10
751.45652
 20
-52.653294
 40
10
 41
1.0714291
  1
2
  0
TEXT
  8
0
  6
CONTINUOUS
 62
     7
 10
561.18449
 20
-256.96268
 40
10
 41
1.0129871
  1
21/2
  0
TEXT
  8
0
  6
CONTINUOUS
 62
     7
 10
324.15018
 20
217.49312
 40
15
 41
0.84202696
  1
ＨＩ－ＬＡ（Ｐ－ＬＡ）　おすアダプタ－　（ＡＰ）
  0
TEXT
  8
0
  6
CONTINUOUS
 62
     7
 10
595.50023
 20
-433.40866
 40
10
 41
1.0714291
  1
3
  0
TEXT
  8
0
  6
CONTINUOUS
 62
     7
 10
706.81712
 20
219.99312
 40
10
 41
0.84195842
  1
ＨＩ－ＬＡとＰ－ＬＡの寸法は同じになっております。
  0
LINE
  8
0
  6
CONTINUOUS
 62
     7
 10
-164.92501
 20
139.45
 11
-164.92501
 21
138.62826
  0
LINE
  8
0
  6
CONTINUOUS
 62
     7
 10
-165.52501
 20
139.45
 11
-165.52501
 21
138.62826
  0
LINE
  8
0
  6
CONTINUOUS
 62
     7
 10
-165.52501
 20
134.27173
 11
-165.52501
 21
133.45
  0
LINE
  8
0
  6
CONTINUOUS
 62
     7
 10
-164.92501
 20
134.27173
 11
-164.92501
 21
133.45
  0
LINE
  8
0
  6
CONTINUOUS
 62
     7
 10
-165.52501
 20
138.02608
 11
-165.52501
 21
136.45
  0
LINE
  8
0
  6
CONTINUOUS
 62
     7
 10
-164.92501
 20
138.02608
 11
-164.92501
 21
136.45
  0
ARC
  8
0
  6
CONTINUOUS
 62
     7
 10
-164.02501
 20
136.45
 40
1.2
 50
306.00832
 51
53.991676
  0
ARC
  8
0
  6
CONTINUOUS
 62
     7
 10
-164.02501
 20
136.45
 40
1.8
 50
306.00832
 51
53.991676
  0
ARC
  8
0
  6
CONTINUOUS
 62
     7
 10
-166.42501
 20
136.45
 40
1.2
 50
126.00833
 51
233.99168
  0
ARC
  8
0
  6
CONTINUOUS
 62
     7
 10
-166.42501
 20
136.45
 40
1.8
 50
126.00833
 51
233.99168
  0
ARC
  8
0
  6
CONTINUOUS
 62
     7
 10
-165.22501
 20
134.79884
 40
3.8411539
 50
53.991676
 51
85.520553
  0
ARC
  8
0
  6
CONTINUOUS
 62
     7
 10
-165.22501
 20
134.79884
 40
3.241154
 50
53.991676
 51
84.689121
  0
ARC
  8
0
  6
CONTINUOUS
 62
     7
 10
-165.22501
 20
138.10115
 40
3.241154
 50
233.99167
 51
306.00832
  0
ARC
  8
0
  6
CONTINUOUS
 62
     7
 10
-165.22501
 20
138.10115
 40
3.8411539
 50
233.99167
 51
265.52055
  0
ARC
  8
0
  6
CONTINUOUS
 62
     7
 10
-165.22501
 20
139.225
 40
0.375
 50
36.869897
 51
143.1301
  0
ARC
  8
0
  6
CONTINUOUS
 62
     7
 10
-165.22501
 20
136.675
 40
0.375
 50
216.8699
 51
323.1301
  0
ARC
  8
0
  6
CONTINUOUS
 62
     7
 10
-165.22501
 20
133.675
 40
0.375
 50
216.8699
 51
323.1301
  0
ARC
  8
0
  6
CONTINUOUS
 62
     7
 10
-165.22501
 20
138.10115
 40
3.8411539
 50
274.47945
 51
306.00832
  0
ARC
  8
0
  6
CONTINUOUS
 62
     7
 10
-165.22501
 20
134.79884
 40
3.241154
 50
95.310878
 51
126.00833
  0
ARC
  8
0
  6
CONTINUOUS
 62
     7
 10
-165.22501
 20
134.79884
 40
3.8411539
 50
94.479452
 51
126.00833
  0
LINE
  8
0
  6
CONTINUOUS
 62
     7
 10
2.4750031
 20
139.45
 11
2.4750031
 21
138.62826
  0
LINE
  8
0
  6
CONTINUOUS
 62
     7
 10
1.875003
 20
139.45
 11
1.875003
 21
138.62826
  0
LINE
  8
0
  6
CONTINUOUS
 62
     7
 10
1.875003
 20
134.27173
 11
1.875003
 21
133.45
  0
LINE
  8
0
  6
CONTINUOUS
 62
     7
 10
2.4750031
 20
134.27173
 11
2.4750031
 21
133.45
  0
LINE
  8
0
  6
CONTINUOUS
 62
     7
 10
1.875003
 20
138.02608
 11
1.875003
 21
136.45
  0
LINE
  8
0
  6
CONTINUOUS
 62
     7
 10
2.4750031
 20
138.02608
 11
2.4750031
 21
136.45
  0
ARC
  8
0
  6
CONTINUOUS
 62
     7
 10
3.3750031
 20
136.45
 40
1.2
 50
306.00832
 51
53.991676
  0
ARC
  8
0
  6
CONTINUOUS
 62
     7
 10
3.3750031
 20
136.45
 40
1.8
 50
306.00832
 51
53.991676
  0
ARC
  8
0
  6
CONTINUOUS
 62
     7
 10
0.975003
 20
136.45
 40
1.2
 50
126.00833
 51
233.99168
  0
ARC
  8
0
  6
CONTINUOUS
 62
     7
 10
0.975003
 20
136.45
 40
1.8
 50
126.00833
 51
233.99168
  0
ARC
  8
0
  6
CONTINUOUS
 62
     7
 10
2.1750031
 20
134.79884
 40
3.8411539
 50
53.991676
 51
85.520553
  0
ARC
  8
0
  6
CONTINUOUS
 62
     7
 10
2.1750031
 20
134.79884
 40
3.241154
 50
53.991676
 51
84.689121
  0
ARC
  8
0
  6
CONTINUOUS
 62
     7
 10
2.1750031
 20
138.10115
 40
3.241154
 50
233.99167
 51
306.00832
  0
ARC
  8
0
  6
CONTINUOUS
 62
     7
 10
2.1750031
 20
138.10115
 40
3.8411539
 50
233.99167
 51
265.52055
  0
ARC
  8
0
  6
CONTINUOUS
 62
     7
 10
2.1750031
 20
139.225
 40
0.375
 50
36.869897
 51
143.1301
  0
ARC
  8
0
  6
CONTINUOUS
 62
     7
 10
2.1750031
 20
136.675
 40
0.375
 50
216.8699
 51
323.1301
  0
ARC
  8
0
  6
CONTINUOUS
 62
     7
 10
2.1750031
 20
133.675
 40
0.375
 50
216.8699
 51
323.1301
  0
ARC
  8
0
  6
CONTINUOUS
 62
     7
 10
2.1750031
 20
138.10115
 40
3.8411539
 50
274.47945
 51
306.00832
  0
ARC
  8
0
  6
CONTINUOUS
 62
     7
 10
2.1750031
 20
134.79884
 40
3.241154
 50
95.310878
 51
126.00833
  0
ARC
  8
0
  6
CONTINUOUS
 62
     7
 10
2.1750031
 20
134.79884
 40
3.8411539
 50
94.479452
 51
126.00833
  0
LINE
  8
0
  6
CONTINUOUS
 62
     7
 10
191.7
 20
140.95
 11
191.7
 21
139.7174
  0
LINE
  8
0
  6
CONTINUOUS
 62
     7
 10
190.8
 20
140.95
 11
190.8
 21
139.7174
  0
LINE
  8
0
  6
CONTINUOUS
 62
     7
 10
190.8
 20
133.1826
 11
190.8
 21
131.95
  0
LINE
  8
0
  6
CONTINUOUS
 62
     7
 10
191.7
 20
133.1826
 11
191.7
 21
131.95
  0
LINE
  8
0
  6
CONTINUOUS
 62
     7
 10
190.8
 20
138.81413
 11
190.8
 21
136.45
  0
LINE
  8
0
  6
CONTINUOUS
 62
     7
 10
191.7
 20
138.81413
 11
191.7
 21
136.45
  0
ARC
  8
0
  6
CONTINUOUS
 62
     7
 10
193.05
 20
136.45
 40
1.8
 50
306.00832
 51
53.991676
  0
ARC
  8
0
  6
CONTINUOUS
 62
     7
 10
193.05
 20
136.45
 40
2.7
 50
306.00832
 51
53.991676
  0
ARC
  8
0
  6
CONTINUOUS
 62
     7
 10
189.45
 20
136.45
 40
1.8
 50
126.00833
 51
233.99168
  0
ARC
  8
0
  6
CONTINUOUS
 62
     7
 10
189.45
 20
136.45
 40
2.7
 50
126.00833
 51
233.99168
  0
ARC
  8
0
  6
CONTINUOUS
 62
     7
 10
191.25
 20
133.97327
 40
5.7617307
 50
53.991676
 51
85.520553
  0
ARC
  8
0
  6
CONTINUOUS
 62
     7
 10
191.25
 20
133.97327
 40
4.8617306
 50
53.991676
 51
84.689121
  0
ARC
  8
0
  6
CONTINUOUS
 62
     7
 10
191.25
 20
138.92673
 40
4.8617306
 50
233.99167
 51
306.00832
  0
ARC
  8
0
  6
CONTINUOUS
 62
     7
 10
191.25
 20
138.92673
 40
5.7617307
 50
233.99167
 51
265.52055
  0
ARC
  8
0
  6
CONTINUOUS
 62
     7
 10
191.25
 20
140.6125
 40
0.5625
 50
36.869897
 51
143.1301
  0
ARC
  8
0
  6
CONTINUOUS
 62
     7
 10
191.25
 20
136.7875
 40
0.5625
 50
216.8699
 51
323.1301
  0
ARC
  8
0
  6
CONTINUOUS
 62
     7
 10
191.25
 20
132.2875
 40
0.5625
 50
216.8699
 51
323.1301
  0
ARC
  8
0
  6
CONTINUOUS
 62
     7
 10
191.25
 20
133.97327
 40
5.7617307
 50
94.479452
 51
126.00833
  0
ARC
  8
0
  6
CONTINUOUS
 62
     7
 10
191.25
 20
133.97327
 40
4.8617306
 50
95.310878
 51
126.00833
  0
ARC
  8
0
  6
CONTINUOUS
 62
     7
 10
191.25
 20
138.92673
 40
5.7617307
 50
274.47945
 51
306.00832
  0
LINE
  8
0
  6
CONTINUOUS
 62
     7
 10
-66.044339
 20
16.105346
 11
-66.044339
 21
14.872746
  0
LINE
  8
0
  6
CONTINUOUS
 62
     7
 10
-66.944339
 20
16.105346
 11
-66.944339
 21
14.872746
  0
LINE
  8
0
  6
CONTINUOUS
 62
     7
 10
-66.944339
 20
8.3379455
 11
-66.944339
 21
7.1053457
  0
LINE
  8
0
  6
CONTINUOUS
 62
     7
 10
-66.044339
 20
8.3379455
 11
-66.044339
 21
7.1053457
  0
LINE
  8
0
  6
CONTINUOUS
 62
     7
 10
-66.944339
 20
13.969475
 11
-66.944339
 21
11.605346
  0
LINE
  8
0
  6
CONTINUOUS
 62
     7
 10
-66.044339
 20
13.969475
 11
-66.044339
 21
11.605346
  0
ARC
  8
0
  6
CONTINUOUS
 62
     7
 10
-64.694339
 20
11.605346
 40
1.8
 50
306.00832
 51
53.991676
  0
ARC
  8
0
  6
CONTINUOUS
 62
     7
 10
-64.694339
 20
11.605346
 40
2.7
 50
306.00832
 51
53.991676
  0
ARC
  8
0
  6
CONTINUOUS
 62
     7
 10
-68.294339
 20
11.605346
 40
1.8
 50
126.00833
 51
233.99168
  0
ARC
  8
0
  6
CONTINUOUS
 62
     7
 10
-68.294339
 20
11.605346
 40
2.7
 50
126.00833
 51
233.99168
  0
ARC
  8
0
  6
CONTINUOUS
 62
     7
 10
-66.494339
 20
9.1286149
 40
5.7617307
 50
53.991676
 51
85.520553
  0
ARC
  8
0
  6
CONTINUOUS
 62
     7
 10
-66.494339
 20
9.1286149
 40
4.8617306
 50
53.991676
 51
84.689121
  0
ARC
  8
0
  6
CONTINUOUS
 62
     7
 10
-66.494339
 20
14.082077
 40
4.8617306
 50
233.99167
 51
306.00832
  0
ARC
  8
0
  6
CONTINUOUS
 62
     7
 10
-66.494339
 20
14.082077
 40
5.7617307
 50
233.99167
 51
265.52055
  0
ARC
  8
0
  6
CONTINUOUS
 62
     7
 10
-66.494339
 20
15.767846
 40
0.5625
 50
36.869897
 51
143.1301
  0
ARC
  8
0
  6
CONTINUOUS
 62
     7
 10
-66.494339
 20
11.942846
 40
0.5625
 50
216.8699
 51
323.1301
  0
ARC
  8
0
  6
CONTINUOUS
 62
     7
 10
-66.494339
 20
7.4428458
 40
0.5625
 50
216.8699
 51
323.1301
  0
ARC
  8
0
  6
CONTINUOUS
 62
     7
 10
-66.494339
 20
9.1286149
 40
5.7617307
 50
94.479452
 51
126.00833
  0
ARC
  8
0
  6
CONTINUOUS
 62
     7
 10
-66.494339
 20
9.1286149
 40
4.8617306
 50
95.310878
 51
126.00833
  0
ARC
  8
0
  6
CONTINUOUS
 62
     7
 10
-66.494339
 20
14.082077
 40
5.7617307
 50
274.47945
 51
306.00832
  0
LINE
  8
0
  6
CONTINUOUS
 62
     7
 10
158.9125
 20
19.141353
 11
158.9125
 21
17.497886
  0
LINE
  8
0
  6
CONTINUOUS
 62
     7
 10
157.7125
 20
19.141353
 11
157.7125
 21
17.497886
  0
LINE
  8
0
  6
CONTINUOUS
 62
     7
 10
157.7125
 20
8.7848191
 11
157.7125
 21
7.1413527
  0
LINE
  8
0
  6
CONTINUOUS
 62
     7
 10
158.9125
 20
8.7848191
 11
158.9125
 21
7.1413527
  0
LINE
  8
0
  6
CONTINUOUS
 62
     7
 10
157.7125
 20
16.293525
 11
157.7125
 21
13.141353
  0
LINE
  8
0
  6
CONTINUOUS
 62
     7
 10
158.9125
 20
16.293525
 11
158.9125
 21
13.141353
  0
ARC
  8
0
  6
CONTINUOUS
 62
     7
 10
160.7125
 20
13.141353
 40
2.4000001
 50
306.00832
 51
53.991676
  0
ARC
  8
0
  6
CONTINUOUS
 62
     7
 10
160.7125
 20
13.141353
 40
3.5999999
 50
306.00832
 51
53.991676
  0
ARC
  8
0
  6
CONTINUOUS
 62
     7
 10
155.9125
 20
13.141353
 40
2.4000001
 50
126.00833
 51
233.99168
  0
ARC
  8
0
  6
CONTINUOUS
 62
     7
 10
155.9125
 20
13.141353
 40
3.5999999
 50
126.00833
 51
233.99168
  0
ARC
  8
0
  6
CONTINUOUS
 62
     7
 10
158.3125
 20
9.839045
 40
7.6823077
 50
53.991676
 51
85.520553
  0
ARC
  8
0
  6
CONTINUOUS
 62
     7
 10
158.3125
 20
9.839045
 40
6.4823079
 50
53.991676
 51
84.689121
  0
ARC
  8
0
  6
CONTINUOUS
 62
     7
 10
158.3125
 20
16.44366
 40
6.4823079
 50
233.99167
 51
306.00832
  0
ARC
  8
0
  6
CONTINUOUS
 62
     7
 10
158.3125
 20
16.44366
 40
7.6823077
 50
233.99167
 51
265.52055
  0
ARC
  8
0
  6
CONTINUOUS
 62
     7
 10
158.3125
 20
18.691353
 40
0.75
 50
36.869897
 51
143.1301
  0
ARC
  8
0
  6
CONTINUOUS
 62
     7
 10
158.3125
 20
13.591353
 40
0.75
 50
216.8699
 51
323.1301
  0
ARC
  8
0
  6
CONTINUOUS
 62
     7
 10
158.3125
 20
7.5913525
 40
0.75
 50
216.8699
 51
323.1301
  0
ARC
  8
0
  6
CONTINUOUS
 62
     7
 10
158.3125
 20
9.839045
 40
6.4823079
 50
95.310878
 51
126.00833
  0
ARC
  8
0
  6
CONTINUOUS
 62
     7
 10
158.3125
 20
9.839045
 40
7.6823077
 50
94.479452
 51
126.00833
  0
ARC
  8
0
  6
CONTINUOUS
 62
     7
 10
158.3125
 20
16.44366
 40
7.6823077
 50
274.47945
 51
306.00832
  0
LINE
  8
0
  6
CONTINUOUS
 62
     7
 10
-78.418249
 20
-120.25965
 11
-78.418249
 21
-121.90312
  0
LINE
  8
0
  6
CONTINUOUS
 62
     7
 10
-79.61825
 20
-120.25965
 11
-79.61825
 21
-121.90312
  0
LINE
  8
0
  6
CONTINUOUS
 62
     7
 10
-79.61825
 20
-130.61618
 11
-79.61825
 21
-132.25965
  0
LINE
  8
0
  6
CONTINUOUS
 62
     7
 10
-78.418249
 20
-130.61618
 11
-78.418249
 21
-132.25965
  0
LINE
  8
0
  6
CONTINUOUS
 62
     7
 10
-79.61825
 20
-123.10748
 11
-79.61825
 21
-126.25965
  0
LINE
  8
0
  6
CONTINUOUS
 62
     7
 10
-78.418249
 20
-123.10748
 11
-78.418249
 21
-126.25965
  0
ARC
  8
0
  6
CONTINUOUS
 62
     7
 10
-76.618249
 20
-126.25965
 40
2.4000001
 50
306.00832
 51
53.991676
  0
ARC
  8
0
  6
CONTINUOUS
 62
     7
 10
-76.618249
 20
-126.25965
 40
3.5999999
 50
306.00832
 51
53.991676
  0
ARC
  8
0
  6
CONTINUOUS
 62
     7
 10
-81.41825
 20
-126.25965
 40
2.4000001
 50
126.00833
 51
233.99168
  0
ARC
  8
0
  6
CONTINUOUS
 62
     7
 10
-81.41825
 20
-126.25965
 40
3.5999999
 50
126.00833
 51
233.99168
  0
ARC
  8
0
  6
CONTINUOUS
 62
     7
 10
-79.01825
 20
-129.56196
 40
7.6823077
 50
53.991676
 51
85.520553
  0
ARC
  8
0
  6
CONTINUOUS
 62
     7
 10
-79.01825
 20
-129.56196
 40
6.4823079
 50
53.991676
 51
84.689121
  0
ARC
  8
0
  6
CONTINUOUS
 62
     7
 10
-79.01825
 20
-122.95734
 40
6.4823079
 50
233.99167
 51
306.00832
  0
ARC
  8
0
  6
CONTINUOUS
 62
     7
 10
-79.01825
 20
-122.95734
 40
7.6823077
 50
233.99167
 51
265.52055
  0
ARC
  8
0
  6
CONTINUOUS
 62
     7
 10
-79.01825
 20
-120.70965
 40
0.75
 50
36.869897
 51
143.1301
  0
ARC
  8
0
  6
CONTINUOUS
 62
     7
 10
-79.01825
 20
-125.80965
 40
0.75
 50
216.8699
 51
323.1301
  0
ARC
  8
0
  6
CONTINUOUS
 62
     7
 10
-79.01825
 20
-131.80965
 40
0.75
 50
216.8699
 51
323.1301
  0
ARC
  8
0
  6
CONTINUOUS
 62
     7
 10
-79.01825
 20
-129.56196
 40
6.4823079
 50
95.310878
 51
126.00833
  0
ARC
  8
0
  6
CONTINUOUS
 62
     7
 10
-79.01825
 20
-129.56196
 40
7.6823077
 50
94.479452
 51
126.00833
  0
ARC
  8
0
  6
CONTINUOUS
 62
     7
 10
-79.01825
 20
-122.95734
 40
7.6823077
 50
274.47945
 51
306.00832
  0
LINE
  8
0
  6
CONTINUOUS
 62
     7
 10
198.34437
 20
-117.26178
 11
198.34437
 21
-118.90525
  0
LINE
  8
0
  6
CONTINUOUS
 62
     7
 10
197.14437
 20
-117.26178
 11
197.14437
 21
-118.90525
  0
LINE
  8
0
  6
CONTINUOUS
 62
     7
 10
197.14437
 20
-127.61831
 11
197.14437
 21
-129.26178
  0
LINE
  8
0
  6
CONTINUOUS
 62
     7
 10
198.34437
 20
-127.61831
 11
198.34437
 21
-129.26178
  0
LINE
  8
0
  6
CONTINUOUS
 62
     7
 10
197.14437
 20
-120.10961
 11
197.14437
 21
-123.26178
  0
LINE
  8
0
  6
CONTINUOUS
 62
     7
 10
198.34437
 20
-120.10961
 11
198.34437
 21
-123.26178
  0
ARC
  8
0
  6
CONTINUOUS
 62
     7
 10
200.14437
 20
-123.26178
 40
2.4000001
 50
306.00832
 51
53.991676
  0
ARC
  8
0
  6
CONTINUOUS
 62
     7
 10
200.14437
 20
-123.26178
 40
3.5999999
 50
306.00832
 51
53.991676
  0
ARC
  8
0
  6
CONTINUOUS
 62
     7
 10
195.34437
 20
-123.26178
 40
2.4000001
 50
126.00833
 51
233.99168
  0
ARC
  8
0
  6
CONTINUOUS
 62
     7
 10
195.34437
 20
-123.26178
 40
3.5999999
 50
126.00833
 51
233.99168
  0
ARC
  8
0
  6
CONTINUOUS
 62
     7
 10
197.74437
 20
-126.56409
 40
7.6823077
 50
53.991676
 51
85.520553
  0
ARC
  8
0
  6
CONTINUOUS
 62
     7
 10
197.74437
 20
-126.56409
 40
6.4823079
 50
53.991676
 51
84.689121
  0
ARC
  8
0
  6
CONTINUOUS
 62
     7
 10
197.74437
 20
-119.95947
 40
6.4823079
 50
233.99167
 51
306.00832
  0
ARC
  8
0
  6
CONTINUOUS
 62
     7
 10
197.74437
 20
-119.95947
 40
7.6823077
 50
233.99167
 51
265.52055
  0
ARC
  8
0
  6
CONTINUOUS
 62
     7
 10
197.74437
 20
-117.71178
 40
0.75
 50
36.869897
 51
143.1301
  0
ARC
  8
0
  6
CONTINUOUS
 62
     7
 10
197.74437
 20
-122.81178
 40
0.75
 50
216.8699
 51
323.1301
  0
ARC
  8
0
  6
CONTINUOUS
 62
     7
 10
197.74437
 20
-128.81178
 40
0.75
 50
216.8699
 51
323.1301
  0
ARC
  8
0
  6
CONTINUOUS
 62
     7
 10
197.74437
 20
-126.56409
 40
6.4823079
 50
95.310878
 51
126.00833
  0
ARC
  8
0
  6
CONTINUOUS
 62
     7
 10
197.74437
 20
-126.56409
 40
7.6823077
 50
94.479452
 51
126.00833
  0
ARC
  8
0
  6
CONTINUOUS
 62
     7
 10
197.74437
 20
-119.95947
 40
7.6823077
 50
274.47945
 51
306.00832
  0
LINE
  8
0
  6
CONTINUOUS
 62
     7
 10
76.585915
 20
-331.60849
 11
76.585915
 21
-333.66282
  0
LINE
  8
0
  6
CONTINUOUS
 62
     7
 10
75.085915
 20
-331.60849
 11
75.085915
 21
-333.66282
  0
LINE
  8
0
  6
CONTINUOUS
 62
     7
 10
75.085915
 20
-344.55416
 11
75.085915
 21
-346.60849
  0
LINE
  8
0
  6
CONTINUOUS
 62
     7
 10
76.585915
 20
-344.55416
 11
76.585915
 21
-346.60849
  0
LINE
  8
0
  6
CONTINUOUS
 62
     7
 10
75.085915
 20
-335.16827
 11
75.085915
 21
-339.10849
  0
LINE
  8
0
  6
CONTINUOUS
 62
     7
 10
76.585915
 20
-335.16827
 11
76.585915
 21
-339.10849
  0
ARC
  8
0
  6
CONTINUOUS
 62
     7
 10
78.835915
 20
-339.10849
 40
3
 50
306.00832
 51
53.991676
  0
ARC
  8
0
  6
CONTINUOUS
 62
     7
 10
78.835915
 20
-339.10849
 40
4.5
 50
306.00832
 51
53.991676
  0
ARC
  8
0
  6
CONTINUOUS
 62
     7
 10
72.835915
 20
-339.10849
 40
3
 50
126.00833
 51
233.99168
  0
ARC
  8
0
  6
CONTINUOUS
 62
     7
 10
72.835915
 20
-339.10849
 40
4.5
 50
126.00833
 51
233.99168
  0
ARC
  8
0
  6
CONTINUOUS
 62
     7
 10
75.835915
 20
-343.23637
 40
9.6028843
 50
53.991676
 51
85.520553
  0
ARC
  8
0
  6
CONTINUOUS
 62
     7
 10
75.835915
 20
-343.23637
 40
8.1028843
 50
53.991676
 51
84.689121
  0
ARC
  8
0
  6
CONTINUOUS
 62
     7
 10
75.835915
 20
-334.98061
 40
8.1028843
 50
233.99167
 51
306.00832
  0
ARC
  8
0
  6
CONTINUOUS
 62
     7
 10
75.835915
 20
-334.98061
 40
9.6028843
 50
233.99167
 51
265.52055
  0
ARC
  8
0
  6
CONTINUOUS
 62
     7
 10
75.835915
 20
-332.17099
 40
0.9375
 50
36.869897
 51
143.1301
  0
ARC
  8
0
  6
CONTINUOUS
 62
     7
 10
75.835915
 20
-338.54599
 40
0.9375
 50
216.8699
 51
323.1301
  0
ARC
  8
0
  6
CONTINUOUS
 62
     7
 10
75.835915
 20
-346.04599
 40
0.9375
 50
216.8699
 51
323.1301
  0
ARC
  8
0
  6
CONTINUOUS
 62
     7
 10
75.835915
 20
-343.23637
 40
9.6028843
 50
94.479452
 51
126.00833
  0
ARC
  8
0
  6
CONTINUOUS
 62
     7
 10
75.835915
 20
-343.23637
 40
8.1028843
 50
95.310878
 51
126.00833
  0
ARC
  8
0
  6
CONTINUOUS
 62
     7
 10
75.835915
 20
-334.98061
 40
9.6028843
 50
274.47945
 51
306.00832
  0
LINE
  8
0
  6
CONTINUOUS
 62
     7
 10
82.581627
 20
-527.96906
 11
82.581627
 21
-530.02339
  0
LINE
  8
0
  6
CONTINUOUS
 62
     7
 10
81.081627
 20
-527.96906
 11
81.081627
 21
-530.02339
  0
LINE
  8
0
  6
CONTINUOUS
 62
     7
 10
81.081627
 20
-540.91472
 11
81.081627
 21
-542.96906
  0
LINE
  8
0
  6
CONTINUOUS
 62
     7
 10
82.581627
 20
-540.91472
 11
82.581627
 21
-542.96906
  0
LINE
  8
0
  6
CONTINUOUS
 62
     7
 10
81.081627
 20
-531.52884
 11
81.081627
 21
-535.46906
  0
LINE
  8
0
  6
CONTINUOUS
 62
     7
 10
82.581627
 20
-531.52884
 11
82.581627
 21
-535.46906
  0
ARC
  8
0
  6
CONTINUOUS
 62
     7
 10
84.831627
 20
-535.46906
 40
3
 50
306.00832
 51
53.991676
  0
ARC
  8
0
  6
CONTINUOUS
 62
     7
 10
84.831627
 20
-535.46906
 40
4.5
 50
306.00832
 51
53.991676
  0
ARC
  8
0
  6
CONTINUOUS
 62
     7
 10
78.831627
 20
-535.46906
 40
3
 50
126.00833
 51
233.99168
  0
ARC
  8
0
  6
CONTINUOUS
 62
     7
 10
78.831627
 20
-535.46906
 40
4.5
 50
126.00833
 51
233.99168
  0
ARC
  8
0
  6
CONTINUOUS
 62
     7
 10
81.831627
 20
-539.59694
 40
9.6028843
 50
53.991676
 51
85.520553
  0
ARC
  8
0
  6
CONTINUOUS
 62
     7
 10
81.831627
 20
-539.59694
 40
8.1028843
 50
53.991676
 51
84.689121
  0
ARC
  8
0
  6
CONTINUOUS
 62
     7
 10
81.831627
 20
-531.34117
 40
8.1028843
 50
233.99167
 51
306.00832
  0
ARC
  8
0
  6
CONTINUOUS
 62
     7
 10
81.831627
 20
-531.34117
 40
9.6028843
 50
233.99167
 51
265.52055
  0
ARC
  8
0
  6
CONTINUOUS
 62
     7
 10
81.831627
 20
-528.53156
 40
0.9375
 50
36.869897
 51
143.1301
  0
ARC
  8
0
  6
CONTINUOUS
 62
     7
 10
81.831627
 20
-534.90656
 40
0.9375
 50
216.8699
 51
323.1301
  0
ARC
  8
0
  6
CONTINUOUS
 62
     7
 10
81.831627
 20
-542.40656
 40
0.9375
 50
216.8699
 51
323.1301
  0
ARC
  8
0
  6
CONTINUOUS
 62
     7
 10
81.831627
 20
-539.59694
 40
9.6028843
 50
94.479452
 51
126.00833
  0
ARC
  8
0
  6
CONTINUOUS
 62
     7
 10
81.831627
 20
-539.59694
 40
8.1028843
 50
95.310878
 51
126.00833
  0
ARC
  8
0
  6
CONTINUOUS
 62
     7
 10
81.831627
 20
-531.34117
 40
9.6028843
 50
274.47945
 51
306.00832
  0
LINE
  8
0
  6
CONTINUOUS
 62
     7
 10
459.07499
 20
139.45
 11
459.07499
 21
138.62826
  0
LINE
  8
0
  6
CONTINUOUS
 62
     7
 10
458.47499
 20
139.45
 11
458.47499
 21
138.62826
  0
LINE
  8
0
  6
CONTINUOUS
 62
     7
 10
458.47499
 20
134.27173
 11
458.47499
 21
133.45
  0
LINE
  8
0
  6
CONTINUOUS
 62
     7
 10
459.07499
 20
134.27173
 11
459.07499
 21
133.45
  0
LINE
  8
0
  6
CONTINUOUS
 62
     7
 10
458.47499
 20
138.02608
 11
458.47499
 21
136.45
  0
LINE
  8
0
  6
CONTINUOUS
 62
     7
 10
459.07499
 20
138.02608
 11
459.07499
 21
136.45
  0
ARC
  8
0
  6
CONTINUOUS
 62
     7
 10
459.97499
 20
136.45
 40
1.2
 50
306.00832
 51
53.991676
  0
ARC
  8
0
  6
CONTINUOUS
 62
     7
 10
459.97499
 20
136.45
 40
1.8
 50
306.00832
 51
53.991676
  0
ARC
  8
0
  6
CONTINUOUS
 62
     7
 10
457.57499
 20
136.45
 40
1.2
 50
126.00833
 51
233.99168
  0
ARC
  8
0
  6
CONTINUOUS
 62
     7
 10
457.57499
 20
136.45
 40
1.8
 50
126.00833
 51
233.99168
  0
ARC
  8
0
  6
CONTINUOUS
 62
     7
 10
458.77499
 20
134.79884
 40
3.8411539
 50
53.991676
 51
85.520553
  0
ARC
  8
0
  6
CONTINUOUS
 62
     7
 10
458.77499
 20
134.79884
 40
3.241154
 50
53.991676
 51
84.689121
  0
ARC
  8
0
  6
CONTINUOUS
 62
     7
 10
458.77499
 20
138.10115
 40
3.241154
 50
233.99167
 51
306.00832
  0
ARC
  8
0
  6
CONTINUOUS
 62
     7
 10
458.77499
 20
138.10115
 40
3.8411539
 50
233.99167
 51
265.52055
  0
ARC
  8
0
  6
CONTINUOUS
 62
     7
 10
458.77499
 20
139.225
 40
0.375
 50
36.869897
 51
143.1301
  0
ARC
  8
0
  6
CONTINUOUS
 62
     7
 10
458.77499
 20
136.675
 40
0.375
 50
216.8699
 51
323.1301
  0
ARC
  8
0
  6
CONTINUOUS
 62
     7
 10
458.77499
 20
133.675
 40
0.375
 50
216.8699
 51
323.1301
  0
ARC
  8
0
  6
CONTINUOUS
 62
     7
 10
458.77499
 20
138.10115
 40
3.8411539
 50
274.47945
 51
306.00832
  0
ARC
  8
0
  6
CONTINUOUS
 62
     7
 10
458.77499
 20
134.79884
 40
3.241154
 50
95.310878
 51
126.00833
  0
ARC
  8
0
  6
CONTINUOUS
 62
     7
 10
458.77499
 20
134.79884
 40
3.8411539
 50
94.479452
 51
126.00833
  0
LINE
  8
0
  6
CONTINUOUS
 62
     7
 10
656.47499
 20
139.45
 11
656.47499
 21
138.62826
  0
LINE
  8
0
  6
CONTINUOUS
 62
     7
 10
655.87499
 20
139.45
 11
655.87499
 21
138.62826
  0
LINE
  8
0
  6
CONTINUOUS
 62
     7
 10
655.87499
 20
134.27173
 11
655.87499
 21
133.45
  0
LINE
  8
0
  6
CONTINUOUS
 62
     7
 10
656.47499
 20
134.27173
 11
656.47499
 21
133.45
  0
LINE
  8
0
  6
CONTINUOUS
 62
     7
 10
655.87499
 20
138.02608
 11
655.87499
 21
136.45
  0
LINE
  8
0
  6
CONTINUOUS
 62
     7
 10
656.47499
 20
138.02608
 11
656.47499
 21
136.45
  0
ARC
  8
0
  6
CONTINUOUS
 62
     7
 10
657.37499
 20
136.45
 40
1.2
 50
306.00832
 51
53.991676
  0
ARC
  8
0
  6
CONTINUOUS
 62
     7
 10
657.37499
 20
136.45
 40
1.8
 50
306.00832
 51
53.991676
  0
ARC
  8
0
  6
CONTINUOUS
 62
     7
 10
654.97499
 20
136.45
 40
1.2
 50
126.00833
 51
233.99168
  0
ARC
  8
0
  6
CONTINUOUS
 62
     7
 10
654.97499
 20
136.45
 40
1.8
 50
126.00833
 51
233.99168
  0
ARC
  8
0
  6
CONTINUOUS
 62
     7
 10
656.17499
 20
134.79884
 40
3.8411539
 50
53.991676
 51
85.520553
  0
ARC
  8
0
  6
CONTINUOUS
 62
     7
 10
656.17499
 20
134.79884
 40
3.241154
 50
53.991676
 51
84.689121
  0
ARC
  8
0
  6
CONTINUOUS
 62
     7
 10
656.17499
 20
138.10115
 40
3.241154
 50
233.99167
 51
306.00832
  0
ARC
  8
0
  6
CONTINUOUS
 62
     7
 10
656.17499
 20
138.10115
 40
3.8411539
 50
233.99167
 51
265.52055
  0
ARC
  8
0
  6
CONTINUOUS
 62
     7
 10
656.17499
 20
139.225
 40
0.375
 50
36.869897
 51
143.1301
  0
ARC
  8
0
  6
CONTINUOUS
 62
     7
 10
656.17499
 20
136.675
 40
0.375
 50
216.8699
 51
323.1301
  0
ARC
  8
0
  6
CONTINUOUS
 62
     7
 10
656.17499
 20
133.675
 40
0.375
 50
216.8699
 51
323.1301
  0
ARC
  8
0
  6
CONTINUOUS
 62
     7
 10
656.17499
 20
138.10115
 40
3.8411539
 50
274.47945
 51
306.00832
  0
ARC
  8
0
  6
CONTINUOUS
 62
     7
 10
656.17499
 20
134.79884
 40
3.241154
 50
95.310878
 51
126.00833
  0
ARC
  8
0
  6
CONTINUOUS
 62
     7
 10
656.17499
 20
134.79884
 40
3.8411539
 50
94.479452
 51
126.00833
  0
LINE
  8
0
  6
CONTINUOUS
 62
     7
 10
835.7
 20
140.95
 11
835.7
 21
139.7174
  0
LINE
  8
0
  6
CONTINUOUS
 62
     7
 10
834.8
 20
140.95
 11
834.8
 21
139.7174
  0
LINE
  8
0
  6
CONTINUOUS
 62
     7
 10
834.8
 20
133.1826
 11
834.8
 21
131.95
  0
LINE
  8
0
  6
CONTINUOUS
 62
     7
 10
835.7
 20
133.1826
 11
835.7
 21
131.95
  0
LINE
  8
0
  6
CONTINUOUS
 62
     7
 10
834.8
 20
138.81413
 11
834.8
 21
136.45
  0
LINE
  8
0
  6
CONTINUOUS
 62
     7
 10
835.7
 20
138.81413
 11
835.7
 21
136.45
  0
ARC
  8
0
  6
CONTINUOUS
 62
     7
 10
837.05
 20
136.45
 40
1.8
 50
306.00832
 51
53.991676
  0
ARC
  8
0
  6
CONTINUOUS
 62
     7
 10
837.05
 20
136.45
 40
2.7
 50
306.00832
 51
53.991676
  0
ARC
  8
0
  6
CONTINUOUS
 62
     7
 10
833.45
 20
136.45
 40
1.8
 50
126.00833
 51
233.99168
  0
ARC
  8
0
  6
CONTINUOUS
 62
     7
 10
833.45
 20
136.45
 40
2.7
 50
126.00833
 51
233.99168
  0
ARC
  8
0
  6
CONTINUOUS
 62
     7
 10
835.25
 20
133.97327
 40
5.7617307
 50
53.991676
 51
85.520553
  0
ARC
  8
0
  6
CONTINUOUS
 62
     7
 10
835.25
 20
133.97327
 40
4.8617306
 50
53.991676
 51
84.689121
  0
ARC
  8
0
  6
CONTINUOUS
 62
     7
 10
835.25
 20
138.92673
 40
4.8617306
 50
233.99167
 51
306.00832
  0
ARC
  8
0
  6
CONTINUOUS
 62
     7
 10
835.25
 20
138.92673
 40
5.7617307
 50
233.99167
 51
265.52055
  0
ARC
  8
0
  6
CONTINUOUS
 62
     7
 10
835.25
 20
140.6125
 40
0.5625
 50
36.869897
 51
143.1301
  0
ARC
  8
0
  6
CONTINUOUS
 62
     7
 10
835.25
 20
136.7875
 40
0.5625
 50
216.8699
 51
323.1301
  0
ARC
  8
0
  6
CONTINUOUS
 62
     7
 10
835.25
 20
132.2875
 40
0.5625
 50
216.8699
 51
323.1301
  0
ARC
  8
0
  6
CONTINUOUS
 62
     7
 10
835.25
 20
133.97327
 40
5.7617307
 50
94.479452
 51
126.00833
  0
ARC
  8
0
  6
CONTINUOUS
 62
     7
 10
835.25
 20
133.97327
 40
4.8617306
 50
95.310878
 51
126.00833
  0
ARC
  8
0
  6
CONTINUOUS
 62
     7
 10
835.25
 20
138.92673
 40
5.7617307
 50
274.47945
 51
306.00832
  0
LINE
  8
0
  6
CONTINUOUS
 62
     7
 10
539.49529
 20
23.226583
 11
539.49529
 21
21.993984
  0
LINE
  8
0
  6
CONTINUOUS
 62
     7
 10
538.59529
 20
23.226583
 11
538.59529
 21
21.993984
  0
LINE
  8
0
  6
CONTINUOUS
 62
     7
 10
538.59529
 20
15.459183
 11
538.59529
 21
14.226583
  0
LINE
  8
0
  6
CONTINUOUS
 62
     7
 10
539.49529
 20
15.459183
 11
539.49529
 21
14.226583
  0
LINE
  8
0
  6
CONTINUOUS
 62
     7
 10
538.59529
 20
21.090713
 11
538.59529
 21
18.726583
  0
LINE
  8
0
  6
CONTINUOUS
 62
     7
 10
539.49529
 20
21.090713
 11
539.49529
 21
18.726583
  0
ARC
  8
0
  6
CONTINUOUS
 62
     7
 10
540.84529
 20
18.726583
 40
1.8
 50
306.00832
 51
53.991676
  0
ARC
  8
0
  6
CONTINUOUS
 62
     7
 10
540.84529
 20
18.726583
 40
2.7
 50
306.00832
 51
53.991676
  0
ARC
  8
0
  6
CONTINUOUS
 62
     7
 10
537.24529
 20
18.726583
 40
1.8
 50
126.00833
 51
233.99168
  0
ARC
  8
0
  6
CONTINUOUS
 62
     7
 10
537.24529
 20
18.726583
 40
2.7
 50
126.00833
 51
233.99168
  0
ARC
  8
0
  6
CONTINUOUS
 62
     7
 10
539.04529
 20
16.249853
 40
5.7617307
 50
53.991676
 51
85.520553
  0
ARC
  8
0
  6
CONTINUOUS
 62
     7
 10
539.04529
 20
16.249853
 40
4.8617306
 50
53.991676
 51
84.689121
  0
ARC
  8
0
  6
CONTINUOUS
 62
     7
 10
539.04529
 20
21.203314
 40
4.8617306
 50
233.99167
 51
306.00832
  0
ARC
  8
0
  6
CONTINUOUS
 62
     7
 10
539.04529
 20
21.203314
 40
5.7617307
 50
233.99167
 51
265.52055
  0
ARC
  8
0
  6
CONTINUOUS
 62
     7
 10
539.04529
 20
22.889083
 40
0.5625
 50
36.869897
 51
143.1301
  0
ARC
  8
0
  6
CONTINUOUS
 62
     7
 10
539.04529
 20
19.064083
 40
0.5625
 50
216.8699
 51
323.1301
  0
ARC
  8
0
  6
CONTINUOUS
 62
     7
 10
539.04529
 20
14.564084
 40
0.5625
 50
216.8699
 51
323.1301
  0
ARC
  8
0
  6
CONTINUOUS
 62
     7
 10
539.04529
 20
16.249853
 40
5.7617307
 50
94.479452
 51
126.00833
  0
ARC
  8
0
  6
CONTINUOUS
 62
     7
 10
539.04529
 20
16.249853
 40
4.8617306
 50
95.310878
 51
126.00833
  0
ARC
  8
0
  6
CONTINUOUS
 62
     7
 10
539.04529
 20
21.203314
 40
5.7617307
 50
274.47945
 51
306.00832
  0
LINE
  8
0
  6
CONTINUOUS
 62
     7
 10
761.18521
 20
26.606829
 11
761.18521
 21
24.963362
  0
LINE
  8
0
  6
CONTINUOUS
 62
     7
 10
759.98521
 20
26.606829
 11
759.98521
 21
24.963362
  0
LINE
  8
0
  6
CONTINUOUS
 62
     7
 10
759.98521
 20
16.250295
 11
759.98521
 21
14.606829
  0
LINE
  8
0
  6
CONTINUOUS
 62
     7
 10
761.18521
 20
16.250295
 11
761.18521
 21
14.606829
  0
LINE
  8
0
  6
CONTINUOUS
 62
     7
 10
759.98521
 20
23.759001
 11
759.98521
 21
20.606829
  0
LINE
  8
0
  6
CONTINUOUS
 62
     7
 10
761.18521
 20
23.759001
 11
761.18521
 21
20.606829
  0
ARC
  8
0
  6
CONTINUOUS
 62
     7
 10
762.98521
 20
20.606829
 40
2.4000001
 50
306.00832
 51
53.991676
  0
ARC
  8
0
  6
CONTINUOUS
 62
     7
 10
762.98521
 20
20.606829
 40
3.5999999
 50
306.00832
 51
53.991676
  0
ARC
  8
0
  6
CONTINUOUS
 62
     7
 10
758.1852
 20
20.606829
 40
2.4000001
 50
126.00833
 51
233.99168
  0
ARC
  8
0
  6
CONTINUOUS
 62
     7
 10
758.1852
 20
20.606829
 40
3.5999999
 50
126.00833
 51
233.99168
  0
ARC
  8
0
  6
CONTINUOUS
 62
     7
 10
760.58521
 20
17.304521
 40
7.6823077
 50
53.991676
 51
85.520553
  0
ARC
  8
0
  6
CONTINUOUS
 62
     7
 10
760.58521
 20
17.304521
 40
6.4823079
 50
53.991676
 51
84.689121
  0
ARC
  8
0
  6
CONTINUOUS
 62
     7
 10
760.58521
 20
23.909136
 40
6.4823079
 50
233.99167
 51
306.00832
  0
ARC
  8
0
  6
CONTINUOUS
 62
     7
 10
760.58521
 20
23.909136
 40
7.6823077
 50
233.99167
 51
265.52055
  0
ARC
  8
0
  6
CONTINUOUS
 62
     7
 10
760.58521
 20
26.156829
 40
0.75
 50
36.869897
 51
143.1301
  0
ARC
  8
0
  6
CONTINUOUS
 62
     7
 10
760.58521
 20
21.056829
 40
0.75
 50
216.8699
 51
323.1301
  0
ARC
  8
0
  6
CONTINUOUS
 62
     7
 10
760.58521
 20
15.056828
 40
0.75
 50
216.8699
 51
323.1301
  0
ARC
  8
0
  6
CONTINUOUS
 62
     7
 10
760.58521
 20
17.304521
 40
6.4823079
 50
95.310878
 51
126.00833
  0
ARC
  8
0
  6
CONTINUOUS
 62
     7
 10
760.58521
 20
17.304521
 40
7.6823077
 50
94.479452
 51
126.00833
  0
ARC
  8
0
  6
CONTINUOUS
 62
     7
 10
760.58521
 20
23.909136
 40
7.6823077
 50
274.47945
 51
306.00832
  0
LINE
  8
0
  6
CONTINUOUS
 62
     7
 10
540.3052
 20
-114.85683
 11
540.3052
 21
-116.5003
  0
LINE
  8
0
  6
CONTINUOUS
 62
     7
 10
539.1052
 20
-114.85683
 11
539.1052
 21
-116.5003
  0
LINE
  8
0
  6
CONTINUOUS
 62
     7
 10
539.1052
 20
-125.21337
 11
539.1052
 21
-126.85683
  0
LINE
  8
0
  6
CONTINUOUS
 62
     7
 10
540.3052
 20
-125.21337
 11
540.3052
 21
-126.85683
  0
LINE
  8
0
  6
CONTINUOUS
 62
     7
 10
539.1052
 20
-117.70466
 11
539.1052
 21
-120.85683
  0
LINE
  8
0
  6
CONTINUOUS
 62
     7
 10
540.3052
 20
-117.70466
 11
540.3052
 21
-120.85683
  0
ARC
  8
0
  6
CONTINUOUS
 62
     7
 10
542.1052
 20
-120.85683
 40
2.4000001
 50
306.00832
 51
53.991676
  0
ARC
  8
0
  6
CONTINUOUS
 62
     7
 10
542.1052
 20
-120.85683
 40
3.5999999
 50
306.00832
 51
53.991676
  0
ARC
  8
0
  6
CONTINUOUS
 62
     7
 10
537.3052
 20
-120.85683
 40
2.4000001
 50
126.00833
 51
233.99168
  0
ARC
  8
0
  6
CONTINUOUS
 62
     7
 10
537.3052
 20
-120.85683
 40
3.5999999
 50
126.00833
 51
233.99168
  0
ARC
  8
0
  6
CONTINUOUS
 62
     7
 10
539.7052
 20
-124.15914
 40
7.6823077
 50
53.991676
 51
85.520553
  0
ARC
  8
0
  6
CONTINUOUS
 62
     7
 10
539.7052
 20
-124.15914
 40
6.4823079
 50
53.991676
 51
84.689121
  0
ARC
  8
0
  6
CONTINUOUS
 62
     7
 10
539.7052
 20
-117.55453
 40
6.4823079
 50
233.99167
 51
306.00832
  0
ARC
  8
0
  6
CONTINUOUS
 62
     7
 10
539.7052
 20
-117.55453
 40
7.6823077
 50
233.99167
 51
265.52055
  0
ARC
  8
0
  6
CONTINUOUS
 62
     7
 10
539.7052
 20
-115.30683
 40
0.75
 50
36.869897
 51
143.1301
  0
ARC
  8
0
  6
CONTINUOUS
 62
     7
 10
539.7052
 20
-120.40683
 40
0.75
 50
216.8699
 51
323.1301
  0
ARC
  8
0
  6
CONTINUOUS
 62
     7
 10
539.7052
 20
-126.40683
 40
0.75
 50
216.8699
 51
323.1301
  0
ARC
  8
0
  6
CONTINUOUS
 62
     7
 10
539.7052
 20
-124.15914
 40
6.4823079
 50
95.310878
 51
126.00833
  0
ARC
  8
0
  6
CONTINUOUS
 62
     7
 10
539.7052
 20
-124.15914
 40
7.6823077
 50
94.479452
 51
126.00833
  0
ARC
  8
0
  6
CONTINUOUS
 62
     7
 10
539.7052
 20
-117.55453
 40
7.6823077
 50
274.47945
 51
306.00832
  0
LINE
  8
0
  6
CONTINUOUS
 62
     7
 10
790.40042
 20
-112.48927
 11
790.40042
 21
-114.13274
  0
LINE
  8
0
  6
CONTINUOUS
 62
     7
 10
789.20042
 20
-112.48927
 11
789.20042
 21
-114.13274
  0
LINE
  8
0
  6
CONTINUOUS
 62
     7
 10
789.20042
 20
-122.84581
 11
789.20042
 21
-124.48927
  0
LINE
  8
0
  6
CONTINUOUS
 62
     7
 10
790.40042
 20
-122.84581
 11
790.40042
 21
-124.48927
  0
LINE
  8
0
  6
CONTINUOUS
 62
     7
 10
789.20042
 20
-115.3371
 11
789.20042
 21
-118.48927
  0
LINE
  8
0
  6
CONTINUOUS
 62
     7
 10
790.40042
 20
-115.3371
 11
790.40042
 21
-118.48927
  0
ARC
  8
0
  6
CONTINUOUS
 62
     7
 10
792.20042
 20
-118.48927
 40
2.4000001
 50
306.00832
 51
53.991676
  0
ARC
  8
0
  6
CONTINUOUS
 62
     7
 10
792.20042
 20
-118.48927
 40
3.5999999
 50
306.00832
 51
53.991676
  0
ARC
  8
0
  6
CONTINUOUS
 62
     7
 10
787.40041
 20
-118.48927
 40
2.4000001
 50
126.00833
 51
233.99168
  0
ARC
  8
0
  6
CONTINUOUS
 62
     7
 10
787.40041
 20
-118.48927
 40
3.5999999
 50
126.00833
 51
233.99168
  0
ARC
  8
0
  6
CONTINUOUS
 62
     7
 10
789.80042
 20
-121.79158
 40
7.6823077
 50
53.991676
 51
85.520553
  0
ARC
  8
0
  6
CONTINUOUS
 62
     7
 10
789.80042
 20
-121.79158
 40
6.4823079
 50
53.991676
 51
84.689121
  0
ARC
  8
0
  6
CONTINUOUS
 62
     7
 10
789.80042
 20
-115.18697
 40
6.4823079
 50
233.99167
 51
306.00832
  0
ARC
  8
0
  6
CONTINUOUS
 62
     7
 10
789.80042
 20
-115.18697
 40
7.6823077
 50
233.99167
 51
265.52055
  0
ARC
  8
0
  6
CONTINUOUS
 62
     7
 10
789.80042
 20
-112.93927
 40
0.75
 50
36.869897
 51
143.1301
  0
ARC
  8
0
  6
CONTINUOUS
 62
     7
 10
789.80042
 20
-118.03927
 40
0.75
 50
216.8699
 51
323.1301
  0
ARC
  8
0
  6
CONTINUOUS
 62
     7
 10
789.80042
 20
-124.03927
 40
0.75
 50
216.8699
 51
323.1301
  0
ARC
  8
0
  6
CONTINUOUS
 62
     7
 10
789.80042
 20
-121.79158
 40
6.4823079
 50
95.310878
 51
126.00833
  0
ARC
  8
0
  6
CONTINUOUS
 62
     7
 10
789.80042
 20
-121.79158
 40
7.6823077
 50
94.479452
 51
126.00833
  0
ARC
  8
0
  6
CONTINUOUS
 62
     7
 10
789.80042
 20
-115.18697
 40
7.6823077
 50
274.47945
 51
306.00832
  0
LINE
  8
0
  6
CONTINUOUS
 62
     7
 10
660.91302
 20
-324.31415
 11
660.91302
 21
-326.36848
  0
LINE
  8
0
  6
CONTINUOUS
 62
     7
 10
659.41302
 20
-324.31415
 11
659.41302
 21
-326.36848
  0
LINE
  8
0
  6
CONTINUOUS
 62
     7
 10
659.41302
 20
-337.25982
 11
659.41302
 21
-339.31415
  0
LINE
  8
0
  6
CONTINUOUS
 62
     7
 10
660.91302
 20
-337.25982
 11
660.91302
 21
-339.31415
  0
LINE
  8
0
  6
CONTINUOUS
 62
     7
 10
659.41302
 20
-327.87393
 11
659.41302
 21
-331.81415
  0
LINE
  8
0
  6
CONTINUOUS
 62
     7
 10
660.91302
 20
-327.87393
 11
660.91302
 21
-331.81415
  0
ARC
  8
0
  6
CONTINUOUS
 62
     7
 10
663.16302
 20
-331.81415
 40
3
 50
306.00832
 51
53.991676
  0
ARC
  8
0
  6
CONTINUOUS
 62
     7
 10
663.16302
 20
-331.81415
 40
4.5
 50
306.00832
 51
53.991676
  0
ARC
  8
0
  6
CONTINUOUS
 62
     7
 10
657.16302
 20
-331.81415
 40
3
 50
126.00833
 51
233.99168
  0
ARC
  8
0
  6
CONTINUOUS
 62
     7
 10
657.16302
 20
-331.81415
 40
4.5
 50
126.00833
 51
233.99168
  0
ARC
  8
0
  6
CONTINUOUS
 62
     7
 10
660.16302
 20
-335.94203
 40
9.6028843
 50
53.991676
 51
85.520553
  0
ARC
  8
0
  6
CONTINUOUS
 62
     7
 10
660.16302
 20
-335.94203
 40
8.1028843
 50
53.991676
 51
84.689121
  0
ARC
  8
0
  6
CONTINUOUS
 62
     7
 10
660.16302
 20
-327.68626
 40
8.1028843
 50
233.99167
 51
306.00832
  0
ARC
  8
0
  6
CONTINUOUS
 62
     7
 10
660.16302
 20
-327.68626
 40
9.6028843
 50
233.99167
 51
265.52055
  0
ARC
  8
0
  6
CONTINUOUS
 62
     7
 10
660.16302
 20
-324.87665
 40
0.9375
 50
36.869897
 51
143.1301
  0
ARC
  8
0
  6
CONTINUOUS
 62
     7
 10
660.16302
 20
-331.25165
 40
0.9375
 50
216.8699
 51
323.1301
  0
ARC
  8
0
  6
CONTINUOUS
 62
     7
 10
660.16302
 20
-338.75165
 40
0.9375
 50
216.8699
 51
323.1301
  0
ARC
  8
0
  6
CONTINUOUS
 62
     7
 10
660.16302
 20
-335.94203
 40
9.6028843
 50
94.479452
 51
126.00833
  0
ARC
  8
0
  6
CONTINUOUS
 62
     7
 10
660.16302
 20
-335.94203
 40
8.1028843
 50
95.310878
 51
126.00833
  0
ARC
  8
0
  6
CONTINUOUS
 62
     7
 10
660.16302
 20
-327.68626
 40
9.6028843
 50
274.47945
 51
306.00832
  0
LINE
  8
0
  6
CONTINUOUS
 62
     7
 10
664.77679
 20
-513.6394
 11
664.77679
 21
-515.69374
  0
LINE
  8
0
  6
CONTINUOUS
 62
     7
 10
663.27679
 20
-513.6394
 11
663.27679
 21
-515.69374
  0
LINE
  8
0
  6
CONTINUOUS
 62
     7
 10
663.27679
 20
-526.58507
 11
663.27679
 21
-528.6394
  0
LINE
  8
0
  6
CONTINUOUS
 62
     7
 10
664.77679
 20
-526.58507
 11
664.77679
 21
-528.6394
  0
LINE
  8
0
  6
CONTINUOUS
 62
     7
 10
663.27679
 20
-517.19919
 11
663.27679
 21
-521.1394
  0
LINE
  8
0
  6
CONTINUOUS
 62
     7
 10
664.77679
 20
-517.19919
 11
664.77679
 21
-521.1394
  0
ARC
  8
0
  6
CONTINUOUS
 62
     7
 10
667.02679
 20
-521.1394
 40
3
 50
306.00832
 51
53.991676
  0
ARC
  8
0
  6
CONTINUOUS
 62
     7
 10
667.02679
 20
-521.1394
 40
4.5
 50
306.00832
 51
53.991676
  0
ARC
  8
0
  6
CONTINUOUS
 62
     7
 10
661.02679
 20
-521.1394
 40
3
 50
126.00833
 51
233.99168
  0
ARC
  8
0
  6
CONTINUOUS
 62
     7
 10
661.02679
 20
-521.1394
 40
4.5
 50
126.00833
 51
233.99168
  0
ARC
  8
0
  6
CONTINUOUS
 62
     7
 10
664.02679
 20
-525.26729
 40
9.6028843
 50
53.991676
 51
85.520553
  0
ARC
  8
0
  6
CONTINUOUS
 62
     7
 10
664.02679
 20
-525.26729
 40
8.1028843
 50
53.991676
 51
84.689121
  0
ARC
  8
0
  6
CONTINUOUS
 62
     7
 10
664.02679
 20
-517.01152
 40
8.1028843
 50
233.99167
 51
306.00832
  0
ARC
  8
0
  6
CONTINUOUS
 62
     7
 10
664.02679
 20
-517.01152
 40
9.6028843
 50
233.99167
 51
265.52055
  0
ARC
  8
0
  6
CONTINUOUS
 62
     7
 10
664.02679
 20
-514.2019
 40
0.9375
 50
36.869897
 51
143.1301
  0
ARC
  8
0
  6
CONTINUOUS
 62
     7
 10
664.02679
 20
-520.5769
 40
0.9375
 50
216.8699
 51
323.1301
  0
ARC
  8
0
  6
CONTINUOUS
 62
     7
 10
664.02679
 20
-528.0769
 40
0.9375
 50
216.8699
 51
323.1301
  0
ARC
  8
0
  6
CONTINUOUS
 62
     7
 10
664.02679
 20
-525.26729
 40
9.6028843
 50
94.479452
 51
126.00833
  0
ARC
  8
0
  6
CONTINUOUS
 62
     7
 10
664.02679
 20
-525.26729
 40
8.1028843
 50
95.310878
 51
126.00833
  0
ARC
  8
0
  6
CONTINUOUS
 62
     7
 10
664.02679
 20
-517.01152
 40
9.6028843
 50
274.47945
 51
306.00832
  0
ENDSEC
  0
EOF
