  0
SECTION
  2
HEADER
  9
$EXTMAX
 10
297.25922
 20
211.66544
  9
$EXTMIN
 10
-297.25922
 20
-210.82214
  0
ENDSEC
  0
SECTION
  2
TABLES
  0
TABLE
  2
LTYPE
 70
    22
  0
LTYPE
  2
CONTINUOUS
 70
    64
  3
Solid line
 72
    65
 73
     0
 40
0.000000
  0
LTYPE
  2
DASHED
 70
    64
  3
__ __ __ __ __ __ __ __ __ __ __ __ __ __ __
 72
    65
 73
     2
 40
3.500000
 49
2.000000
 49
-1.500000
  0
LTYPE
  2
CENTER
 70
    64
  3
____ _ ____ _ ____ _ ____ _ ____ _ ____ _ ____
 72
    65
 73
     4
 40
17.500000
 49
13.000000
 49
-1.500000
 49
1.500000
 49
-1.500000
  0
LTYPE
  2
PHANTOM
 70
    64
  3
_____ _ _ _____ _ _ _____ _ _ _____ _ _ ____  
 72
    65
 73
     6
 40
15.500000
 49
8.000000
 49
-1.500000
 49
1.500000
 49
-1.500000
 49
1.500000
 49
-1.500000
  0
LTYPE
  2
DOT
 70
    64
  3
. . . . . . . . . . . . . . . . . . . . . . . .
 72
    65
 73
     2
 40
0.25
 49
0.0
 49
-0.25
  0
ENDTAB
  0
TABLE
  2
LAYER
 70
     1
  0
LAYER
  2
0
 70
     0
 62
     7
  6
CONTINUOUS
  0
ENDTAB
  0
TABLE
  2
STYLE
 70
     1
  0
STYLE
  2
STANDARD
 70
     0
 40
0.000000
 41
1.000000
 50
0.000000
 71
     0
 42
0.200000
  3
txt
  4
BIGFONT
  0
ENDTAB
  0
TABLE
  2
VIEW
 70
     0
  0
ENDTAB
  0
ENDSEC
  0
SECTION
  2
BLOCKS
  0
ENDSEC
  0
SECTION
  2
ENTITIES
  0
POINT
  8
0
  6
CONTINUOUS
 62
     7
 10
317
 20
-650
  0
POINT
  8
0
  6
CONTINUOUS
 62
     7
 10
911
 20
-650
  0
POINT
  8
0
  6
CONTINUOUS
 62
     7
 10
317
 20
-230
  0
POINT
  8
0
  6
CONTINUOUS
 62
     7
 10
911
 20
-230
  0
POINT
  8
0
  6
CONTINUOUS
 62
     7
 10
317
 20
-650
  0
POINT
  8
0
  6
CONTINUOUS
 62
     7
 10
-297
 20
-210
  0
POINT
  8
0
  6
CONTINUOUS
 62
     7
 10
297
 20
210
  0
POINT
  8
0
  6
CONTINUOUS
 62
     7
 10
-297
 20
210
  0
POINT
  8
0
  6
CONTINUOUS
 62
     7
 10
297
 20
-210
  0
POINT
  8
0
  6
CONTINUOUS
 62
     7
 10
-297
 20
-230
  0
POINT
  8
0
  6
CONTINUOUS
 62
     7
 10
317
 20
-230
  0
POINT
  8
0
  6
CONTINUOUS
 62
     7
 10
317
 20
-210
  0
POINT
  8
0
  6
CONTINUOUS
 62
     7
 10
911
 20
-210
  0
POINT
  8
0
  6
CONTINUOUS
 62
     7
 10
317
 20
210
  0
POINT
  8
0
  6
CONTINUOUS
 62
     7
 10
911
 20
210
  0
POINT
  8
0
  6
CONTINUOUS
 62
     7
 10
317
 20
-210
  0
POINT
  8
0
  6
CONTINUOUS
 62
     7
 10
-297
 20
-650
  0
POINT
  8
0
  6
CONTINUOUS
 62
     7
 10
297
 20
-650
  0
POINT
  8
0
  6
CONTINUOUS
 62
     7
 10
-297
 20
-230
  0
POINT
  8
0
  6
CONTINUOUS
 62
     7
 10
297
 20
-230
  0
POINT
  8
0
  6
CONTINUOUS
 62
     7
 10
-297
 20
-650
  0
POINT
  8
0
  6
CONTINUOUS
 62
     7
 10
-232.45436
 20
120.86658
  0
POINT
  8
0
  6
CONTINUOUS
 62
     7
 10
-145.12134
 20
115.96923
  0
POINT
  8
0
  6
CONTINUOUS
 62
     7
 10
55.299999
 20
103.95
  0
POINT
  8
0
  6
CONTINUOUS
 62
     7
 10
-48.527111
 20
108.55695
  0
POINT
  8
0
  6
CONTINUOUS
 62
     7
 10
-231.08333
 20
-32.122223
  0
POINT
  8
0
  6
CONTINUOUS
 62
     7
 10
-98.817802
 20
-41.098537
  0
POINT
  8
0
  6
CONTINUOUS
 62
     7
 10
28.616806
 20
-45.786888
  0
POINT
  8
0
  6
CONTINUOUS
 62
     7
 10
180.78905
 20
-48.935379
  0
POINT
  8
0
  6
CONTINUOUS
 62
     7
 10
419.75467
 20
76.424301
  0
POINT
  8
0
  6
CONTINUOUS
 62
     7
 10
205.8
 20
97.650002
  0
LINE
  8
0
  6
CONTINUOUS
 62
     7
 10
-287
 20
200
 11
-287
 21
-200
  0
LINE
  8
0
  6
CONTINUOUS
 62
     7
 10
-287
 20
-200
 11
287
 21
-200
  0
LINE
  8
0
  6
CONTINUOUS
 62
     7
 10
287
 20
200
 11
287
 21
-200
  0
LINE
  8
0
  6
CONTINUOUS
 62
     7
 10
-287
 20
200
 11
287
 21
200
  0
LINE
  8
0
  6
CONTINUOUS
 62
     7
 10
901
 20
200
 11
901
 21
-200
  0
LINE
  8
0
  6
CONTINUOUS
 62
     7
 10
327
 20
200
 11
901
 21
200
  0
LINE
  8
0
  6
CONTINUOUS
 62
     7
 10
327
 20
200
 11
327
 21
-200
  0
LINE
  8
0
  6
CONTINUOUS
 62
     7
 10
327
 20
-200
 11
901
 21
-200
  0
LINE
  8
0
  6
CONTINUOUS
 62
     7
 10
287
 20
-240
 11
287
 21
-640
  0
LINE
  8
0
  6
CONTINUOUS
 62
     7
 10
-287
 20
-240
 11
287
 21
-240
  0
LINE
  8
0
  6
CONTINUOUS
 62
     7
 10
-287
 20
-240
 11
-287
 21
-640
  0
LINE
  8
0
  6
CONTINUOUS
 62
     7
 10
-287
 20
-640
 11
287
 21
-640
  0
LINE
  8
0
  6
CONTINUOUS
 62
     7
 10
906
 20
-235
 11
906
 21
-645
  0
LINE
  8
0
  6
CONTINUOUS
 62
     7
 10
322
 20
-235
 11
906
 21
-235
  0
LINE
  8
0
  6
CONTINUOUS
 62
     7
 10
322
 20
-235
 11
322
 21
-645
  0
LINE
  8
0
  6
CONTINUOUS
 62
     7
 10
322
 20
-645
 11
906
 21
-645
  0
LINE
  8
0
  6
CENTER
 62
     7
 10
-232.45436
 20
155.26657
 11
-232.45436
 21
85.352425
  0
LINE
  8
0
  6
CENTER
 62
     7
 10
-248.95433
 20
120.86658
 11
-196.38451
 21
120.86658
  0
LINE
  8
0
  6
CONTINUOUS
 62
     7
 10
-247.45435
 20
144.86658
 11
-247.45435
 21
150.86658
  0
LINE
  8
0
  6
CONTINUOUS
 62
     7
 10
-217.45435
 20
144.86658
 11
-217.45435
 21
150.86658
  0
LINE
  8
0
  6
CONTINUOUS
 62
     7
 10
-245.95435
 20
140.86658
 11
-245.95435
 21
142.26849
  0
LINE
  8
0
  6
CONTINUOUS
 62
     7
 10
-218.95435
 20
140.86658
 11
-218.95435
 21
142.26849
  0
LINE
  8
0
  6
CONTINUOUS
 62
     7
 10
-214.45435
 20
94.866585
 11
-214.45435
 21
88.866585
  0
LINE
  8
0
  6
CONTINUOUS
 62
     7
 10
-250.45435
 20
94.866585
 11
-250.45435
 21
88.866585
  0
LINE
  8
0
  6
CONTINUOUS
 62
     7
 10
-215.95435
 20
100.36658
 11
-215.95435
 21
97.464668
  0
LINE
  8
0
  6
CONTINUOUS
 62
     7
 10
-248.95435
 20
104.36658
 11
-248.95435
 21
97.464668
  0
LINE
  8
0
  6
CONTINUOUS
 62
     7
 10
-206.45436
 20
138.86658
 11
-200.45436
 21
138.86658
  0
LINE
  8
0
  6
CONTINUOUS
 62
     7
 10
-206.45436
 20
102.86658
 11
-200.45436
 21
102.86658
  0
LINE
  8
0
  6
CONTINUOUS
 62
     7
 10
-215.45435
 20
137.36658
 11
-209.05243
 21
137.36658
  0
LINE
  8
0
  6
CONTINUOUS
 62
     7
 10
-211.95435
 20
104.36658
 11
-209.05243
 21
104.36658
  0
LINE
  8
0
  6
CONTINUOUS
 62
     7
 10
-250.45435
 20
94.866585
 11
-214.45435
 21
94.866585
  0
LINE
  8
0
  6
CONTINUOUS
 62
     7
 10
-250.45435
 20
88.866585
 11
-214.45435
 21
88.866585
  0
LINE
  8
0
  6
CONTINUOUS
 62
     7
 10
-247.45435
 20
144.86658
 11
-217.45435
 21
144.86658
  0
LINE
  8
0
  6
CONTINUOUS
 62
     7
 10
-247.45435
 20
150.86658
 11
-217.45435
 21
150.86658
  0
LINE
  8
0
  6
CONTINUOUS
 62
     7
 10
-206.45436
 20
138.86658
 11
-206.45436
 21
102.86658
  0
LINE
  8
0
  6
CONTINUOUS
 62
     7
 10
-200.45436
 20
138.86658
 11
-200.45436
 21
102.86658
  0
LINE
  8
0
  6
CENTER
 62
     7
 10
-145.12134
 20
155.36922
 11
-145.12134
 21
73.565323
  0
LINE
  8
0
  6
CENTER
 62
     7
 10
-169.76917
 20
115.96923
 11
-101.35408
 21
115.96923
  0
LINE
  8
0
  6
CONTINUOUS
 62
     7
 10
-163.12131
 20
144.96924
 11
-163.12131
 21
150.96924
  0
LINE
  8
0
  6
CONTINUOUS
 62
     7
 10
-127.12132
 20
144.96924
 11
-127.12132
 21
150.96924
  0
LINE
  8
0
  6
CONTINUOUS
 62
     7
 10
-161.62131
 20
139.96924
 11
-161.62131
 21
142.37115
  0
LINE
  8
0
  6
CONTINUOUS
 62
     7
 10
-128.62131
 20
139.96924
 11
-128.62131
 21
142.37115
  0
LINE
  8
0
  6
CONTINUOUS
 62
     7
 10
-123.12132
 20
84.969231
 11
-123.12132
 21
77.969231
  0
LINE
  8
0
  6
CONTINUOUS
 62
     7
 10
-167.12131
 20
84.969231
 11
-167.12131
 21
77.969231
  0
LINE
  8
0
  6
CONTINUOUS
 62
     7
 10
-124.62132
 20
91.969231
 11
-124.62132
 21
87.567314
  0
LINE
  8
0
  6
CONTINUOUS
 62
     7
 10
-165.62131
 20
95.469231
 11
-165.62131
 21
87.567314
  0
LINE
  8
0
  6
CONTINUOUS
 62
     7
 10
-114.12135
 20
137.96924
 11
-107.12135
 21
137.96924
  0
LINE
  8
0
  6
CONTINUOUS
 62
     7
 10
-114.12135
 20
93.969231
 11
-107.12135
 21
93.969231
  0
LINE
  8
0
  6
CONTINUOUS
 62
     7
 10
-125.12132
 20
136.46924
 11
-116.71943
 21
136.46924
  0
LINE
  8
0
  6
CONTINUOUS
 62
     7
 10
-121.12132
 20
95.469231
 11
-116.71943
 21
95.469231
  0
LINE
  8
0
  6
CONTINUOUS
 62
     7
 10
-167.12131
 20
77.969231
 11
-123.12132
 21
77.969231
  0
LINE
  8
0
  6
CONTINUOUS
 62
     7
 10
-167.12131
 20
84.969231
 11
-123.12132
 21
84.969231
  0
LINE
  8
0
  6
CONTINUOUS
 62
     7
 10
-163.12131
 20
144.96924
 11
-127.12132
 21
144.96924
  0
LINE
  8
0
  6
CONTINUOUS
 62
     7
 10
-163.12131
 20
150.96924
 11
-127.12132
 21
150.96924
  0
LINE
  8
0
  6
CONTINUOUS
 62
     7
 10
-114.12135
 20
137.96924
 11
-114.12135
 21
93.969231
  0
LINE
  8
0
  6
CONTINUOUS
 62
     7
 10
-107.12135
 20
137.96924
 11
-107.12135
 21
93.969231
  0
LINE
  8
0
  6
CENTER
 62
     7
 10
25.462032
 20
103.95
 11
110.30544
 21
103.95
  0
LINE
  8
0
  6
CENTER
 62
     7
 10
55.299999
 20
50.741535
 11
55.299999
 21
157.09961
  0
LINE
  8
0
  6
CONTINUOUS
 62
     7
 10
33.299999
 20
141.95
 11
33.299999
 21
148.95
  0
LINE
  8
0
  6
CONTINUOUS
 62
     7
 10
77.300003
 20
141.95
 11
77.300003
 21
148.95
  0
LINE
  8
0
  6
CONTINUOUS
 62
     7
 10
34.799999
 20
136.95003
 11
34.799999
 21
139.35191
  0
LINE
  8
0
  6
CONTINUOUS
 62
     7
 10
75.800003
 20
136.95003
 11
75.800003
 21
139.35191
  0
LINE
  8
0
  6
CONTINUOUS
 62
     7
 10
85.299942
 20
64.949997
 11
85.299942
 21
55.950001
  0
LINE
  8
0
  6
CONTINUOUS
 62
     7
 10
25.299953
 20
64.949997
 11
25.299953
 21
55.950001
  0
LINE
  8
0
  6
CONTINUOUS
 62
     7
 10
83.299942
 20
69.950027
 11
83.299942
 21
68.414108
  0
LINE
  8
0
  6
CONTINUOUS
 62
     7
 10
27.299953
 20
75.950027
 11
27.299953
 21
68.414108
  0
LINE
  8
0
  6
CONTINUOUS
 62
     7
 10
94.300003
 20
133.95003
 11
103.3
 21
133.95003
  0
LINE
  8
0
  6
CONTINUOUS
 62
     7
 10
94.300003
 20
73.950027
 11
103.3
 21
73.950027
  0
LINE
  8
0
  6
CONTINUOUS
 62
     7
 10
80.800003
 20
131.95003
 11
90.835892
 21
131.95003
  0
LINE
  8
0
  6
CONTINUOUS
 62
     7
 10
89.299942
 20
75.950027
 11
90.835892
 21
75.950027
  0
LINE
  8
0
  6
CONTINUOUS
 62
     7
 10
25.299953
 20
55.950001
 11
85.299942
 21
55.950001
  0
LINE
  8
0
  6
CONTINUOUS
 62
     7
 10
25.299953
 20
64.949997
 11
85.299942
 21
64.949997
  0
LINE
  8
0
  6
CONTINUOUS
 62
     7
 10
33.299999
 20
141.95
 11
77.300003
 21
141.95
  0
LINE
  8
0
  6
CONTINUOUS
 62
     7
 10
33.299999
 20
148.95
 11
77.300003
 21
148.95
  0
LINE
  8
0
  6
CONTINUOUS
 62
     7
 10
94.300003
 20
73.950027
 11
94.300003
 21
133.95003
  0
LINE
  8
0
  6
CONTINUOUS
 62
     7
 10
103.3
 20
73.950027
 11
103.3
 21
133.95003
  0
LINE
  8
0
  6
CONTINUOUS
 62
     7
 10
-75.027107
 20
70.556946
 11
-75.027107
 21
62.556946
  0
LINE
  8
0
  6
CONTINUOUS
 62
     7
 10
-22.027111
 20
70.556946
 11
-22.027111
 21
62.556946
  0
LINE
  8
0
  6
CONTINUOUS
 62
     7
 10
-70.527107
 20
143.55695
 11
-70.527107
 21
150.55695
  0
LINE
  8
0
  6
CONTINUOUS
 62
     7
 10
-26.527111
 20
150.55695
 11
-26.527111
 21
143.55695
  0
LINE
  8
0
  6
CONTINUOUS
 62
     7
 10
-23.527111
 20
79.556946
 11
-23.527111
 21
73.155022
  0
LINE
  8
0
  6
CONTINUOUS
 62
     7
 10
-28.027111
 20
140.95886
 11
-28.027111
 21
138.55695
  0
LINE
  8
0
  6
CONTINUOUS
 62
     7
 10
-28.027111
 20
140.95886
 11
-28.027111
 21
137.55695
  0
LINE
  8
0
  6
CONTINUOUS
 62
     7
 10
-10.527111
 20
82.056946
 11
-2.5271108
 21
82.056946
  0
LINE
  8
0
  6
CONTINUOUS
 62
     7
 10
-10.527111
 20
135.05695
 11
-2.5271108
 21
135.05695
  0
LINE
  8
0
  6
CONTINUOUS
 62
     7
 10
-10.527111
 20
82.056946
 11
-2.5271108
 21
82.056946
  0
LINE
  8
0
  6
CONTINUOUS
 62
     7
 10
-19.527111
 20
83.556946
 11
-13.125187
 21
83.556946
  0
LINE
  8
0
  6
CONTINUOUS
 62
     7
 10
-73.527107
 20
83.556946
 11
-73.527107
 21
73.155022
  0
LINE
  8
0
  6
CONTINUOUS
 62
     7
 10
-23.027111
 20
133.55695
 11
-13.125187
 21
133.55695
  0
LINE
  8
0
  6
CENTER
 62
     7
 10
-48.527111
 20
159.52214
 11
-48.527111
 21
54.813
  0
LINE
  8
0
  6
CONTINUOUS
 62
     7
 10
-69.027107
 20
140.95886
 11
-69.027107
 21
137.55695
  0
LINE
  8
0
  6
CONTINUOUS
 62
     7
 10
-24.027111
 20
133.55695
 11
-13.125187
 21
133.55695
  0
LINE
  8
0
  6
CENTER
 62
     7
 10
-75.171738
 20
108.55695
 11
4.2782602
 21
108.55695
  0
LINE
  8
0
  6
CONTINUOUS
 62
     7
 10
-70.527107
 20
150.55695
 11
-26.527111
 21
150.55695
  0
LINE
  8
0
  6
CONTINUOUS
 62
     7
 10
-70.527107
 20
143.55695
 11
-26.527111
 21
143.55695
  0
LINE
  8
0
  6
CONTINUOUS
 62
     7
 10
-75.027107
 20
70.556946
 11
-22.027111
 21
70.556946
  0
LINE
  8
0
  6
CONTINUOUS
 62
     7
 10
-75.027107
 20
62.556946
 11
-22.027111
 21
62.556946
  0
LINE
  8
0
  6
CONTINUOUS
 62
     7
 10
-10.527111
 20
135.05695
 11
-10.527111
 21
82.056946
  0
LINE
  8
0
  6
CONTINUOUS
 62
     7
 10
-2.5271108
 20
135.05695
 11
-2.5271108
 21
82.056946
  0
LINE
  8
0
  6
CENTER
 62
     7
 10
-264.90222
 20
-32.122223
 11
-168.34827
 21
-32.122223
  0
LINE
  8
0
  6
CENTER
 62
     7
 10
-231.08333
 20
21.353806
 11
-231.08333
 21
-93.350739
  0
LINE
  8
0
  6
CONTINUOUS
 62
     7
 10
-267.58334
 20
-78.122223
 11
-267.58334
 21
-89.122223
  0
LINE
  8
0
  6
CONTINUOUS
 62
     7
 10
-194.58334
 20
-78.122223
 11
-194.58334
 21
-89.122223
  0
LINE
  8
0
  6
CONTINUOUS
 62
     7
 10
-185.08334
 20
-68.622223
 11
-174.08334
 21
-68.622223
  0
LINE
  8
0
  6
CONTINUOUS
 62
     7
 10
-185.08334
 20
4.3777776
 11
-174.08334
 21
4.3777776
  0
LINE
  8
0
  6
CONTINUOUS
 62
     7
 10
-265.58334
 20
-66.622223
 11
-265.58334
 21
-74.658119
  0
LINE
  8
0
  6
CONTINUOUS
 62
     7
 10
-210.58333
 20
2.3777778
 11
-188.54744
 21
2.3777778
  0
LINE
  8
0
  6
CONTINUOUS
 62
     7
 10
-249.08333
 20
16.877777
 11
-249.08333
 21
10.877778
  0
LINE
  8
0
  6
CONTINUOUS
 62
     7
 10
-213.08333
 20
16.877777
 11
-213.08333
 21
10.877778
  0
LINE
  8
0
  6
CONTINUOUS
 62
     7
 10
-214.58333
 20
8.2797022
 11
-214.58333
 21
6.3777776
  0
LINE
  8
0
  6
CONTINUOUS
 62
     7
 10
-247.58333
 20
8.2797022
 11
-247.58333
 21
6.3709416
  0
LINE
  8
0
  6
CONTINUOUS
 62
     7
 10
-247.58333
 20
8.2797022
 11
-247.58333
 21
6.3709416
  0
LINE
  8
0
  6
CONTINUOUS
 62
     7
 10
-196.58334
 20
-74.658119
 11
-196.58334
 21
-73.622223
  0
LINE
  8
0
  6
CONTINUOUS
 62
     7
 10
-188.54744
 20
-66.622223
 11
-189.58334
 21
-66.622223
  0
LINE
  8
0
  6
CONTINUOUS
 62
     7
 10
-267.58334
 20
-89.122223
 11
-194.58334
 21
-89.122223
  0
LINE
  8
0
  6
CONTINUOUS
 62
     7
 10
-267.58334
 20
-78.122223
 11
-194.58334
 21
-78.122223
  0
LINE
  8
0
  6
CONTINUOUS
 62
     7
 10
-249.08333
 20
10.877778
 11
-213.08333
 21
10.877778
  0
LINE
  8
0
  6
CONTINUOUS
 62
     7
 10
-249.08333
 20
16.877777
 11
-213.08333
 21
16.877777
  0
LINE
  8
0
  6
CONTINUOUS
 62
     7
 10
-185.08334
 20
4.3777776
 11
-185.08334
 21
-68.622223
  0
LINE
  8
0
  6
CONTINUOUS
 62
     7
 10
-174.08334
 20
4.3777776
 11
-174.08334
 21
-68.622223
  0
LINE
  8
0
  6
CENTER
 62
     7
 10
-132.01237
 20
-41.098537
 11
-34.712372
 21
-41.098537
  0
LINE
  8
0
  6
CENTER
 62
     7
 10
-98.817802
 20
-106.85839
 11
-98.817802
 21
14.501067
  0
LINE
  8
0
  6
CONTINUOUS
 62
     7
 10
-62.317852
 20
-87.098534
 11
-62.317852
 21
-98.098534
  0
LINE
  8
0
  6
CONTINUOUS
 62
     7
 10
-135.31786
 20
-87.098534
 11
-135.31786
 21
-98.098534
  0
LINE
  8
0
  6
CONTINUOUS
 62
     7
 10
-64.317848
 20
-82.598503
 11
-64.317848
 21
-83.634422
  0
LINE
  8
0
  6
CONTINUOUS
 62
     7
 10
-133.31786
 20
-75.598534
 11
-133.31786
 21
-83.634422
  0
LINE
  8
0
  6
CONTINUOUS
 62
     7
 10
-52.817806
 20
-4.598506
 11
-41.817806
 21
-4.598506
  0
LINE
  8
0
  6
CONTINUOUS
 62
     7
 10
-52.817806
 20
-77.598503
 11
-41.817806
 21
-77.598503
  0
LINE
  8
0
  6
CONTINUOUS
 62
     7
 10
-73.317802
 20
-6.598506
 11
-56.281918
 21
-6.598506
  0
LINE
  8
0
  6
CONTINUOUS
 62
     7
 10
-57.317852
 20
-75.598503
 11
-56.281918
 21
-75.598503
  0
LINE
  8
0
  6
CONTINUOUS
 62
     7
 10
-120.8178
 20
2.9014635
 11
-120.8178
 21
9.9014635
  0
LINE
  8
0
  6
CONTINUOUS
 62
     7
 10
-76.817802
 20
2.9014635
 11
-76.817802
 21
9.9014635
  0
LINE
  8
0
  6
CONTINUOUS
 62
     7
 10
-119.3178
 20
-4.3805799
 11
-119.3178
 21
0.30337992
  0
LINE
  8
0
  6
CONTINUOUS
 62
     7
 10
-78.317802
 20
-1.5985061
 11
-78.317802
 21
0.30337992
  0
LINE
  8
0
  6
CONTINUOUS
 62
     7
 10
-135.31786
 20
-98.098534
 11
-62.317852
 21
-98.098534
  0
LINE
  8
0
  6
CONTINUOUS
 62
     7
 10
-135.31786
 20
-87.098534
 11
-62.317852
 21
-87.098534
  0
LINE
  8
0
  6
CONTINUOUS
 62
     7
 10
-120.8178
 20
2.9014635
 11
-76.817802
 21
2.9014635
  0
LINE
  8
0
  6
CONTINUOUS
 62
     7
 10
-120.8178
 20
9.9014635
 11
-76.817802
 21
9.9014635
  0
LINE
  8
0
  6
CONTINUOUS
 62
     7
 10
-41.817806
 20
-77.598503
 11
-41.817806
 21
-4.598506
  0
LINE
  8
0
  6
CONTINUOUS
 62
     7
 10
-52.817806
 20
-77.598503
 11
-52.817806
 21
-4.598506
  0
LINE
  8
0
  6
CENTER
 62
     7
 10
28.616806
 20
14.690131
 11
28.616806
 21
-108.3586
  0
LINE
  8
0
  6
CONTINUOUS
 62
     7
 10
2.1168058
 20
0.2131259
 11
2.1168058
 21
8.2131262
  0
LINE
  8
0
  6
CONTINUOUS
 62
     7
 10
55.116806
 20
0.2131259
 11
55.116806
 21
8.2131262
  0
LINE
  8
0
  6
CONTINUOUS
 62
     7
 10
3.6168058
 20
-6.2868743
 11
3.6168058
 21
-2.3849576
  0
LINE
  8
0
  6
CONTINUOUS
 62
     7
 10
53.616806
 20
-6.2868896
 11
53.616806
 21
-2.3849576
  0
LINE
  8
0
  6
CONTINUOUS
 62
     7
 10
74.616806
 20
-9.2868891
 11
85.616806
 21
-9.2868891
  0
LINE
  8
0
  6
CONTINUOUS
 62
     7
 10
74.616806
 20
-82.286888
 11
85.616806
 21
-82.286888
  0
LINE
  8
0
  6
CONTINUOUS
 62
     7
 10
58.616806
 20
-11.286889
 11
71.15271
 21
-11.286889
  0
LINE
  8
0
  6
CONTINUOUS
 62
     7
 10
68.116837
 20
-80.286888
 11
71.15271
 21
-80.286888
  0
LINE
  8
0
  6
CONTINUOUS
 62
     7
 10
65.116837
 20
-91.786888
 11
65.116837
 21
-102.78689
  0
LINE
  8
0
  6
CONTINUOUS
 62
     7
 10
-7.8831635
 20
-91.786888
 11
-7.8831635
 21
-102.78689
  0
LINE
  8
0
  6
CONTINUOUS
 62
     7
 10
63.116837
 20
-85.286888
 11
63.116837
 21
-88.322777
  0
LINE
  8
0
  6
CONTINUOUS
 62
     7
 10
-5.8831635
 20
-85.286888
 11
-5.8831635
 21
-88.322777
  0
LINE
  8
0
  6
CENTER
 62
     7
 10
-3.4407868
 20
-45.786888
 11
91.759216
 21
-45.786888
  0
LINE
  8
0
  6
CONTINUOUS
 62
     7
 10
2.1168058
 20
8.2131262
 11
55.116806
 21
8.2131262
  0
LINE
  8
0
  6
CONTINUOUS
 62
     7
 10
2.1168058
 20
0.2131259
 11
55.116806
 21
0.2131259
  0
LINE
  8
0
  6
CONTINUOUS
 62
     7
 10
-7.8831635
 20
-91.786888
 11
65.116837
 21
-91.786888
  0
LINE
  8
0
  6
CONTINUOUS
 62
     7
 10
-7.8831635
 20
-102.78689
 11
65.116837
 21
-102.78689
  0
LINE
  8
0
  6
CONTINUOUS
 62
     7
 10
74.616806
 20
-9.2868891
 11
74.616806
 21
-82.286888
  0
LINE
  8
0
  6
CONTINUOUS
 62
     7
 10
85.616806
 20
-9.2868891
 11
85.616806
 21
-82.286888
  0
LINE
  8
0
  6
CENTER
 62
     7
 10
146.47438
 20
-48.935379
 11
244.19447
 21
-48.935379
  0
LINE
  8
0
  6
CENTER
 62
     7
 10
180.78905
 20
-113.23442
 11
180.78905
 21
12.089223
  0
LINE
  8
0
  6
CONTINUOUS
 62
     7
 10
217.28896
 20
-94.935379
 11
217.28896
 21
-105.93538
  0
LINE
  8
0
  6
CONTINUOUS
 62
     7
 10
144.28896
 20
-94.935379
 11
144.28896
 21
-105.93538
  0
LINE
  8
0
  6
CONTINUOUS
 62
     7
 10
215.28896
 20
-90.435349
 11
215.28896
 21
-91.471268
  0
LINE
  8
0
  6
CONTINUOUS
 62
     7
 10
146.28896
 20
-83.435349
 11
146.28896
 21
-91.471268
  0
LINE
  8
0
  6
CONTINUOUS
 62
     7
 10
226.78905
 20
-12.435365
 11
237.78905
 21
-12.435365
  0
LINE
  8
0
  6
CONTINUOUS
 62
     7
 10
226.78905
 20
-85.435349
 11
237.78905
 21
-85.435349
  0
LINE
  8
0
  6
CONTINUOUS
 62
     7
 10
213.78905
 20
-14.435365
 11
223.32494
 21
-14.435365
  0
LINE
  8
0
  6
CONTINUOUS
 62
     7
 10
222.28896
 20
-83.435349
 11
223.32494
 21
-83.435349
  0
LINE
  8
0
  6
CONTINUOUS
 62
     7
 10
150.78905
 20
-2.9353802
 11
150.78905
 21
6.06462
  0
LINE
  8
0
  6
CONTINUOUS
 62
     7
 10
210.78905
 20
-2.9353802
 11
210.78905
 21
6.06462
  0
LINE
  8
0
  6
CONTINUOUS
 62
     7
 10
152.78905
 20
-9.4353647
 11
152.78905
 21
-6.3994761
  0
LINE
  8
0
  6
CONTINUOUS
 62
     7
 10
208.78905
 20
-9.4353647
 11
208.78905
 21
-6.3994761
  0
LINE
  8
0
  6
CONTINUOUS
 62
     7
 10
226.78905
 20
-85.435349
 11
226.78905
 21
-12.435365
  0
LINE
  8
0
  6
CONTINUOUS
 62
     7
 10
237.78905
 20
-85.435349
 11
237.78905
 21
-12.435365
  0
LINE
  8
0
  6
CONTINUOUS
 62
     7
 10
144.28896
 20
-94.935379
 11
217.28896
 21
-94.935379
  0
LINE
  8
0
  6
CONTINUOUS
 62
     7
 10
144.28896
 20
-105.93538
 11
217.28896
 21
-105.93538
  0
LINE
  8
0
  6
CONTINUOUS
 62
     7
 10
150.78905
 20
-2.9353802
 11
210.78905
 21
-2.9353802
  0
LINE
  8
0
  6
CONTINUOUS
 62
     7
 10
150.78905
 20
6.06462
 11
210.78905
 21
6.06462
  0
LINE
  8
0
  6
CENTER
 62
     7
 10
371.16339
 20
76.424301
 11
496.4335
 21
76.424301
  0
LINE
  8
0
  6
CENTER
 62
     7
 10
419.75467
 20
146.97067
 11
419.75467
 21
0.4439829
  0
LINE
  8
0
  6
CONTINUOUS
 62
     7
 10
374.25467
 20
19.424299
 11
465.25467
 21
19.424299
  0
LINE
  8
0
  6
CONTINUOUS
 62
     7
 10
465.25467
 20
19.424299
 11
465.25467
 21
7.4242992
  0
LINE
  8
0
  6
CONTINUOUS
 62
     7
 10
374.25467
 20
19.424299
 11
374.25467
 21
7.4242992
  0
LINE
  8
0
  6
CONTINUOUS
 62
     7
 10
376.75467
 20
33.424297
 11
376.75467
 21
24.297697
  0
LINE
  8
0
  6
CONTINUOUS
 62
     7
 10
476.75467
 20
30.924299
 11
488.75467
 21
30.924299
  0
LINE
  8
0
  6
CONTINUOUS
 62
     7
 10
476.75467
 20
121.9243
 11
488.75467
 21
121.9243
  0
LINE
  8
0
  6
CONTINUOUS
 62
     7
 10
460.25467
 20
119.4243
 11
471.88129
 21
119.4243
  0
LINE
  8
0
  6
CONTINUOUS
 62
     7
 10
383.25467
 20
141.4243
 11
383.25467
 21
130.4243
  0
LINE
  8
0
  6
CONTINUOUS
 62
     7
 10
456.25467
 20
141.4243
 11
456.25467
 21
130.4243
  0
LINE
  8
0
  6
CONTINUOUS
 62
     7
 10
454.25467
 20
126.9602
 11
454.25467
 21
125.42429
  0
LINE
  8
0
  6
CONTINUOUS
 62
     7
 10
385.25467
 20
126.9602
 11
385.25467
 21
125.41207
  0
LINE
  8
0
  6
CONTINUOUS
 62
     7
 10
374.25467
 20
7.4242992
 11
465.25467
 21
7.4242992
  0
LINE
  8
0
  6
CONTINUOUS
 62
     7
 10
470.25467
 20
33.424297
 11
471.88129
 21
33.424297
  0
LINE
  8
0
  6
CONTINUOUS
 62
     7
 10
462.75467
 20
25.924301
 11
462.75485
 21
24.251747
  0
LINE
  8
0
  6
CONTINUOUS
 62
     7
 10
383.25467
 20
141.4243
 11
456.25467
 21
141.4243
  0
LINE
  8
0
  6
CONTINUOUS
 62
     7
 10
383.25467
 20
130.4243
 11
456.25467
 21
130.4243
  0
LINE
  8
0
  6
CONTINUOUS
 62
     7
 10
476.75467
 20
121.9243
 11
476.75467
 21
30.924299
  0
LINE
  8
0
  6
CONTINUOUS
 62
     7
 10
488.75467
 20
121.9243
 11
488.75467
 21
30.924299
  0
LINE
  8
0
  6
CENTER
 62
     7
 10
174.38802
 20
97.650002
 11
260.48801
 21
97.650002
  0
LINE
  8
0
  6
CENTER
 62
     7
 10
205.8
 20
154.3
 11
205.8
 21
43.39497
  0
LINE
  8
0
  6
CONTINUOUS
 62
     7
 10
179.3
 20
145.64999
 11
179.3
 21
137.64999
  0
LINE
  8
0
  6
CONTINUOUS
 62
     7
 10
235.8
 20
49.649994
 11
235.8
 21
58.649994
  0
LINE
  8
0
  6
CONTINUOUS
 62
     7
 10
233.8
 20
63.122131
 11
233.8
 21
64.650002
  0
LINE
  8
0
  6
CONTINUOUS
 62
     7
 10
253.8
 20
67.650002
 11
244.8
 21
67.650002
  0
LINE
  8
0
  6
CONTINUOUS
 62
     7
 10
240.32787
 20
69.650002
 11
238.8
 21
69.650002
  0
LINE
  8
0
  6
CONTINUOUS
 62
     7
 10
175.8
 20
49.649994
 11
175.8
 21
58.649994
  0
LINE
  8
0
  6
CONTINUOUS
 62
     7
 10
253.8
 20
127.64999
 11
244.8
 21
127.64999
  0
LINE
  8
0
  6
CONTINUOUS
 62
     7
 10
232.3
 20
145.64999
 11
232.3
 21
137.64999
  0
LINE
  8
0
  6
CONTINUOUS
 62
     7
 10
230.8
 20
135.05193
 11
230.8
 21
130.65001
  0
LINE
  8
0
  6
CONTINUOUS
 62
     7
 10
177.8
 20
69.650002
 11
177.8
 21
62.114098
  0
LINE
  8
0
  6
CONTINUOUS
 62
     7
 10
180.8
 20
135.05193
 11
180.8
 21
130.82205
  0
LINE
  8
0
  6
CONTINUOUS
 62
     7
 10
235.8
 20
125.65
 11
240.32787
 21
125.65
  0
LINE
  8
0
  6
CONTINUOUS
 62
     7
 10
175.8
 20
58.649994
 11
235.8
 21
58.649994
  0
LINE
  8
0
  6
CONTINUOUS
 62
     7
 10
175.8
 20
49.649994
 11
235.8
 21
49.649994
  0
LINE
  8
0
  6
CONTINUOUS
 62
     7
 10
179.3
 20
137.64999
 11
232.3
 21
137.64999
  0
LINE
  8
0
  6
CONTINUOUS
 62
     7
 10
179.3
 20
145.64999
 11
232.3
 21
145.64999
  0
LINE
  8
0
  6
CONTINUOUS
 62
     7
 10
244.8
 20
127.64999
 11
244.8
 21
67.650002
  0
LINE
  8
0
  6
CONTINUOUS
 62
     7
 10
253.8
 20
127.64999
 11
253.8
 21
67.650002
  0
ARC
  8
0
  6
CONTINUOUS
 62
     7
 10
-248.95436
 20
142.26849
 40
3
 50
359.99999
 51
59.999988
  0
ARC
  8
0
  6
CONTINUOUS
 62
     7
 10
-215.95436
 20
142.26849
 40
3
 50
120
 51
179.99999
  0
ARC
  8
0
  6
CONTINUOUS
 62
     7
 10
-212.95436
 20
97.464668
 40
3
 50
180.00001
 51
240
  0
ARC
  8
0
  6
CONTINUOUS
 62
     7
 10
-251.95436
 20
97.464668
 40
3
 50
300.00001
 51
6.8301892E-006
  0
ARC
  8
0
  6
CONTINUOUS
 62
     7
 10
-209.05243
 20
140.36658
 40
3
 50
270
 51
329.99999
  0
ARC
  8
0
  6
CONTINUOUS
 62
     7
 10
-209.05243
 20
101.36658
 40
3
 50
30.000001
 51
90.000003
  0
ARC
  8
0
  6
CONTINUOUS
 62
     7
 10
-215.45435
 20
140.86658
 40
3.5
 50
179.99998
 51
270.00003
  0
ARC
  8
0
  6
CONTINUOUS
 62
     7
 10
-211.95435
 20
100.36658
 40
4
 50
89.999982
 51
179.99996
  0
ARC
  8
0
  6
CONTINUOUS
 62
     7
 10
-436.95432
 20
140.86658
 40
191
 50
350.79846
 51
360
  0
ARC
  8
0
  6
CONTINUOUS
 62
     7
 10
-215.95435
 20
104.36658
 40
33
 50
169.59912
 51
179.99996
  0
ARC
  8
0
  6
CONTINUOUS
 62
     7
 10
-164.62134
 20
142.37115
 40
3
 50
359.99999
 51
59.999988
  0
ARC
  8
0
  6
CONTINUOUS
 62
     7
 10
-125.62135
 20
142.37115
 40
3
 50
120
 51
179.99999
  0
ARC
  8
0
  6
CONTINUOUS
 62
     7
 10
-121.62135
 20
87.567314
 40
3
 50
180.00001
 51
240
  0
ARC
  8
0
  6
CONTINUOUS
 62
     7
 10
-168.62134
 20
87.567314
 40
3
 50
300.00001
 51
6.8301892E-006
  0
ARC
  8
0
  6
CONTINUOUS
 62
     7
 10
-116.71943
 20
139.46924
 40
3
 50
270
 51
329.99999
  0
ARC
  8
0
  6
CONTINUOUS
 62
     7
 10
-116.71943
 20
92.469231
 40
3
 50
30.000001
 51
90.000003
  0
ARC
  8
0
  6
CONTINUOUS
 62
     7
 10
-125.12132
 20
139.96924
 40
3.5
 50
179.99998
 51
270.00003
  0
ARC
  8
0
  6
CONTINUOUS
 62
     7
 10
-121.12132
 20
91.969231
 40
3.5
 50
89.999982
 51
179.99996
  0
ARC
  8
0
  6
CONTINUOUS
 62
     7
 10
-406.62134
 20
139.96924
 40
245
 50
352.42989
 51
360
  0
ARC
  8
0
  6
CONTINUOUS
 62
     7
 10
-124.62132
 20
95.469231
 40
41
 50
162.65387
 51
179.99996
  0
ARC
  8
0
  6
CONTINUOUS
 62
     7
 10
31.799999
 20
139.35191
 40
3
 50
360
 51
59.999988
  0
ARC
  8
0
  6
CONTINUOUS
 62
     7
 10
78.800003
 20
139.35191
 40
3
 50
120
 51
180.00001
  0
ARC
  8
0
  6
CONTINUOUS
 62
     7
 10
87.300003
 20
68.414108
 40
4
 50
180.00001
 51
240
  0
ARC
  8
0
  6
CONTINUOUS
 62
     7
 10
23.299999
 20
68.414108
 40
4
 50
300.00003
 51
1.7986091E-005
  0
ARC
  8
0
  6
CONTINUOUS
 62
     7
 10
90.835892
 20
135.95
 40
4
 50
270.00001
 51
330
  0
ARC
  8
0
  6
CONTINUOUS
 62
     7
 10
90.835892
 20
71.949997
 40
4
 50
30.000004
 51
90.000009
  0
ARC
  8
0
  6
CONTINUOUS
 62
     7
 10
80.800003
 20
136.95003
 40
5
 50
179.99998
 51
269.99997
  0
ARC
  8
0
  6
CONTINUOUS
 62
     7
 10
89.299942
 20
69.950027
 40
6
 50
90.000003
 51
179.99998
  0
ARC
  8
0
  6
CONTINUOUS
 62
     7
 10
-161.01466
 20
136.95003
 40
195.81468
 50
345.9811
 51
1.7986091E-005
  0
ARC
  8
0
  6
CONTINUOUS
 62
     7
 10
83.299942
 20
75.950027
 40
56
 50
165.98112
 51
179.99998
  0
ARC
  8
0
  6
CONTINUOUS
 62
     7
 10
-76.527107
 20
73.155022
 40
3
 50
300
 51
0
  0
ARC
  8
0
  6
CONTINUOUS
 62
     7
 10
-20.527111
 20
73.155022
 40
3
 50
179.99999
 51
240.00001
  0
ARC
  8
0
  6
CONTINUOUS
 62
     7
 10
-72.027107
 20
140.95886
 40
3
 50
0
 51
60.000002
  0
ARC
  8
0
  6
CONTINUOUS
 62
     7
 10
-25.027111
 20
140.95886
 40
3
 50
120
 51
180.00001
  0
ARC
  8
0
  6
CONTINUOUS
 62
     7
 10
-13.125187
 20
80.556946
 40
3
 50
30.000001
 51
90.000003
  0
ARC
  8
0
  6
CONTINUOUS
 62
     7
 10
-13.125187
 20
136.55695
 40
3
 50
270
 51
330
  0
ARC
  8
0
  6
CONTINUOUS
 62
     7
 10
-24.027111
 20
137.55695
 40
4
 50
179.99999
 51
270
  0
ARC
  8
0
  6
CONTINUOUS
 62
     7
 10
-345.2771
 20
137.55695
 40
276.25
 50
350.47272
 51
360
  0
ARC
  8
0
  6
CONTINUOUS
 62
     7
 10
-23.527111
 20
83.556946
 40
50
 50
170.47271
 51
180.00001
  0
ARC
  8
0
  6
CONTINUOUS
 62
     7
 10
-19.527111
 20
79.556946
 40
4
 50
90.000003
 51
180.00001
  0
ARC
  8
0
  6
CONTINUOUS
 62
     7
 10
-192.58334
 20
-74.658119
 40
4
 50
179.99999
 51
240.00001
  0
ARC
  8
0
  6
CONTINUOUS
 62
     7
 10
-269.58334
 20
-74.658119
 40
4
 50
300
 51
0
  0
ARC
  8
0
  6
CONTINUOUS
 62
     7
 10
-188.54744
 20
6.3777776
 40
4
 50
270
 51
330
  0
ARC
  8
0
  6
CONTINUOUS
 62
     7
 10
-188.54744
 20
-70.622223
 40
4
 50
30.000001
 51
90.000003
  0
ARC
  8
0
  6
CONTINUOUS
 62
     7
 10
-189.58334
 20
-73.622223
 40
7
 50
90.000003
 51
180.00001
  0
ARC
  8
0
  6
CONTINUOUS
 62
     7
 10
-250.58333
 20
8.2797022
 40
3
 50
0
 51
60.000002
  0
ARC
  8
0
  6
CONTINUOUS
 62
     7
 10
-211.58333
 20
8.2797022
 40
3
 50
120
 51
180.00001
  0
ARC
  8
0
  6
CONTINUOUS
 62
     7
 10
-210.58333
 20
6.3777776
 40
4
 50
179.99999
 51
270
  0
ARC
  8
0
  6
CONTINUOUS
 62
     7
 10
-196.58334
 20
-66.622223
 40
69
 50
152.29465
 51
179.99185
  0
ARC
  8
0
  6
CONTINUOUS
 62
     7
 10
-335.58334
 20
6.3709416
 40
88
 50
332.29466
 51
360
  0
ARC
  8
0
  6
CONTINUOUS
 62
     7
 10
-60.317806
 20
-83.634422
 40
4
 50
180.00001
 51
240
  0
ARC
  8
0
  6
CONTINUOUS
 62
     7
 10
-137.31781
 20
-83.634422
 40
4
 50
300.00003
 51
1.7986089E-005
  0
ARC
  8
0
  6
CONTINUOUS
 62
     7
 10
-56.281918
 20
-2.5985365
 40
4
 50
270.00001
 51
330
  0
ARC
  8
0
  6
CONTINUOUS
 62
     7
 10
-56.281918
 20
-79.598534
 40
4
 50
30.000004
 51
90.000009
  0
ARC
  8
0
  6
CONTINUOUS
 62
     7
 10
-122.3178
 20
0.30337992
 40
3
 50
360
 51
59.999988
  0
ARC
  8
0
  6
CONTINUOUS
 62
     7
 10
-75.317802
 20
0.30337992
 40
3
 50
120
 51
180.00001
  0
ARC
  8
0
  6
CONTINUOUS
 62
     7
 10
-73.317802
 20
-1.5985061
 40
5
 50
179.99998
 51
269.99997
  0
ARC
  8
0
  6
CONTINUOUS
 62
     7
 10
-57.317852
 20
-82.598503
 40
7
 50
90.000003
 51
179.99998
  0
ARC
  8
0
  6
CONTINUOUS
 62
     7
 10
-252.78882
 20
-1.5985061
 40
133.5
 50
339.17161
 51
358.80588
  0
ARC
  8
0
  6
CONTINUOUS
 62
     7
 10
-64.317848
 20
-75.598534
 40
69
 50
157.38642
 51
179.99998
  0
ARC
  8
0
  6
CONTINUOUS
 62
     7
 10
0.61680585
 20
-2.3849728
 40
3
 50
0
 51
59.999988
  0
ARC
  8
0
  6
CONTINUOUS
 62
     7
 10
56.616806
 20
-2.3849728
 40
3
 50
120
 51
179.99999
  0
ARC
  8
0
  6
CONTINUOUS
 62
     7
 10
71.15271
 20
-7.2868896
 40
4
 50
270
 51
329.99999
  0
ARC
  8
0
  6
CONTINUOUS
 62
     7
 10
71.15271
 20
-84.286888
 40
4
 50
30.000001
 51
90.000003
  0
ARC
  8
0
  6
CONTINUOUS
 62
     7
 10
67.116806
 20
-88.322777
 40
4
 50
180.00001
 51
240
  0
ARC
  8
0
  6
CONTINUOUS
 62
     7
 10
-9.883194
 20
-88.322777
 40
4
 50
300.00001
 51
6.8301892E-006
  0
ARC
  8
0
  6
CONTINUOUS
 62
     7
 10
58.616806
 20
-6.2868896
 40
5
 50
179.99998
 51
270.00003
  0
ARC
  8
0
  6
CONTINUOUS
 62
     7
 10
68.116837
 20
-85.286888
 40
5
 50
89.999982
 51
179.99996
  0
ARC
  8
0
  6
CONTINUOUS
 62
     7
 10
-255.60744
 20
-6.2868743
 40
259.22427
 50
346.28588
 51
360
  0
ARC
  8
0
  6
CONTINUOUS
 62
     7
 10
68.116821
 20
-85.286888
 40
74
 50
166.2859
 51
179.99996
  0
ARC
  8
0
  6
CONTINUOUS
 62
     7
 10
219.28905
 20
-91.471268
 40
4
 50
180.00001
 51
240
  0
ARC
  8
0
  6
CONTINUOUS
 62
     7
 10
142.28905
 20
-91.471268
 40
4
 50
300.00003
 51
1.7986089E-005
  0
ARC
  8
0
  6
CONTINUOUS
 62
     7
 10
223.32494
 20
-10.43538
 40
4
 50
270.00001
 51
330
  0
ARC
  8
0
  6
CONTINUOUS
 62
     7
 10
223.32494
 20
-87.435379
 40
4
 50
30.000004
 51
90.000009
  0
ARC
  8
0
  6
CONTINUOUS
 62
     7
 10
148.78905
 20
-6.3994761
 40
4
 50
360
 51
59.999988
  0
ARC
  8
0
  6
CONTINUOUS
 62
     7
 10
212.78905
 20
-6.3994761
 40
4
 50
120
 51
180.00001
  0
ARC
  8
0
  6
CONTINUOUS
 62
     7
 10
213.78905
 20
-9.4353647
 40
5
 50
179.99998
 51
269.99997
  0
ARC
  8
0
  6
CONTINUOUS
 62
     7
 10
222.28896
 20
-90.435349
 40
7
 50
90.000003
 51
179.99998
  0
ARC
  8
0
  6
CONTINUOUS
 62
     7
 10
-202.68568
 20
-9.4353647
 40
355.4747
 50
349.96013
 51
1.7986089E-005
  0
ARC
  8
0
  6
CONTINUOUS
 62
     7
 10
215.28896
 20
-83.435349
 40
69
 50
169.96015
 51
179.99998
  0
ARC
  8
0
  6
CONTINUOUS
 62
     7
 10
370.75467
 20
24.297697
 40
6
 50
305.68534
 51
0
  0
ARC
  8
0
  6
CONTINUOUS
 62
     7
 10
468.75467
 20
24.297697
 40
6
 50
179.99999
 51
234.31467
  0
ARC
  8
0
  6
CONTINUOUS
 62
     7
 10
471.88129
 20
125.4243
 40
6
 50
270
 51
324.31467
  0
ARC
  8
0
  6
CONTINUOUS
 62
     7
 10
471.88129
 20
27.424299
 40
6
 50
35.685334
 51
90.000003
  0
ARC
  8
0
  6
CONTINUOUS
 62
     7
 10
470.25467
 20
25.924299
 40
7.5
 50
90.000003
 51
180.00001
  0
ARC
  8
0
  6
CONTINUOUS
 62
     7
 10
458.25467
 20
126.9602
 40
4
 50
120
 51
180.00001
  0
ARC
  8
0
  6
CONTINUOUS
 62
     7
 10
381.25467
 20
126.9602
 40
4
 50
0
 51
60.000002
  0
ARC
  8
0
  6
CONTINUOUS
 62
     7
 10
-30.745335
 20
125.41207
 40
416
 50
349.44131
 51
360
  0
ARC
  8
0
  6
CONTINUOUS
 62
     7
 10
462.75467
 20
33.424297
 40
86
 50
169.44131
 51
180.00001
  0
ARC
  8
0
  6
CONTINUOUS
 62
     7
 10
460.25467
 20
125.42429
 40
6
 50
179.99999
 51
270
  0
ARC
  8
0
  6
CONTINUOUS
 62
     7
 10
239.8
 20
63.122131
 40
6
 50
180.00001
 51
228.18968
  0
ARC
  8
0
  6
CONTINUOUS
 62
     7
 10
240.32787
 20
63.649998
 40
6
 50
41.810317
 51
90.000003
  0
ARC
  8
0
  6
CONTINUOUS
 62
     7
 10
240.32787
 20
131.64999
 40
6
 50
270
 51
318.18968
  0
ARC
  8
0
  6
CONTINUOUS
 62
     7
 10
233.8
 20
135.05193
 40
3
 50
120
 51
180.00001
  0
ARC
  8
0
  6
CONTINUOUS
 62
     7
 10
177.8
 20
135.05193
 40
3
 50
0
 51
60.000002
  0
ARC
  8
0
  6
CONTINUOUS
 62
     7
 10
173.8
 20
62.114098
 40
4
 50
300
 51
0
  0
ARC
  8
0
  6
CONTINUOUS
 62
     7
 10
238.8
 20
64.650002
 40
5
 50
90.000003
 51
180.00001
  0
ARC
  8
0
  6
CONTINUOUS
 62
     7
 10
-388.37
 20
130.82205
 40
569.16998
 50
354.3847
 51
360
  0
ARC
  8
0
  6
CONTINUOUS
 62
     7
 10
233.8
 20
69.650002
 40
56
 50
174.3847
 51
180.00001
  0
ARC
  8
0
  6
CONTINUOUS
 62
     7
 10
235.8
 20
130.65001
 40
5
 50
179.99999
 51
270
  0
TEXT
  8
0
  6
CONTINUOUS
 62
     7
 10
231.65195
 20
222.90187
 40
15
 41
0.84289037
  1
径違いチーズ（通しの一方のみ小）
  0
TEXT
  8
0
  6
CONTINUOUS
 62
     7
 10
-250.80459
 20
164.56709
 40
5
 41
1.0044643
  1
3/4X1/2X3/4
  0
TEXT
  8
0
  6
CONTINUOUS
 62
     7
 10
-151.4398
 20
162.0498
 40
5
 41
1.0071429
  1
1X3/4X1
  0
TEXT
  8
0
  6
CONTINUOUS
 62
     7
 10
-69.117388
 20
162.00467
 40
5
 41
1.0044643
  1
11/4X1X11/4
  0
TEXT
  8
0
  6
CONTINUOUS
 62
     7
 10
43.238897
 20
163.32922
 40
5
 41
1.0044643
  1
11/2X1X11/2
  0
TEXT
  8
0
  6
CONTINUOUS
 62
     7
 10
-231.15182
 20
34.367805
 40
5
 41
1.0071429
  1
2X3/4X2
  0
TEXT
  8
0
  6
CONTINUOUS
 62
     7
 10
-95.164011
 20
25.906342
 40
5
 41
1.0102042
  1
2X1X2
  0
TEXT
  8
0
  6
CONTINUOUS
 62
     7
 10
23.015516
 20
21.919674
 40
5
 41
1.0062112
  1
2X11/4X2
  0
TEXT
  8
0
  6
CONTINUOUS
 62
     7
 10
172.12794
 20
19.909187
 40
5
 41
1.0062112
  1
2X11/2X2
  0
TEXT
  8
0
  6
CONTINUOUS
 62
     7
 10
413.89904
 20
156.14398
 40
5
 41
1.0044643
  1
21/2X2X21/2
  0
TEXT
  8
0
  6
CONTINUOUS
 62
     7
 10
181.3523
 20
163.04497
 40
5
 41
1.0034843
  1
11/2X11/4X11/2
  0
LINE
  8
0
  6
CONTINUOUS
 62
     7
 10
-232.00436
 20
125.36658
 11
-232.00436
 21
124.13399
  0
LINE
  8
0
  6
CONTINUOUS
 62
     7
 10
-232.90436
 20
125.36658
 11
-232.90436
 21
124.13399
  0
LINE
  8
0
  6
CONTINUOUS
 62
     7
 10
-232.90436
 20
117.59918
 11
-232.90436
 21
116.36658
  0
LINE
  8
0
  6
CONTINUOUS
 62
     7
 10
-232.00436
 20
117.59918
 11
-232.00436
 21
116.36658
  0
LINE
  8
0
  6
CONTINUOUS
 62
     7
 10
-232.90436
 20
123.23071
 11
-232.90436
 21
120.86658
  0
LINE
  8
0
  6
CONTINUOUS
 62
     7
 10
-232.00436
 20
123.23071
 11
-232.00436
 21
120.86658
  0
ARC
  8
0
  6
CONTINUOUS
 62
     7
 10
-230.65436
 20
120.86658
 40
1.8
 50
306.00832
 51
53.991676
  0
ARC
  8
0
  6
CONTINUOUS
 62
     7
 10
-230.65436
 20
120.86658
 40
2.7
 50
306.00832
 51
53.991676
  0
ARC
  8
0
  6
CONTINUOUS
 62
     7
 10
-234.25436
 20
120.86658
 40
1.8
 50
126.00833
 51
233.99168
  0
ARC
  8
0
  6
CONTINUOUS
 62
     7
 10
-234.25436
 20
120.86658
 40
2.7
 50
126.00833
 51
233.99168
  0
ARC
  8
0
  6
CONTINUOUS
 62
     7
 10
-232.45436
 20
118.38985
 40
5.7617307
 50
53.991676
 51
85.520553
  0
ARC
  8
0
  6
CONTINUOUS
 62
     7
 10
-232.45436
 20
118.38985
 40
4.8617306
 50
53.991676
 51
84.689121
  0
ARC
  8
0
  6
CONTINUOUS
 62
     7
 10
-232.45436
 20
123.34332
 40
4.8617306
 50
233.99167
 51
306.00832
  0
ARC
  8
0
  6
CONTINUOUS
 62
     7
 10
-232.45436
 20
123.34332
 40
5.7617307
 50
233.99167
 51
265.52055
  0
ARC
  8
0
  6
CONTINUOUS
 62
     7
 10
-232.45436
 20
125.02908
 40
0.5625
 50
36.869897
 51
143.1301
  0
ARC
  8
0
  6
CONTINUOUS
 62
     7
 10
-232.45436
 20
121.20408
 40
0.5625
 50
216.8699
 51
323.1301
  0
ARC
  8
0
  6
CONTINUOUS
 62
     7
 10
-232.45436
 20
116.70408
 40
0.5625
 50
216.8699
 51
323.1301
  0
ARC
  8
0
  6
CONTINUOUS
 62
     7
 10
-232.45436
 20
118.38985
 40
5.7617307
 50
94.479452
 51
126.00833
  0
ARC
  8
0
  6
CONTINUOUS
 62
     7
 10
-232.45436
 20
118.38985
 40
4.8617306
 50
95.310878
 51
126.00833
  0
ARC
  8
0
  6
CONTINUOUS
 62
     7
 10
-232.45436
 20
123.34332
 40
5.7617307
 50
274.47945
 51
306.00832
  0
LINE
  8
0
  6
CONTINUOUS
 62
     7
 10
-144.52134
 20
121.96923
 11
-144.52134
 21
120.32576
  0
LINE
  8
0
  6
CONTINUOUS
 62
     7
 10
-145.72134
 20
121.96923
 11
-145.72134
 21
120.32576
  0
LINE
  8
0
  6
CONTINUOUS
 62
     7
 10
-145.72134
 20
111.6127
 11
-145.72134
 21
109.96923
  0
LINE
  8
0
  6
CONTINUOUS
 62
     7
 10
-144.52134
 20
111.6127
 11
-144.52134
 21
109.96923
  0
LINE
  8
0
  6
CONTINUOUS
 62
     7
 10
-145.72134
 20
119.1214
 11
-145.72134
 21
115.96923
  0
LINE
  8
0
  6
CONTINUOUS
 62
     7
 10
-144.52134
 20
119.1214
 11
-144.52134
 21
115.96923
  0
ARC
  8
0
  6
CONTINUOUS
 62
     7
 10
-142.72134
 20
115.96923
 40
2.4000001
 50
306.00832
 51
53.991676
  0
ARC
  8
0
  6
CONTINUOUS
 62
     7
 10
-142.72134
 20
115.96923
 40
3.5999999
 50
306.00832
 51
53.991676
  0
ARC
  8
0
  6
CONTINUOUS
 62
     7
 10
-147.52134
 20
115.96923
 40
2.4000001
 50
126.00833
 51
233.99168
  0
ARC
  8
0
  6
CONTINUOUS
 62
     7
 10
-147.52134
 20
115.96923
 40
3.5999999
 50
126.00833
 51
233.99168
  0
ARC
  8
0
  6
CONTINUOUS
 62
     7
 10
-145.12134
 20
112.66692
 40
7.6823077
 50
53.991676
 51
85.520553
  0
ARC
  8
0
  6
CONTINUOUS
 62
     7
 10
-145.12134
 20
112.66692
 40
6.4823079
 50
53.991676
 51
84.689121
  0
ARC
  8
0
  6
CONTINUOUS
 62
     7
 10
-145.12134
 20
119.27154
 40
6.4823079
 50
233.99167
 51
306.00832
  0
ARC
  8
0
  6
CONTINUOUS
 62
     7
 10
-145.12134
 20
119.27154
 40
7.6823077
 50
233.99167
 51
265.52055
  0
ARC
  8
0
  6
CONTINUOUS
 62
     7
 10
-145.12134
 20
121.51923
 40
0.75
 50
36.869897
 51
143.1301
  0
ARC
  8
0
  6
CONTINUOUS
 62
     7
 10
-145.12134
 20
116.41923
 40
0.75
 50
216.8699
 51
323.1301
  0
ARC
  8
0
  6
CONTINUOUS
 62
     7
 10
-145.12134
 20
110.41923
 40
0.75
 50
216.8699
 51
323.1301
  0
ARC
  8
0
  6
CONTINUOUS
 62
     7
 10
-145.12134
 20
112.66692
 40
6.4823079
 50
95.310878
 51
126.00833
  0
ARC
  8
0
  6
CONTINUOUS
 62
     7
 10
-145.12134
 20
112.66692
 40
7.6823077
 50
94.479452
 51
126.00833
  0
ARC
  8
0
  6
CONTINUOUS
 62
     7
 10
-145.12134
 20
119.27154
 40
7.6823077
 50
274.47945
 51
306.00832
  0
LINE
  8
0
  6
CONTINUOUS
 62
     7
 10
-47.927111
 20
114.55695
 11
-47.927111
 21
112.91348
  0
LINE
  8
0
  6
CONTINUOUS
 62
     7
 10
-49.127111
 20
114.55695
 11
-49.127111
 21
112.91348
  0
LINE
  8
0
  6
CONTINUOUS
 62
     7
 10
-49.127111
 20
104.20041
 11
-49.127111
 21
102.55695
  0
LINE
  8
0
  6
CONTINUOUS
 62
     7
 10
-47.927111
 20
104.20041
 11
-47.927111
 21
102.55695
  0
LINE
  8
0
  6
CONTINUOUS
 62
     7
 10
-49.127111
 20
111.70912
 11
-49.127111
 21
108.55695
  0
LINE
  8
0
  6
CONTINUOUS
 62
     7
 10
-47.927111
 20
111.70912
 11
-47.927111
 21
108.55695
  0
ARC
  8
0
  6
CONTINUOUS
 62
     7
 10
-46.127111
 20
108.55695
 40
2.4000001
 50
306.00832
 51
53.991676
  0
ARC
  8
0
  6
CONTINUOUS
 62
     7
 10
-46.127111
 20
108.55695
 40
3.5999999
 50
306.00832
 51
53.991676
  0
ARC
  8
0
  6
CONTINUOUS
 62
     7
 10
-50.927111
 20
108.55695
 40
2.4000001
 50
126.00833
 51
233.99168
  0
ARC
  8
0
  6
CONTINUOUS
 62
     7
 10
-50.927111
 20
108.55695
 40
3.5999999
 50
126.00833
 51
233.99168
  0
ARC
  8
0
  6
CONTINUOUS
 62
     7
 10
-48.527111
 20
105.25464
 40
7.6823077
 50
53.991676
 51
85.520553
  0
ARC
  8
0
  6
CONTINUOUS
 62
     7
 10
-48.527111
 20
105.25464
 40
6.4823079
 50
53.991676
 51
84.689121
  0
ARC
  8
0
  6
CONTINUOUS
 62
     7
 10
-48.527111
 20
111.85925
 40
6.4823079
 50
233.99167
 51
306.00832
  0
ARC
  8
0
  6
CONTINUOUS
 62
     7
 10
-48.527111
 20
111.85925
 40
7.6823077
 50
233.99167
 51
265.52055
  0
ARC
  8
0
  6
CONTINUOUS
 62
     7
 10
-48.527111
 20
114.10695
 40
0.75
 50
36.869897
 51
143.1301
  0
ARC
  8
0
  6
CONTINUOUS
 62
     7
 10
-48.527111
 20
109.00695
 40
0.75
 50
216.8699
 51
323.1301
  0
ARC
  8
0
  6
CONTINUOUS
 62
     7
 10
-48.527111
 20
103.00695
 40
0.75
 50
216.8699
 51
323.1301
  0
ARC
  8
0
  6
CONTINUOUS
 62
     7
 10
-48.527111
 20
105.25464
 40
6.4823079
 50
95.310878
 51
126.00833
  0
ARC
  8
0
  6
CONTINUOUS
 62
     7
 10
-48.527111
 20
105.25464
 40
7.6823077
 50
94.479452
 51
126.00833
  0
ARC
  8
0
  6
CONTINUOUS
 62
     7
 10
-48.527111
 20
111.85925
 40
7.6823077
 50
274.47945
 51
306.00832
  0
LINE
  8
0
  6
CONTINUOUS
 62
     7
 10
55.899999
 20
109.95
 11
55.899999
 21
108.30653
  0
LINE
  8
0
  6
CONTINUOUS
 62
     7
 10
54.699999
 20
109.95
 11
54.699999
 21
108.30653
  0
LINE
  8
0
  6
CONTINUOUS
 62
     7
 10
54.699999
 20
99.593463
 11
54.699999
 21
97.949997
  0
LINE
  8
0
  6
CONTINUOUS
 62
     7
 10
55.899999
 20
99.593463
 11
55.899999
 21
97.949997
  0
LINE
  8
0
  6
CONTINUOUS
 62
     7
 10
54.699999
 20
107.10217
 11
54.699999
 21
103.95
  0
LINE
  8
0
  6
CONTINUOUS
 62
     7
 10
55.899999
 20
107.10217
 11
55.899999
 21
103.95
  0
ARC
  8
0
  6
CONTINUOUS
 62
     7
 10
57.699999
 20
103.95
 40
2.4000001
 50
306.00832
 51
53.991676
  0
ARC
  8
0
  6
CONTINUOUS
 62
     7
 10
57.699999
 20
103.95
 40
3.5999999
 50
306.00832
 51
53.991676
  0
ARC
  8
0
  6
CONTINUOUS
 62
     7
 10
52.899999
 20
103.95
 40
2.4000001
 50
126.00833
 51
233.99168
  0
ARC
  8
0
  6
CONTINUOUS
 62
     7
 10
52.899999
 20
103.95
 40
3.5999999
 50
126.00833
 51
233.99168
  0
ARC
  8
0
  6
CONTINUOUS
 62
     7
 10
55.299999
 20
100.64769
 40
7.6823077
 50
53.991676
 51
85.520553
  0
ARC
  8
0
  6
CONTINUOUS
 62
     7
 10
55.299999
 20
100.64769
 40
6.4823079
 50
53.991676
 51
84.689121
  0
ARC
  8
0
  6
CONTINUOUS
 62
     7
 10
55.299999
 20
107.2523
 40
6.4823079
 50
233.99167
 51
306.00832
  0
ARC
  8
0
  6
CONTINUOUS
 62
     7
 10
55.299999
 20
107.2523
 40
7.6823077
 50
233.99167
 51
265.52055
  0
ARC
  8
0
  6
CONTINUOUS
 62
     7
 10
55.299999
 20
109.5
 40
0.75
 50
36.869897
 51
143.1301
  0
ARC
  8
0
  6
CONTINUOUS
 62
     7
 10
55.299999
 20
104.4
 40
0.75
 50
216.8699
 51
323.1301
  0
ARC
  8
0
  6
CONTINUOUS
 62
     7
 10
55.299999
 20
98.399997
 40
0.75
 50
216.8699
 51
323.1301
  0
ARC
  8
0
  6
CONTINUOUS
 62
     7
 10
55.299999
 20
100.64769
 40
6.4823079
 50
95.310878
 51
126.00833
  0
ARC
  8
0
  6
CONTINUOUS
 62
     7
 10
55.299999
 20
100.64769
 40
7.6823077
 50
94.479452
 51
126.00833
  0
ARC
  8
0
  6
CONTINUOUS
 62
     7
 10
55.299999
 20
107.2523
 40
7.6823077
 50
274.47945
 51
306.00832
  0
LINE
  8
0
  6
CONTINUOUS
 62
     7
 10
206.4
 20
103.65
 11
206.4
 21
102.00654
  0
LINE
  8
0
  6
CONTINUOUS
 62
     7
 10
205.2
 20
103.65
 11
205.2
 21
102.00654
  0
LINE
  8
0
  6
CONTINUOUS
 62
     7
 10
205.2
 20
93.293468
 11
205.2
 21
91.650002
  0
LINE
  8
0
  6
CONTINUOUS
 62
     7
 10
206.4
 20
93.293468
 11
206.4
 21
91.650002
  0
LINE
  8
0
  6
CONTINUOUS
 62
     7
 10
205.2
 20
100.80217
 11
205.2
 21
97.650002
  0
LINE
  8
0
  6
CONTINUOUS
 62
     7
 10
206.4
 20
100.80217
 11
206.4
 21
97.650002
  0
ARC
  8
0
  6
CONTINUOUS
 62
     7
 10
208.2
 20
97.650002
 40
2.4000001
 50
306.00832
 51
53.991676
  0
ARC
  8
0
  6
CONTINUOUS
 62
     7
 10
208.2
 20
97.650002
 40
3.5999999
 50
306.00832
 51
53.991676
  0
ARC
  8
0
  6
CONTINUOUS
 62
     7
 10
203.4
 20
97.650002
 40
2.4000001
 50
126.00833
 51
233.99168
  0
ARC
  8
0
  6
CONTINUOUS
 62
     7
 10
203.4
 20
97.650002
 40
3.5999999
 50
126.00833
 51
233.99168
  0
ARC
  8
0
  6
CONTINUOUS
 62
     7
 10
205.8
 20
94.347694
 40
7.6823077
 50
53.991676
 51
85.520553
  0
ARC
  8
0
  6
CONTINUOUS
 62
     7
 10
205.8
 20
94.347694
 40
6.4823079
 50
53.991676
 51
84.689121
  0
ARC
  8
0
  6
CONTINUOUS
 62
     7
 10
205.8
 20
100.95231
 40
6.4823079
 50
233.99167
 51
306.00832
  0
ARC
  8
0
  6
CONTINUOUS
 62
     7
 10
205.8
 20
100.95231
 40
7.6823077
 50
233.99167
 51
265.52055
  0
ARC
  8
0
  6
CONTINUOUS
 62
     7
 10
205.8
 20
103.2
 40
0.75
 50
36.869897
 51
143.1301
  0
ARC
  8
0
  6
CONTINUOUS
 62
     7
 10
205.8
 20
98.100002
 40
0.75
 50
216.8699
 51
323.1301
  0
ARC
  8
0
  6
CONTINUOUS
 62
     7
 10
205.8
 20
92.100001
 40
0.75
 50
216.8699
 51
323.1301
  0
ARC
  8
0
  6
CONTINUOUS
 62
     7
 10
205.8
 20
94.347694
 40
6.4823079
 50
95.310878
 51
126.00833
  0
ARC
  8
0
  6
CONTINUOUS
 62
     7
 10
205.8
 20
94.347694
 40
7.6823077
 50
94.479452
 51
126.00833
  0
ARC
  8
0
  6
CONTINUOUS
 62
     7
 10
205.8
 20
100.95231
 40
7.6823077
 50
274.47945
 51
306.00832
  0
LINE
  8
0
  6
CONTINUOUS
 62
     7
 10
-230.33333
 20
-24.622223
 11
-230.33333
 21
-26.676556
  0
LINE
  8
0
  6
CONTINUOUS
 62
     7
 10
-231.83333
 20
-24.622223
 11
-231.83333
 21
-26.676556
  0
LINE
  8
0
  6
CONTINUOUS
 62
     7
 10
-231.83333
 20
-37.56789
 11
-231.83333
 21
-39.622223
  0
LINE
  8
0
  6
CONTINUOUS
 62
     7
 10
-230.33333
 20
-37.56789
 11
-230.33333
 21
-39.622223
  0
LINE
  8
0
  6
CONTINUOUS
 62
     7
 10
-231.83333
 20
-28.182007
 11
-231.83333
 21
-32.122223
  0
LINE
  8
0
  6
CONTINUOUS
 62
     7
 10
-230.33333
 20
-28.182007
 11
-230.33333
 21
-32.122223
  0
ARC
  8
0
  6
CONTINUOUS
 62
     7
 10
-228.08333
 20
-32.122223
 40
3
 50
306.00832
 51
53.991676
  0
ARC
  8
0
  6
CONTINUOUS
 62
     7
 10
-228.08333
 20
-32.122223
 40
4.5
 50
306.00832
 51
53.991676
  0
ARC
  8
0
  6
CONTINUOUS
 62
     7
 10
-234.08333
 20
-32.122223
 40
3
 50
126.00833
 51
233.99168
  0
ARC
  8
0
  6
CONTINUOUS
 62
     7
 10
-234.08333
 20
-32.122223
 40
4.5
 50
126.00833
 51
233.99168
  0
ARC
  8
0
  6
CONTINUOUS
 62
     7
 10
-231.08333
 20
-36.250107
 40
9.6028843
 50
53.991676
 51
85.520553
  0
ARC
  8
0
  6
CONTINUOUS
 62
     7
 10
-231.08333
 20
-36.250107
 40
8.1028843
 50
53.991676
 51
84.689121
  0
ARC
  8
0
  6
CONTINUOUS
 62
     7
 10
-231.08333
 20
-27.994339
 40
8.1028843
 50
233.99167
 51
306.00832
  0
ARC
  8
0
  6
CONTINUOUS
 62
     7
 10
-231.08333
 20
-27.994339
 40
9.6028843
 50
233.99167
 51
265.52055
  0
ARC
  8
0
  6
CONTINUOUS
 62
     7
 10
-231.08333
 20
-25.184723
 40
0.9375
 50
36.869897
 51
143.1301
  0
ARC
  8
0
  6
CONTINUOUS
 62
     7
 10
-231.08333
 20
-31.559723
 40
0.9375
 50
216.8699
 51
323.1301
  0
ARC
  8
0
  6
CONTINUOUS
 62
     7
 10
-231.08333
 20
-39.059723
 40
0.9375
 50
216.8699
 51
323.1301
  0
ARC
  8
0
  6
CONTINUOUS
 62
     7
 10
-231.08333
 20
-36.250107
 40
9.6028843
 50
94.479452
 51
126.00833
  0
ARC
  8
0
  6
CONTINUOUS
 62
     7
 10
-231.08333
 20
-36.250107
 40
8.1028843
 50
95.310878
 51
126.00833
  0
ARC
  8
0
  6
CONTINUOUS
 62
     7
 10
-231.08333
 20
-27.994339
 40
9.6028843
 50
274.47945
 51
306.00832
  0
LINE
  8
0
  6
CONTINUOUS
 62
     7
 10
-98.067802
 20
-33.598537
 11
-98.067802
 21
-35.65287
  0
LINE
  8
0
  6
CONTINUOUS
 62
     7
 10
-99.567802
 20
-33.598537
 11
-99.567802
 21
-35.65287
  0
LINE
  8
0
  6
CONTINUOUS
 62
     7
 10
-99.567802
 20
-46.544205
 11
-99.567802
 21
-48.598537
  0
LINE
  8
0
  6
CONTINUOUS
 62
     7
 10
-98.067802
 20
-46.544205
 11
-98.067802
 21
-48.598537
  0
LINE
  8
0
  6
CONTINUOUS
 62
     7
 10
-99.567802
 20
-37.158322
 11
-99.567802
 21
-41.098537
  0
LINE
  8
0
  6
CONTINUOUS
 62
     7
 10
-98.067802
 20
-37.158322
 11
-98.067802
 21
-41.098537
  0
ARC
  8
0
  6
CONTINUOUS
 62
     7
 10
-95.817802
 20
-41.098537
 40
3
 50
306.00832
 51
53.991676
  0
ARC
  8
0
  6
CONTINUOUS
 62
     7
 10
-95.817802
 20
-41.098537
 40
4.5
 50
306.00832
 51
53.991676
  0
ARC
  8
0
  6
CONTINUOUS
 62
     7
 10
-101.8178
 20
-41.098537
 40
3
 50
126.00833
 51
233.99168
  0
ARC
  8
0
  6
CONTINUOUS
 62
     7
 10
-101.8178
 20
-41.098537
 40
4.5
 50
126.00833
 51
233.99168
  0
ARC
  8
0
  6
CONTINUOUS
 62
     7
 10
-98.817802
 20
-45.226422
 40
9.6028843
 50
53.991676
 51
85.520553
  0
ARC
  8
0
  6
CONTINUOUS
 62
     7
 10
-98.817802
 20
-45.226422
 40
8.1028843
 50
53.991676
 51
84.689121
  0
ARC
  8
0
  6
CONTINUOUS
 62
     7
 10
-98.817802
 20
-36.970653
 40
8.1028843
 50
233.99167
 51
306.00832
  0
ARC
  8
0
  6
CONTINUOUS
 62
     7
 10
-98.817802
 20
-36.970653
 40
9.6028843
 50
233.99167
 51
265.52055
  0
ARC
  8
0
  6
CONTINUOUS
 62
     7
 10
-98.817802
 20
-34.161037
 40
0.9375
 50
36.869897
 51
143.1301
  0
ARC
  8
0
  6
CONTINUOUS
 62
     7
 10
-98.817802
 20
-40.536037
 40
0.9375
 50
216.8699
 51
323.1301
  0
ARC
  8
0
  6
CONTINUOUS
 62
     7
 10
-98.817802
 20
-48.036037
 40
0.9375
 50
216.8699
 51
323.1301
  0
ARC
  8
0
  6
CONTINUOUS
 62
     7
 10
-98.817802
 20
-45.226422
 40
9.6028843
 50
94.479452
 51
126.00833
  0
ARC
  8
0
  6
CONTINUOUS
 62
     7
 10
-98.817802
 20
-45.226422
 40
8.1028843
 50
95.310878
 51
126.00833
  0
ARC
  8
0
  6
CONTINUOUS
 62
     7
 10
-98.817802
 20
-36.970653
 40
9.6028843
 50
274.47945
 51
306.00832
  0
LINE
  8
0
  6
CONTINUOUS
 62
     7
 10
29.366806
 20
-38.286888
 11
29.366806
 21
-40.341221
  0
LINE
  8
0
  6
CONTINUOUS
 62
     7
 10
27.866806
 20
-38.286888
 11
27.866806
 21
-40.341221
  0
LINE
  8
0
  6
CONTINUOUS
 62
     7
 10
27.866806
 20
-51.232555
 11
27.866806
 21
-53.286888
  0
LINE
  8
0
  6
CONTINUOUS
 62
     7
 10
29.366806
 20
-51.232555
 11
29.366806
 21
-53.286888
  0
LINE
  8
0
  6
CONTINUOUS
 62
     7
 10
27.866806
 20
-41.846673
 11
27.866806
 21
-45.786888
  0
LINE
  8
0
  6
CONTINUOUS
 62
     7
 10
29.366806
 20
-41.846673
 11
29.366806
 21
-45.786888
  0
ARC
  8
0
  6
CONTINUOUS
 62
     7
 10
31.616806
 20
-45.786888
 40
3
 50
306.00832
 51
53.991676
  0
ARC
  8
0
  6
CONTINUOUS
 62
     7
 10
31.616806
 20
-45.786888
 40
4.5
 50
306.00832
 51
53.991676
  0
ARC
  8
0
  6
CONTINUOUS
 62
     7
 10
25.616806
 20
-45.786888
 40
3
 50
126.00833
 51
233.99168
  0
ARC
  8
0
  6
CONTINUOUS
 62
     7
 10
25.616806
 20
-45.786888
 40
4.5
 50
126.00833
 51
233.99168
  0
ARC
  8
0
  6
CONTINUOUS
 62
     7
 10
28.616806
 20
-49.914773
 40
9.6028843
 50
53.991676
 51
85.520553
  0
ARC
  8
0
  6
CONTINUOUS
 62
     7
 10
28.616806
 20
-49.914773
 40
8.1028843
 50
53.991676
 51
84.689121
  0
ARC
  8
0
  6
CONTINUOUS
 62
     7
 10
28.616806
 20
-41.659004
 40
8.1028843
 50
233.99167
 51
306.00832
  0
ARC
  8
0
  6
CONTINUOUS
 62
     7
 10
28.616806
 20
-41.659004
 40
9.6028843
 50
233.99167
 51
265.52055
  0
ARC
  8
0
  6
CONTINUOUS
 62
     7
 10
28.616806
 20
-38.849388
 40
0.9375
 50
36.869897
 51
143.1301
  0
ARC
  8
0
  6
CONTINUOUS
 62
     7
 10
28.616806
 20
-45.224388
 40
0.9375
 50
216.8699
 51
323.1301
  0
ARC
  8
0
  6
CONTINUOUS
 62
     7
 10
28.616806
 20
-52.724388
 40
0.9375
 50
216.8699
 51
323.1301
  0
ARC
  8
0
  6
CONTINUOUS
 62
     7
 10
28.616806
 20
-49.914773
 40
9.6028843
 50
94.479452
 51
126.00833
  0
ARC
  8
0
  6
CONTINUOUS
 62
     7
 10
28.616806
 20
-49.914773
 40
8.1028843
 50
95.310878
 51
126.00833
  0
ARC
  8
0
  6
CONTINUOUS
 62
     7
 10
28.616806
 20
-41.659004
 40
9.6028843
 50
274.47945
 51
306.00832
  0
LINE
  8
0
  6
CONTINUOUS
 62
     7
 10
181.53905
 20
-41.435379
 11
181.53905
 21
-43.489712
  0
LINE
  8
0
  6
CONTINUOUS
 62
     7
 10
180.03905
 20
-41.435379
 11
180.03905
 21
-43.489712
  0
LINE
  8
0
  6
CONTINUOUS
 62
     7
 10
180.03905
 20
-54.381046
 11
180.03905
 21
-56.435379
  0
LINE
  8
0
  6
CONTINUOUS
 62
     7
 10
181.53905
 20
-54.381046
 11
181.53905
 21
-56.435379
  0
LINE
  8
0
  6
CONTINUOUS
 62
     7
 10
180.03905
 20
-44.995163
 11
180.03905
 21
-48.935379
  0
LINE
  8
0
  6
CONTINUOUS
 62
     7
 10
181.53905
 20
-44.995163
 11
181.53905
 21
-48.935379
  0
ARC
  8
0
  6
CONTINUOUS
 62
     7
 10
183.78905
 20
-48.935379
 40
3
 50
306.00832
 51
53.991676
  0
ARC
  8
0
  6
CONTINUOUS
 62
     7
 10
183.78905
 20
-48.935379
 40
4.5
 50
306.00832
 51
53.991676
  0
ARC
  8
0
  6
CONTINUOUS
 62
     7
 10
177.78905
 20
-48.935379
 40
3
 50
126.00833
 51
233.99168
  0
ARC
  8
0
  6
CONTINUOUS
 62
     7
 10
177.78905
 20
-48.935379
 40
4.5
 50
126.00833
 51
233.99168
  0
ARC
  8
0
  6
CONTINUOUS
 62
     7
 10
180.78905
 20
-53.063263
 40
9.6028843
 50
53.991676
 51
85.520553
  0
ARC
  8
0
  6
CONTINUOUS
 62
     7
 10
180.78905
 20
-53.063263
 40
8.1028843
 50
53.991676
 51
84.689121
  0
ARC
  8
0
  6
CONTINUOUS
 62
     7
 10
180.78905
 20
-44.807495
 40
8.1028843
 50
233.99167
 51
306.00832
  0
ARC
  8
0
  6
CONTINUOUS
 62
     7
 10
180.78905
 20
-44.807495
 40
9.6028843
 50
233.99167
 51
265.52055
  0
ARC
  8
0
  6
CONTINUOUS
 62
     7
 10
180.78905
 20
-41.997879
 40
0.9375
 50
36.869897
 51
143.1301
  0
ARC
  8
0
  6
CONTINUOUS
 62
     7
 10
180.78905
 20
-48.372879
 40
0.9375
 50
216.8699
 51
323.1301
  0
ARC
  8
0
  6
CONTINUOUS
 62
     7
 10
180.78905
 20
-55.872879
 40
0.9375
 50
216.8699
 51
323.1301
  0
ARC
  8
0
  6
CONTINUOUS
 62
     7
 10
180.78905
 20
-53.063263
 40
9.6028843
 50
94.479452
 51
126.00833
  0
ARC
  8
0
  6
CONTINUOUS
 62
     7
 10
180.78905
 20
-53.063263
 40
8.1028843
 50
95.310878
 51
126.00833
  0
ARC
  8
0
  6
CONTINUOUS
 62
     7
 10
180.78905
 20
-44.807495
 40
9.6028843
 50
274.47945
 51
306.00832
  0
LINE
  8
0
  6
CONTINUOUS
 62
     7
 10
420.50467
 20
83.924301
 11
420.50467
 21
81.869968
  0
LINE
  8
0
  6
CONTINUOUS
 62
     7
 10
419.00467
 20
83.924301
 11
419.00467
 21
81.869968
  0
LINE
  8
0
  6
CONTINUOUS
 62
     7
 10
419.00467
 20
70.978634
 11
419.00467
 21
68.924301
  0
LINE
  8
0
  6
CONTINUOUS
 62
     7
 10
420.50467
 20
70.978634
 11
420.50467
 21
68.924301
  0
LINE
  8
0
  6
CONTINUOUS
 62
     7
 10
419.00467
 20
80.364517
 11
419.00467
 21
76.424301
  0
LINE
  8
0
  6
CONTINUOUS
 62
     7
 10
420.50467
 20
80.364517
 11
420.50467
 21
76.424301
  0
ARC
  8
0
  6
CONTINUOUS
 62
     7
 10
422.75467
 20
76.424301
 40
3
 50
306.00832
 51
53.991676
  0
ARC
  8
0
  6
CONTINUOUS
 62
     7
 10
422.75467
 20
76.424301
 40
4.5
 50
306.00832
 51
53.991676
  0
ARC
  8
0
  6
CONTINUOUS
 62
     7
 10
416.75467
 20
76.424301
 40
3
 50
126.00833
 51
233.99168
  0
ARC
  8
0
  6
CONTINUOUS
 62
     7
 10
416.75467
 20
76.424301
 40
4.5
 50
126.00833
 51
233.99168
  0
ARC
  8
0
  6
CONTINUOUS
 62
     7
 10
419.75467
 20
72.296417
 40
9.6028843
 50
53.991676
 51
85.520553
  0
ARC
  8
0
  6
CONTINUOUS
 62
     7
 10
419.75467
 20
72.296417
 40
8.1028843
 50
53.991676
 51
84.689121
  0
ARC
  8
0
  6
CONTINUOUS
 62
     7
 10
419.75467
 20
80.552186
 40
8.1028843
 50
233.99167
 51
306.00832
  0
ARC
  8
0
  6
CONTINUOUS
 62
     7
 10
419.75467
 20
80.552186
 40
9.6028843
 50
233.99167
 51
265.52055
  0
ARC
  8
0
  6
CONTINUOUS
 62
     7
 10
419.75467
 20
83.361801
 40
0.9375
 50
36.869897
 51
143.1301
  0
ARC
  8
0
  6
CONTINUOUS
 62
     7
 10
419.75467
 20
76.986801
 40
0.9375
 50
216.8699
 51
323.1301
  0
ARC
  8
0
  6
CONTINUOUS
 62
     7
 10
419.75467
 20
69.486801
 40
0.9375
 50
216.8699
 51
323.1301
  0
ARC
  8
0
  6
CONTINUOUS
 62
     7
 10
419.75467
 20
72.296417
 40
9.6028843
 50
94.479452
 51
126.00833
  0
ARC
  8
0
  6
CONTINUOUS
 62
     7
 10
419.75467
 20
72.296417
 40
8.1028843
 50
95.310878
 51
126.00833
  0
ARC
  8
0
  6
CONTINUOUS
 62
     7
 10
419.75467
 20
80.552186
 40
9.6028843
 50
274.47945
 51
306.00832
  0
ENDSEC
  0
EOF
