  0
SECTION
  2
HEADER
  9
$EXTMAX
 10
297.25922
 20
211.66544
  9
$EXTMIN
 10
-297.25922
 20
-210.82214
  0
ENDSEC
  0
SECTION
  2
TABLES
  0
TABLE
  2
LTYPE
 70
    22
  0
LTYPE
  2
CONTINUOUS
 70
    64
  3
Solid line
 72
    65
 73
     0
 40
0.000000
  0
LTYPE
  2
DASHED
 70
    64
  3
__ __ __ __ __ __ __ __ __ __ __ __ __ __ __
 72
    65
 73
     2
 40
3.500000
 49
2.000000
 49
-1.500000
  0
LTYPE
  2
CENTER
 70
    64
  3
____ _ ____ _ ____ _ ____ _ ____ _ ____ _ ____
 72
    65
 73
     4
 40
17.500000
 49
13.000000
 49
-1.500000
 49
1.500000
 49
-1.500000
  0
LTYPE
  2
PHANTOM
 70
    64
  3
_____ _ _ _____ _ _ _____ _ _ _____ _ _ ____  
 72
    65
 73
     6
 40
15.500000
 49
8.000000
 49
-1.500000
 49
1.500000
 49
-1.500000
 49
1.500000
 49
-1.500000
  0
LTYPE
  2
DOT
 70
    64
  3
. . . . . . . . . . . . . . . . . . . . . . . .
 72
    65
 73
     2
 40
0.25
 49
0.0
 49
-0.25
  0
ENDTAB
  0
TABLE
  2
LAYER
 70
     1
  0
LAYER
  2
0
 70
     0
 62
     7
  6
CONTINUOUS
  0
ENDTAB
  0
TABLE
  2
STYLE
 70
     1
  0
STYLE
  2
STANDARD
 70
     0
 40
0.000000
 41
1.000000
 50
0.000000
 71
     0
 42
0.200000
  3
txt
  4
BIGFONT
  0
ENDTAB
  0
TABLE
  2
VIEW
 70
     0
  0
ENDTAB
  0
ENDSEC
  0
SECTION
  2
BLOCKS
  0
ENDSEC
  0
SECTION
  2
ENTITIES
  0
POINT
  8
0
  6
CONTINUOUS
 62
     7
 10
317
 20
-650
  0
POINT
  8
0
  6
CONTINUOUS
 62
     7
 10
911
 20
-650
  0
POINT
  8
0
  6
CONTINUOUS
 62
     7
 10
317
 20
-230
  0
POINT
  8
0
  6
CONTINUOUS
 62
     7
 10
911
 20
-230
  0
POINT
  8
0
  6
CONTINUOUS
 62
     7
 10
317
 20
-650
  0
POINT
  8
0
  6
CONTINUOUS
 62
     7
 10
-297
 20
-210
  0
POINT
  8
0
  6
CONTINUOUS
 62
     7
 10
297
 20
210
  0
POINT
  8
0
  6
CONTINUOUS
 62
     7
 10
-297
 20
210
  0
POINT
  8
0
  6
CONTINUOUS
 62
     7
 10
297
 20
-210
  0
POINT
  8
0
  6
CONTINUOUS
 62
     7
 10
-297
 20
-230
  0
POINT
  8
0
  6
CONTINUOUS
 62
     7
 10
317
 20
-230
  0
POINT
  8
0
  6
CONTINUOUS
 62
     7
 10
317
 20
-210
  0
POINT
  8
0
  6
CONTINUOUS
 62
     7
 10
911
 20
-210
  0
POINT
  8
0
  6
CONTINUOUS
 62
     7
 10
317
 20
210
  0
POINT
  8
0
  6
CONTINUOUS
 62
     7
 10
911
 20
210
  0
POINT
  8
0
  6
CONTINUOUS
 62
     7
 10
317
 20
-210
  0
POINT
  8
0
  6
CONTINUOUS
 62
     7
 10
-297
 20
-650
  0
POINT
  8
0
  6
CONTINUOUS
 62
     7
 10
297
 20
-650
  0
POINT
  8
0
  6
CONTINUOUS
 62
     7
 10
-297
 20
-230
  0
POINT
  8
0
  6
CONTINUOUS
 62
     7
 10
297
 20
-230
  0
POINT
  8
0
  6
CONTINUOUS
 62
     7
 10
-297
 20
-650
  0
POINT
  8
0
  6
CONTINUOUS
 62
     7
 10
-228.84512
 20
133.50085
  0
POINT
  8
0
  6
CONTINUOUS
 62
     7
 10
-152.72093
 20
132.80081
  0
POINT
  8
0
  6
CONTINUOUS
 62
     7
 10
-67.550003
 20
129.85001
  0
POINT
  8
0
  6
CONTINUOUS
 62
     7
 10
22.225
 20
129.5
  0
POINT
  8
0
  6
CONTINUOUS
 62
     7
 10
120.05
 20
119.7
  0
POINT
  8
0
  6
CONTINUOUS
 62
     7
 10
222.77499
 20
113.05
  0
POINT
  8
0
  6
CONTINUOUS
 62
     7
 10
-233.11382
 20
-1.102193
  0
POINT
  8
0
  6
CONTINUOUS
 62
     7
 10
-128.93442
 20
7.4410768
  0
POINT
  8
0
  6
CONTINUOUS
 62
     7
 10
-6.2170796
 20
3.0320706
  0
POINT
  8
0
  6
CONTINUOUS
 62
     7
 10
101.325
 20
-21
  0
POINT
  8
0
  6
CONTINUOUS
 62
     7
 10
-226.91399
 20
-137.22302
  0
POINT
  8
0
  6
CONTINUOUS
 62
     7
 10
-87.783691
 20
-133.64713
  0
POINT
  8
0
  6
CONTINUOUS
 62
     7
 10
411.41382
 20
80.459198
  0
POINT
  8
0
  6
CONTINUOUS
 62
     7
 10
531.20447
 20
79.796356
  0
POINT
  8
0
  6
CONTINUOUS
 62
     7
 10
659.41241
 20
81.035767
  0
POINT
  8
0
  6
CONTINUOUS
 62
     7
 10
779.96021
 20
76.316498
  0
POINT
  8
0
  6
CONTINUOUS
 62
     7
 10
416.12085
 20
-92.407631
  0
POINT
  8
0
  6
CONTINUOUS
 62
     7
 10
527.1543
 20
-92.238899
  0
POINT
  8
0
  6
CONTINUOUS
 62
     7
 10
654.17157
 20
-93.540962
  0
POINT
  8
0
  6
CONTINUOUS
 62
     7
 10
780.84924
 20
-102.81007
  0
POINT
  8
0
  6
CONTINUOUS
 62
     7
 10
-205.56325
 20
-356.2847
  0
POINT
  8
0
  6
CONTINUOUS
 62
     7
 10
-66.526779
 20
-358.60196
  0
POINT
  8
0
  6
CONTINUOUS
 62
     7
 10
80.525841
 20
-358.60196
  0
POINT
  8
0
  6
CONTINUOUS
 62
     7
 10
210.57431
 20
-359.37927
  0
POINT
  8
0
  6
CONTINUOUS
 62
     7
 10
218.925
 20
-40.599998
  0
LINE
  8
0
  6
CONTINUOUS
 62
     7
 10
-287
 20
200
 11
-287
 21
-200
  0
LINE
  8
0
  6
CONTINUOUS
 62
     7
 10
-287
 20
-200
 11
287
 21
-200
  0
LINE
  8
0
  6
CONTINUOUS
 62
     7
 10
287
 20
200
 11
287
 21
-200
  0
LINE
  8
0
  6
CONTINUOUS
 62
     7
 10
-287
 20
200
 11
287
 21
200
  0
LINE
  8
0
  6
CONTINUOUS
 62
     7
 10
901
 20
200
 11
901
 21
-200
  0
LINE
  8
0
  6
CONTINUOUS
 62
     7
 10
327
 20
200
 11
901
 21
200
  0
LINE
  8
0
  6
CONTINUOUS
 62
     7
 10
327
 20
200
 11
327
 21
-200
  0
LINE
  8
0
  6
CONTINUOUS
 62
     7
 10
327
 20
-200
 11
901
 21
-200
  0
LINE
  8
0
  6
CONTINUOUS
 62
     7
 10
287
 20
-240
 11
287
 21
-640
  0
LINE
  8
0
  6
CONTINUOUS
 62
     7
 10
-287
 20
-240
 11
287
 21
-240
  0
LINE
  8
0
  6
CONTINUOUS
 62
     7
 10
-287
 20
-240
 11
-287
 21
-640
  0
LINE
  8
0
  6
CONTINUOUS
 62
     7
 10
-287
 20
-640
 11
287
 21
-640
  0
LINE
  8
0
  6
CONTINUOUS
 62
     7
 10
906
 20
-235
 11
906
 21
-645
  0
LINE
  8
0
  6
CONTINUOUS
 62
     7
 10
322
 20
-235
 11
906
 21
-235
  0
LINE
  8
0
  6
CONTINUOUS
 62
     7
 10
322
 20
-235
 11
322
 21
-645
  0
LINE
  8
0
  6
CONTINUOUS
 62
     7
 10
322
 20
-645
 11
906
 21
-645
  0
LINE
  8
0
  6
CENTER
 62
     7
 10
-228.84512
 20
166.90085
 11
-228.84512
 21
97.468559
  0
LINE
  8
0
  6
CONTINUOUS
 62
     7
 10
-246.84511
 20
156.50085
 11
-246.84511
 21
162.50085
  0
LINE
  8
0
  6
CONTINUOUS
 62
     7
 10
-210.84512
 20
156.50085
 11
-210.84512
 21
162.50085
  0
LINE
  8
0
  6
CONTINUOUS
 62
     7
 10
-245.34511
 20
150.50085
 11
-245.34511
 21
153.90277
  0
LINE
  8
0
  6
CONTINUOUS
 62
     7
 10
-212.34512
 20
150.50085
 11
-212.34512
 21
153.90277
  0
LINE
  8
0
  6
CONTINUOUS
 62
     7
 10
-206.84512
 20
108.50086
 11
-206.84512
 21
101.50086
  0
LINE
  8
0
  6
CONTINUOUS
 62
     7
 10
-250.84511
 20
108.50086
 11
-250.84511
 21
101.50086
  0
LINE
  8
0
  6
CONTINUOUS
 62
     7
 10
-208.34512
 20
116.50086
 11
-208.34512
 21
111.09895
  0
LINE
  8
0
  6
CONTINUOUS
 62
     7
 10
-249.34511
 20
116.50086
 11
-249.34511
 21
111.09895
  0
LINE
  8
0
  6
CONTINUOUS
 62
     7
 10
-201.84512
 20
148.50085
 11
-195.84512
 21
148.50085
  0
LINE
  8
0
  6
CONTINUOUS
 62
     7
 10
-201.84512
 20
118.50086
 11
-195.84512
 21
118.50086
  0
LINE
  8
0
  6
CONTINUOUS
 62
     7
 10
-204.84512
 20
120.00086
 11
-204.44321
 21
120.00086
  0
LINE
  8
0
  6
CONTINUOUS
 62
     7
 10
-208.84512
 20
147.00085
 11
-204.44321
 21
147.00085
  0
LINE
  8
0
  6
CONTINUOUS
 62
     7
 10
-195.84512
 20
148.50085
 11
-195.84512
 21
118.50086
  0
LINE
  8
0
  6
CONTINUOUS
 62
     7
 10
-201.84512
 20
148.50085
 11
-201.84512
 21
118.50086
  0
LINE
  8
0
  6
CONTINUOUS
 62
     7
 10
-250.84511
 20
101.50086
 11
-206.84512
 21
101.50086
  0
LINE
  8
0
  6
CONTINUOUS
 62
     7
 10
-250.84511
 20
108.50086
 11
-206.84512
 21
108.50086
  0
LINE
  8
0
  6
CONTINUOUS
 62
     7
 10
-246.84511
 20
162.50085
 11
-210.84512
 21
162.50085
  0
LINE
  8
0
  6
CONTINUOUS
 62
     7
 10
-246.84511
 20
156.50085
 11
-210.84512
 21
156.50085
  0
LINE
  8
0
  6
CENTER
 62
     7
 10
-251.53558
 20
133.50085
 11
-192.44354
 21
133.50085
  0
LINE
  8
0
  6
CONTINUOUS
 62
     7
 10
-179.2209
 20
103.80081
 11
-179.2209
 21
95.800812
  0
LINE
  8
0
  6
CONTINUOUS
 62
     7
 10
-177.7209
 20
112.30081
 11
-177.7209
 21
106.3989
  0
LINE
  8
0
  6
CONTINUOUS
 62
     7
 10
-166.2209
 20
152.80081
 11
-166.2209
 21
154.20273
  0
LINE
  8
0
  6
CONTINUOUS
 62
     7
 10
-167.7209
 20
156.80081
 11
-167.7209
 21
162.80081
  0
LINE
  8
0
  6
CENTER
 62
     7
 10
-152.72093
 20
166.01666
 11
-152.72093
 21
89.657135
  0
LINE
  8
0
  6
CENTER
 62
     7
 10
-177.87544
 20
132.80081
 11
-105.85259
 21
132.80081
  0
LINE
  8
0
  6
CONTINUOUS
 62
     7
 10
-137.7209
 20
156.80081
 11
-137.7209
 21
162.80081
  0
LINE
  8
0
  6
CONTINUOUS
 62
     7
 10
-139.2209
 20
152.80081
 11
-139.2209
 21
154.20273
  0
LINE
  8
0
  6
CONTINUOUS
 62
     7
 10
-135.7209
 20
149.30081
 11
-121.31902
 21
149.30081
  0
LINE
  8
0
  6
CONTINUOUS
 62
     7
 10
-118.72093
 20
150.80081
 11
-112.72093
 21
150.80081
  0
LINE
  8
0
  6
CONTINUOUS
 62
     7
 10
-118.72093
 20
114.80081
 11
-112.72093
 21
114.80081
  0
LINE
  8
0
  6
CONTINUOUS
 62
     7
 10
-123.72092
 20
116.30081
 11
-121.31902
 21
116.30081
  0
LINE
  8
0
  6
CONTINUOUS
 62
     7
 10
-127.72092
 20
112.30081
 11
-127.72092
 21
106.3989
  0
LINE
  8
0
  6
CONTINUOUS
 62
     7
 10
-126.22092
 20
103.80081
 11
-126.22092
 21
95.800812
  0
LINE
  8
0
  6
CONTINUOUS
 62
     7
 10
-167.7209
 20
162.80081
 11
-137.7209
 21
162.80081
  0
LINE
  8
0
  6
CONTINUOUS
 62
     7
 10
-167.7209
 20
156.80081
 11
-137.7209
 21
156.80081
  0
LINE
  8
0
  6
CONTINUOUS
 62
     7
 10
-179.2209
 20
103.80081
 11
-126.22092
 21
103.80081
  0
LINE
  8
0
  6
CONTINUOUS
 62
     7
 10
-179.2209
 20
95.800812
 11
-126.22092
 21
95.800812
  0
LINE
  8
0
  6
CONTINUOUS
 62
     7
 10
-118.72093
 20
150.80081
 11
-118.72093
 21
114.80081
  0
LINE
  8
0
  6
CONTINUOUS
 62
     7
 10
-112.72093
 20
150.80081
 11
-112.72093
 21
114.80081
  0
LINE
  8
0
  6
CENTER
 62
     7
 10
-67.550003
 20
167.3
 11
-67.550003
 21
90.300003
  0
LINE
  8
0
  6
CENTER
 62
     7
 10
-92.19783
 20
129.85001
 11
-23.450001
 21
129.85001
  0
LINE
  8
0
  6
CONTINUOUS
 62
     7
 10
-89.549973
 20
154.85001
 11
-89.549973
 21
161.85001
  0
LINE
  8
0
  6
CONTINUOUS
 62
     7
 10
-45.549969
 20
154.85001
 11
-45.549969
 21
161.85001
  0
LINE
  8
0
  6
CONTINUOUS
 62
     7
 10
-88.049973
 20
146.85001
 11
-88.049973
 21
152.25192
  0
LINE
  8
0
  6
CONTINUOUS
 62
     7
 10
-47.049969
 20
146.85001
 11
-47.049969
 21
152.25192
  0
LINE
  8
0
  6
CONTINUOUS
 62
     7
 10
-35.549999
 20
144.85001
 11
-29.549999
 21
144.85001
  0
LINE
  8
0
  6
CONTINUOUS
 62
     7
 10
-35.549999
 20
114.85
 11
-29.549999
 21
114.85
  0
LINE
  8
0
  6
CONTINUOUS
 62
     7
 10
-38.55003
 20
116.35
 11
-38.148083
 21
116.35
  0
LINE
  8
0
  6
CONTINUOUS
 62
     7
 10
-41.05003
 20
103.85
 11
-41.05003
 21
95.849998
  0
LINE
  8
0
  6
CONTINUOUS
 62
     7
 10
-94.050034
 20
103.85
 11
-94.050034
 21
95.849998
  0
LINE
  8
0
  6
CONTINUOUS
 62
     7
 10
-42.55003
 20
112.35
 11
-42.55003
 21
106.44808
  0
LINE
  8
0
  6
CONTINUOUS
 62
     7
 10
-92.550034
 20
112.35
 11
-92.550034
 21
106.44808
  0
LINE
  8
0
  6
CONTINUOUS
 62
     7
 10
-43.549969
 20
143.35001
 11
-38.148083
 21
143.35001
  0
LINE
  8
0
  6
CONTINUOUS
 62
     7
 10
-94.050034
 20
95.849998
 11
-41.05003
 21
95.849998
  0
LINE
  8
0
  6
CONTINUOUS
 62
     7
 10
-94.050034
 20
103.85
 11
-41.05003
 21
103.85
  0
LINE
  8
0
  6
CONTINUOUS
 62
     7
 10
-89.549973
 20
154.85001
 11
-45.549969
 21
154.85001
  0
LINE
  8
0
  6
CONTINUOUS
 62
     7
 10
-89.549973
 20
161.85001
 11
-45.549969
 21
161.85001
  0
LINE
  8
0
  6
CONTINUOUS
 62
     7
 10
-29.549999
 20
144.85001
 11
-29.549999
 21
114.85
  0
LINE
  8
0
  6
CONTINUOUS
 62
     7
 10
-35.549999
 20
144.85001
 11
-35.549999
 21
114.85
  0
LINE
  8
0
  6
CENTER
 62
     7
 10
22.225
 20
167.90001
 11
22.225
 21
86.744568
  0
LINE
  8
0
  6
CENTER
 62
     7
 10
-2.9295106
 20
129.5
 11
67.3246
 21
129.5
  0
LINE
  8
0
  6
CONTINUOUS
 62
     7
 10
0.22503051
 20
156.5
 11
0.22503051
 21
163.5
  0
LINE
  8
0
  6
CONTINUOUS
 62
     7
 10
44.224998
 20
156.5
 11
44.224998
 21
163.5
  0
LINE
  8
0
  6
CONTINUOUS
 62
     7
 10
1.7250305
 20
140.24174
 11
1.7250305
 21
153.90192
  0
LINE
  8
0
  6
CONTINUOUS
 62
     7
 10
42.724998
 20
149.5
 11
42.724998
 21
153.90192
  0
LINE
  8
0
  6
CONTINUOUS
 62
     7
 10
48.725014
 20
100.5
 11
48.725014
 21
92.5
  0
LINE
  8
0
  6
CONTINUOUS
 62
     7
 10
-4.2749696
 20
100.5
 11
-4.2749696
 21
92.5
  0
LINE
  8
0
  6
CONTINUOUS
 62
     7
 10
47.225014
 20
109
 11
47.225014
 21
103.09808
  0
LINE
  8
0
  6
CONTINUOUS
 62
     7
 10
-2.7749696
 20
109
 11
-2.7749696
 21
103.09808
  0
LINE
  8
0
  6
CONTINUOUS
 62
     7
 10
56.224998
 20
147.5
 11
62.224998
 21
147.5
  0
LINE
  8
0
  6
CONTINUOUS
 62
     7
 10
56.224998
 20
111.5
 11
62.224998
 21
111.5
  0
LINE
  8
0
  6
CONTINUOUS
 62
     7
 10
51.225014
 20
113
 11
53.626915
 21
113
  0
LINE
  8
0
  6
CONTINUOUS
 62
     7
 10
46.224998
 20
146
 11
53.626915
 21
146
  0
LINE
  8
0
  6
CONTINUOUS
 62
     7
 10
56.224998
 20
147.5
 11
56.224998
 21
111.5
  0
LINE
  8
0
  6
CONTINUOUS
 62
     7
 10
62.224998
 20
147.5
 11
62.224998
 21
111.5
  0
LINE
  8
0
  6
CONTINUOUS
 62
     7
 10
-4.2749696
 20
92.5
 11
48.725014
 21
92.5
  0
LINE
  8
0
  6
CONTINUOUS
 62
     7
 10
-4.2749696
 20
100.09808
 11
48.725014
 21
100.09808
  0
LINE
  8
0
  6
CONTINUOUS
 62
     7
 10
0.22503051
 20
156.5
 11
44.224998
 21
156.5
  0
LINE
  8
0
  6
CONTINUOUS
 62
     7
 10
0.22503051
 20
163.5
 11
44.224998
 21
163.5
  0
LINE
  8
0
  6
CENTER
 62
     7
 10
120.05
 20
171.10162
 11
120.05
 21
66.828285
  0
LINE
  8
0
  6
CENTER
 62
     7
 10
92.528824
 20
119.7
 11
170.94241
 21
119.7
  0
LINE
  8
0
  6
CONTINUOUS
 62
     7
 10
98.050034
 20
157.70001
 11
98.050034
 21
164.70001
  0
LINE
  8
0
  6
CONTINUOUS
 62
     7
 10
142.05003
 20
157.70001
 11
142.05003
 21
164.70001
  0
LINE
  8
0
  6
CONTINUOUS
 62
     7
 10
99.550034
 20
144.87216
 11
99.550034
 21
155.10193
  0
LINE
  8
0
  6
CONTINUOUS
 62
     7
 10
140.55003
 20
151.7
 11
140.55003
 21
155.10193
  0
LINE
  8
0
  6
CONTINUOUS
 62
     7
 10
146.55003
 20
79.699997
 11
146.55003
 21
71.699997
  0
LINE
  8
0
  6
CONTINUOUS
 62
     7
 10
93.550034
 20
79.699997
 11
93.550034
 21
71.699997
  0
LINE
  8
0
  6
CONTINUOUS
 62
     7
 10
145.05003
 20
87.699997
 11
145.05003
 21
82.29808
  0
LINE
  8
0
  6
CONTINUOUS
 62
     7
 10
95.050034
 20
93.699997
 11
95.050034
 21
82.29808
  0
LINE
  8
0
  6
CONTINUOUS
 62
     7
 10
156.05
 20
149.7
 11
165.05
 21
149.7
  0
LINE
  8
0
  6
CONTINUOUS
 62
     7
 10
156.05
 20
89.699997
 11
165.05
 21
89.699997
  0
LINE
  8
0
  6
CONTINUOUS
 62
     7
 10
144.55003
 20
147.7
 11
152.58591
 21
147.7
  0
LINE
  8
0
  6
CONTINUOUS
 62
     7
 10
149.05003
 20
91.699997
 11
152.58591
 21
91.699997
  0
LINE
  8
0
  6
CONTINUOUS
 62
     7
 10
93.550034
 20
71.699997
 11
146.55003
 21
71.699997
  0
LINE
  8
0
  6
CONTINUOUS
 62
     7
 10
93.550034
 20
79.699997
 11
146.55003
 21
79.699997
  0
LINE
  8
0
  6
CONTINUOUS
 62
     7
 10
98.050034
 20
158.10191
 11
142.05003
 21
158.10191
  0
LINE
  8
0
  6
CONTINUOUS
 62
     7
 10
98.050034
 20
164.70001
 11
142.05003
 21
164.70001
  0
LINE
  8
0
  6
CONTINUOUS
 62
     7
 10
156.05
 20
149.7
 11
156.05
 21
89.699997
  0
LINE
  8
0
  6
CONTINUOUS
 62
     7
 10
165.05
 20
149.7
 11
165.05
 21
89.699997
  0
LINE
  8
0
  6
CENTER
 62
     7
 10
222.77499
 20
168.44998
 11
222.77499
 21
52.128288
  0
LINE
  8
0
  6
CENTER
 62
     7
 10
191.23294
 20
113.05
 11
275.41742
 21
113.05
  0
LINE
  8
0
  6
CONTINUOUS
 62
     7
 10
200.77502
 20
157.05002
 11
200.77502
 21
164.05002
  0
LINE
  8
0
  6
CONTINUOUS
 62
     7
 10
244.77502
 20
157.05002
 11
244.77502
 21
164.05002
  0
LINE
  8
0
  6
CONTINUOUS
 62
     7
 10
202.27502
 20
153.55002
 11
202.27502
 21
154.45193
  0
LINE
  8
0
  6
CONTINUOUS
 62
     7
 10
243.27502
 20
153.55
 11
243.27502
 21
154.45193
  0
LINE
  8
0
  6
CONTINUOUS
 62
     7
 10
249.27502
 20
67.050003
 11
249.27502
 21
59.049999
  0
LINE
  8
0
  6
CONTINUOUS
 62
     7
 10
196.27502
 20
67.050003
 11
196.27502
 21
59.049999
  0
LINE
  8
0
  6
CONTINUOUS
 62
     7
 10
247.77502
 20
73.550003
 11
247.77502
 21
69.648087
  0
LINE
  8
0
  6
CONTINUOUS
 62
     7
 10
197.77502
 20
92.550003
 11
197.77502
 21
69.648087
  0
LINE
  8
0
  6
CONTINUOUS
 62
     7
 10
259.77499
 20
149.55
 11
270.77499
 21
149.55
  0
LINE
  8
0
  6
CONTINUOUS
 62
     7
 10
259.77499
 20
76.550003
 11
270.77499
 21
76.550003
  0
LINE
  8
0
  6
CONTINUOUS
 62
     7
 10
249.27502
 20
147.55
 11
256.31091
 21
147.55
  0
LINE
  8
0
  6
CONTINUOUS
 62
     7
 10
252.77502
 20
78.550003
 11
256.31091
 21
78.550003
  0
LINE
  8
0
  6
CONTINUOUS
 62
     7
 10
259.77499
 20
149.55
 11
259.77499
 21
76.550003
  0
LINE
  8
0
  6
CONTINUOUS
 62
     7
 10
270.77499
 20
149.55
 11
270.77499
 21
76.550003
  0
LINE
  8
0
  6
CONTINUOUS
 62
     7
 10
196.27502
 20
59.049999
 11
249.27502
 21
59.049999
  0
LINE
  8
0
  6
CONTINUOUS
 62
     7
 10
196.27502
 20
67.050003
 11
249.27502
 21
67.050003
  0
LINE
  8
0
  6
CONTINUOUS
 62
     7
 10
200.77502
 20
164.05002
 11
244.77502
 21
164.05002
  0
LINE
  8
0
  6
CONTINUOUS
 62
     7
 10
200.77502
 20
157.05002
 11
244.77502
 21
157.05002
  0
LINE
  8
0
  6
CENTER
 62
     7
 10
-233.11382
 20
37.297817
 11
-233.11382
 21
-47.257626
  0
LINE
  8
0
  6
CENTER
 62
     7
 10
-262.97018
 20
-1.102193
 11
-181.26421
 21
-1.102193
  0
LINE
  8
0
  6
CONTINUOUS
 62
     7
 10
-251.11378
 20
27.897806
 11
-251.11378
 21
33.897808
  0
LINE
  8
0
  6
CONTINUOUS
 62
     7
 10
-215.11378
 20
27.897806
 11
-215.11378
 21
33.897808
  0
LINE
  8
0
  6
CONTINUOUS
 62
     7
 10
-249.61378
 20
22.897806
 11
-249.61378
 21
25.299723
  0
LINE
  8
0
  6
CONTINUOUS
 62
     7
 10
-216.61378
 20
22.897806
 11
-216.61378
 21
25.299723
  0
LINE
  8
0
  6
CONTINUOUS
 62
     7
 10
-203.11383
 20
-33.102192
 11
-203.11383
 21
-42.102192
  0
LINE
  8
0
  6
CONTINUOUS
 62
     7
 10
-263.11383
 20
-33.102192
 11
-263.11383
 21
-42.102192
  0
LINE
  8
0
  6
CONTINUOUS
 62
     7
 10
-205.11383
 20
-25.602194
 11
-205.11383
 21
-29.638083
  0
LINE
  8
0
  6
CONTINUOUS
 62
     7
 10
-261.11383
 20
-25.602194
 11
-261.11383
 21
-29.638083
  0
LINE
  8
0
  6
CONTINUOUS
 62
     7
 10
-195.11382
 20
20.897806
 11
-188.11382
 21
20.897806
  0
LINE
  8
0
  6
CONTINUOUS
 62
     7
 10
-195.11382
 20
-23.102194
 11
-188.11382
 21
-23.102194
  0
LINE
  8
0
  6
CONTINUOUS
 62
     7
 10
-201.11383
 20
-21.602194
 11
-197.7119
 21
-21.602194
  0
LINE
  8
0
  6
CONTINUOUS
 62
     7
 10
-213.11378
 20
19.397806
 11
-197.7119
 21
19.397806
  0
LINE
  8
0
  6
CONTINUOUS
 62
     7
 10
-263.11383
 20
-42.102192
 11
-203.11383
 21
-42.102192
  0
LINE
  8
0
  6
CONTINUOUS
 62
     7
 10
-263.11383
 20
-33.638081
 11
-203.11383
 21
-33.638081
  0
LINE
  8
0
  6
CONTINUOUS
 62
     7
 10
-251.11378
 20
33.897808
 11
-215.11378
 21
33.897808
  0
LINE
  8
0
  6
CONTINUOUS
 62
     7
 10
-251.11378
 20
28.299723
 11
-215.11378
 21
28.299723
  0
LINE
  8
0
  6
CONTINUOUS
 62
     7
 10
-195.11382
 20
20.897806
 11
-195.11382
 21
-23.102194
  0
LINE
  8
0
  6
CONTINUOUS
 62
     7
 10
-188.11382
 20
20.897806
 11
-188.11382
 21
-23.102194
  0
LINE
  8
0
  6
CENTER
 62
     7
 10
-128.93442
 20
53.841057
 11
-128.93442
 21
-45.730637
  0
LINE
  8
0
  6
CENTER
 62
     7
 10
-160.47647
 20
7.4410768
 11
-71.742012
 21
7.4410768
  0
LINE
  8
0
  6
CONTINUOUS
 62
     7
 10
-98.934448
 20
-28.558924
 11
-98.934448
 21
-37.558922
  0
LINE
  8
0
  6
CONTINUOUS
 62
     7
 10
-158.93442
 20
-28.558924
 11
-158.93442
 21
-37.558922
  0
LINE
  8
0
  6
CONTINUOUS
 62
     7
 10
-100.93445
 20
-22.558924
 11
-100.93445
 21
-25.094812
  0
LINE
  8
0
  6
CONTINUOUS
 62
     7
 10
-156.93445
 20
-22.558924
 11
-156.93445
 21
-25.094812
  0
LINE
  8
0
  6
CONTINUOUS
 62
     7
 10
-150.93439
 20
42.441093
 11
-150.93439
 21
49.441093
  0
LINE
  8
0
  6
CONTINUOUS
 62
     7
 10
-106.93439
 20
42.441093
 11
-106.93439
 21
49.441093
  0
LINE
  8
0
  6
CONTINUOUS
 62
     7
 10
-149.43439
 20
37.441078
 11
-149.43439
 21
39.84301
  0
LINE
  8
0
  6
CONTINUOUS
 62
     7
 10
-108.43439
 20
37.441078
 11
-108.43439
 21
39.84301
  0
LINE
  8
0
  6
CONTINUOUS
 62
     7
 10
-88.934418
 20
33.941078
 11
-80.934418
 21
33.941078
  0
LINE
  8
0
  6
CONTINUOUS
 62
     7
 10
-88.934418
 20
-19.058924
 11
-80.934418
 21
-19.058924
  0
LINE
  8
0
  6
CONTINUOUS
 62
     7
 10
-103.43439
 20
32.441078
 11
-91.532501
 21
32.441078
  0
LINE
  8
0
  6
CONTINUOUS
 62
     7
 10
-95.934448
 20
-17.558924
 11
-91.532501
 21
-17.558924
  0
LINE
  8
0
  6
CONTINUOUS
 62
     7
 10
-88.934418
 20
33.941078
 11
-88.934418
 21
-19.058924
  0
LINE
  8
0
  6
CONTINUOUS
 62
     7
 10
-80.934418
 20
33.941078
 11
-80.934418
 21
-19.058924
  0
LINE
  8
0
  6
CONTINUOUS
 62
     7
 10
-158.93442
 20
-37.558922
 11
-98.934448
 21
-37.558922
  0
LINE
  8
0
  6
CONTINUOUS
 62
     7
 10
-158.93442
 20
-28.558924
 11
-98.934448
 21
-28.558924
  0
LINE
  8
0
  6
CONTINUOUS
 62
     7
 10
-150.93439
 20
42.441093
 11
-106.93439
 21
42.441093
  0
LINE
  8
0
  6
CONTINUOUS
 62
     7
 10
-150.93439
 20
49.441093
 11
-106.93439
 21
49.441093
  0
LINE
  8
0
  6
CENTER
 62
     7
 10
-6.2170796
 20
58.432053
 11
-6.2170796
 21
-58.489639
  0
LINE
  8
0
  6
CENTER
 62
     7
 10
-37.759136
 20
3.0320706
 11
53.775326
 21
3.0320706
  0
LINE
  8
0
  6
CONTINUOUS
 62
     7
 10
-28.217051
 20
47.032085
 11
-28.217051
 21
54.032089
  0
LINE
  8
0
  6
CONTINUOUS
 62
     7
 10
15.78295
 20
47.032085
 11
15.78295
 21
54.032089
  0
LINE
  8
0
  6
CONTINUOUS
 62
     7
 10
-26.717051
 20
43.53207
 11
-26.717051
 21
44.434002
  0
LINE
  8
0
  6
CONTINUOUS
 62
     7
 10
14.28295
 20
43.53207
 11
14.28295
 21
44.434002
  0
LINE
  8
0
  6
CONTINUOUS
 62
     7
 10
23.782936
 20
-42.967926
 11
23.782936
 21
-51.967926
  0
LINE
  8
0
  6
CONTINUOUS
 62
     7
 10
-36.217052
 20
-42.967926
 11
-36.217052
 21
-51.967926
  0
LINE
  8
0
  6
CONTINUOUS
 62
     7
 10
21.782951
 20
-36.467926
 11
21.782951
 21
-39.503815
  0
LINE
  8
0
  6
CONTINUOUS
 62
     7
 10
-34.217052
 20
-23.467928
 11
-34.217052
 21
-39.503815
  0
LINE
  8
0
  6
CONTINUOUS
 62
     7
 10
34.782921
 20
39.53207
 11
45.782917
 21
39.53207
  0
LINE
  8
0
  6
CONTINUOUS
 62
     7
 10
34.782921
 20
-33.467926
 11
45.782917
 21
-33.467926
  0
LINE
  8
0
  6
CONTINUOUS
 62
     7
 10
20.282951
 20
37.53207
 11
31.318825
 21
37.53207
  0
LINE
  8
0
  6
CONTINUOUS
 62
     7
 10
26.782951
 20
-31.467928
 11
31.318825
 21
-31.467928
  0
LINE
  8
0
  6
CONTINUOUS
 62
     7
 10
34.782921
 20
39.53207
 11
34.782921
 21
-33.467926
  0
LINE
  8
0
  6
CONTINUOUS
 62
     7
 10
45.782917
 20
39.53207
 11
45.782917
 21
-33.467926
  0
LINE
  8
0
  6
CONTINUOUS
 62
     7
 10
-36.217052
 20
-51.967926
 11
23.782936
 21
-51.967926
  0
LINE
  8
0
  6
CONTINUOUS
 62
     7
 10
-36.217052
 20
-42.967926
 11
23.782936
 21
-42.967926
  0
LINE
  8
0
  6
CONTINUOUS
 62
     7
 10
-28.217051
 20
54.032089
 11
15.78295
 21
54.032089
  0
LINE
  8
0
  6
CONTINUOUS
 62
     7
 10
-28.217051
 20
47.032085
 11
15.78295
 21
47.032085
  0
LINE
  8
0
  6
CENTER
 62
     7
 10
150.09892
 20
-21
 11
69.984131
 21
-21
  0
LINE
  8
0
  6
CENTER
 62
     7
 10
101.325
 20
-59.599968
 11
101.325
 21
17.599998
  0
LINE
  8
0
  6
CONTINUOUS
 62
     7
 10
71.324997
 20
-46.000023
 11
71.324997
 21
-55.000023
  0
LINE
  8
0
  6
CONTINUOUS
 62
     7
 10
131.325
 20
-46.000023
 11
131.325
 21
-55.000023
  0
LINE
  8
0
  6
CONTINUOUS
 62
     7
 10
73.324997
 20
-38.499985
 11
73.324997
 21
-42.535919
  0
LINE
  8
0
  6
CONTINUOUS
 62
     7
 10
129.325
 20
-38.499985
 11
129.325
 21
-42.535919
  0
LINE
  8
0
  6
CONTINUOUS
 62
     7
 10
127.825
 20
5
 11
127.825
 21
13
  0
LINE
  8
0
  6
CONTINUOUS
 62
     7
 10
74.824997
 20
5
 11
74.824997
 21
13
  0
LINE
  8
0
  6
CONTINUOUS
 62
     7
 10
126.325
 20
-3.4999924
 11
126.325
 21
2.4019241
  0
LINE
  8
0
  6
CONTINUOUS
 62
     7
 10
76.324997
 20
-3.4999924
 11
76.324997
 21
2.4019241
  0
LINE
  8
0
  6
CONTINUOUS
 62
     7
 10
137.32501
 20
-35.999985
 11
143.32501
 21
-35.999985
  0
LINE
  8
0
  6
CONTINUOUS
 62
     7
 10
137.32501
 20
-5.9999924
 11
143.32501
 21
-5.9999924
  0
LINE
  8
0
  6
CONTINUOUS
 62
     7
 10
133.325
 20
-34.499985
 11
134.72693
 21
-34.499985
  0
LINE
  8
0
  6
CONTINUOUS
 62
     7
 10
130.325
 20
-7.4999924
 11
134.72691
 21
-7.4999924
  0
LINE
  8
0
  6
CONTINUOUS
 62
     7
 10
143.32501
 20
-5.9999924
 11
143.32501
 21
-35.999985
  0
LINE
  8
0
  6
CONTINUOUS
 62
     7
 10
137.32501
 20
-5.9999924
 11
137.32501
 21
-35.999985
  0
LINE
  8
0
  6
CONTINUOUS
 62
     7
 10
131.325
 20
-55.000023
 11
71.324997
 21
-55.000023
  0
LINE
  8
0
  6
CONTINUOUS
 62
     7
 10
131.325
 20
-46.000023
 11
71.324997
 21
-46.000023
  0
LINE
  8
0
  6
CONTINUOUS
 62
     7
 10
127.825
 20
5
 11
74.824997
 21
5
  0
LINE
  8
0
  6
CONTINUOUS
 62
     7
 10
127.825
 20
13
 11
74.824997
 21
13
  0
LINE
  8
0
  6
CENTER
 62
     7
 10
-226.91399
 20
-92.623009
 11
-226.91399
 21
-185.79474
  0
LINE
  8
0
  6
CENTER
 62
     7
 10
-258.45602
 20
-137.22302
 11
-173.92157
 21
-137.22302
  0
LINE
  8
0
  6
CONTINUOUS
 62
     7
 10
-196.91397
 20
-169.22302
 11
-196.91397
 21
-178.22302
  0
LINE
  8
0
  6
CONTINUOUS
 62
     7
 10
-256.91394
 20
-169.22302
 11
-256.91394
 21
-178.22302
  0
LINE
  8
0
  6
CONTINUOUS
 62
     7
 10
-198.91396
 20
-162.72302
 11
-198.91396
 21
-165.75891
  0
LINE
  8
0
  6
CONTINUOUS
 62
     7
 10
-254.91396
 20
-162.72302
 11
-254.91396
 21
-165.75891
  0
LINE
  8
0
  6
CONTINUOUS
 62
     7
 10
-253.41396
 20
-105.22301
 11
-253.41396
 21
-97.223015
  0
LINE
  8
0
  6
CONTINUOUS
 62
     7
 10
-200.41396
 20
-105.22301
 11
-200.41396
 21
-97.223015
  0
LINE
  8
0
  6
CONTINUOUS
 62
     7
 10
-251.91396
 20
-121.24197
 11
-251.91396
 21
-107.8211
  0
LINE
  8
0
  6
CONTINUOUS
 62
     7
 10
-201.91396
 20
-112.72303
 11
-201.91396
 21
-107.8211
  0
LINE
  8
0
  6
CONTINUOUS
 62
     7
 10
-188.91399
 20
-115.22303
 11
-181.91399
 21
-115.22303
  0
LINE
  8
0
  6
CONTINUOUS
 62
     7
 10
-188.91399
 20
-159.22302
 11
-181.91399
 21
-159.22302
  0
LINE
  8
0
  6
CONTINUOUS
 62
     7
 10
-193.91396
 20
-157.72302
 11
-191.51207
 21
-157.72302
  0
LINE
  8
0
  6
CONTINUOUS
 62
     7
 10
-197.91396
 20
-116.72303
 11
-191.51207
 21
-116.72303
  0
LINE
  8
0
  6
CONTINUOUS
 62
     7
 10
-256.91394
 20
-178.22302
 11
-196.91397
 21
-178.22302
  0
LINE
  8
0
  6
CONTINUOUS
 62
     7
 10
-256.91394
 20
-169.22302
 11
-196.91397
 21
-169.22302
  0
LINE
  8
0
  6
CONTINUOUS
 62
     7
 10
-253.41396
 20
-105.22301
 11
-200.41396
 21
-105.22301
  0
LINE
  8
0
  6
CONTINUOUS
 62
     7
 10
-253.41396
 20
-97.223015
 11
-200.41396
 21
-97.223015
  0
LINE
  8
0
  6
CONTINUOUS
 62
     7
 10
-188.91399
 20
-115.22303
 11
-188.91399
 21
-159.22302
  0
LINE
  8
0
  6
CONTINUOUS
 62
     7
 10
-181.91399
 20
-115.22303
 11
-181.91399
 21
-159.22302
  0
LINE
  8
0
  6
CENTER
 62
     7
 10
-87.783691
 20
-75.047127
 11
-87.783691
 21
-194.81883
  0
LINE
  8
0
  6
CENTER
 62
     7
 10
-119.32574
 20
-133.64713
 11
-28.141285
 21
-133.64713
  0
LINE
  8
0
  6
CONTINUOUS
 62
     7
 10
-57.783676
 20
-179.64713
 11
-57.783676
 21
-188.64713
  0
LINE
  8
0
  6
CONTINUOUS
 62
     7
 10
-117.78366
 20
-179.64713
 11
-117.78366
 21
-188.64713
  0
LINE
  8
0
  6
CONTINUOUS
 62
     7
 10
-59.783661
 20
-173.14713
 11
-59.783661
 21
-176.18301
  0
LINE
  8
0
  6
CONTINUOUS
 62
     7
 10
-115.78366
 20
-160.14713
 11
-115.78366
 21
-176.18301
  0
LINE
  8
0
  6
CONTINUOUS
 62
     7
 10
-114.28366
 20
-87.647102
 11
-114.28366
 21
-79.647102
  0
LINE
  8
0
  6
CONTINUOUS
 62
     7
 10
-61.283661
 20
-87.647102
 11
-61.283661
 21
-79.647102
  0
LINE
  8
0
  6
CONTINUOUS
 62
     7
 10
-112.78366
 20
-94.147118
 11
-112.78366
 21
-90.245186
  0
LINE
  8
0
  6
CONTINUOUS
 62
     7
 10
-62.783661
 20
-94.147118
 11
-62.783661
 21
-90.245186
  0
LINE
  8
0
  6
CONTINUOUS
 62
     7
 10
-46.783691
 20
-97.147118
 11
-35.783691
 21
-97.147118
  0
LINE
  8
0
  6
CONTINUOUS
 62
     7
 10
-46.783691
 20
-170.14713
 11
-35.783691
 21
-170.14713
  0
LINE
  8
0
  6
CONTINUOUS
 62
     7
 10
-57.783661
 20
-99.147118
 11
-50.247787
 21
-99.147118
  0
LINE
  8
0
  6
CONTINUOUS
 62
     7
 10
-54.783661
 20
-168.14713
 11
-50.247787
 21
-168.14713
  0
LINE
  8
0
  6
CONTINUOUS
 62
     7
 10
-46.783691
 20
-97.147118
 11
-46.783691
 21
-170.14713
  0
LINE
  8
0
  6
CONTINUOUS
 62
     7
 10
-35.783691
 20
-97.147118
 11
-35.783691
 21
-170.14713
  0
LINE
  8
0
  6
CONTINUOUS
 62
     7
 10
-117.78366
 20
-188.64713
 11
-57.783676
 21
-188.64713
  0
LINE
  8
0
  6
CONTINUOUS
 62
     7
 10
-117.78366
 20
-180.18301
 11
-57.783676
 21
-180.18301
  0
LINE
  8
0
  6
CONTINUOUS
 62
     7
 10
-114.28366
 20
-87.647102
 11
-61.283661
 21
-87.647102
  0
LINE
  8
0
  6
CONTINUOUS
 62
     7
 10
-114.28366
 20
-79.647102
 11
-61.283661
 21
-79.647102
  0
LINE
  8
0
  6
CENTER
 62
     7
 10
411.41382
 20
127.35629
 11
411.41382
 21
28.396175
  0
LINE
  8
0
  6
CONTINUOUS
 62
     7
 10
374.91382
 20
43.459194
 11
374.91382
 21
32.459194
  0
LINE
  8
0
  6
CONTINUOUS
 62
     7
 10
447.91382
 20
43.459194
 11
447.91382
 21
32.459194
  0
LINE
  8
0
  6
CONTINUOUS
 62
     7
 10
376.91382
 20
50.459194
 11
376.91382
 21
46.923275
  0
LINE
  8
0
  6
CONTINUOUS
 62
     7
 10
445.91382
 20
51.459194
 11
445.91382
 21
46.923275
  0
LINE
  8
0
  6
CONTINUOUS
 62
     7
 10
389.41382
 20
122.4592
 11
389.41382
 21
115.4592
  0
LINE
  8
0
  6
CONTINUOUS
 62
     7
 10
433.41382
 20
122.4592
 11
433.41382
 21
115.4592
  0
LINE
  8
0
  6
CONTINUOUS
 62
     7
 10
390.91382
 20
112.86111
 11
390.91382
 21
110.45886
  0
LINE
  8
0
  6
CONTINUOUS
 62
     7
 10
431.91382
 20
112.86111
 11
431.91382
 21
110.4592
  0
LINE
  8
0
  6
CONTINUOUS
 62
     7
 10
457.41382
 20
53.959194
 11
465.41382
 21
53.959194
  0
LINE
  8
0
  6
CONTINUOUS
 62
     7
 10
457.41382
 20
106.9592
 11
465.41382
 21
106.9592
  0
LINE
  8
0
  6
CONTINUOUS
 62
     7
 10
449.91382
 20
55.459194
 11
454.81573
 21
55.459194
  0
LINE
  8
0
  6
CONTINUOUS
 62
     7
 10
436.91382
 20
105.4592
 11
454.81573
 21
105.4592
  0
LINE
  8
0
  6
CENTER
 62
     7
 10
381.45071
 20
80.459198
 11
470.32709
 21
80.459198
  0
LINE
  8
0
  6
CONTINUOUS
 62
     7
 10
457.41382
 20
106.9592
 11
457.41382
 21
53.959194
  0
LINE
  8
0
  6
CONTINUOUS
 62
     7
 10
465.41382
 20
106.9592
 11
465.41382
 21
53.959194
  0
LINE
  8
0
  6
CONTINUOUS
 62
     7
 10
374.91382
 20
32.459194
 11
447.91382
 21
32.459194
  0
LINE
  8
0
  6
CONTINUOUS
 62
     7
 10
374.91382
 20
43.459194
 11
447.91382
 21
43.459194
  0
LINE
  8
0
  6
CONTINUOUS
 62
     7
 10
389.41382
 20
115.4592
 11
433.41382
 21
115.4592
  0
LINE
  8
0
  6
CONTINUOUS
 62
     7
 10
389.41382
 20
122.4592
 11
433.41382
 21
122.4592
  0
LINE
  8
0
  6
CENTER
 62
     7
 10
531.20447
 20
19.796383
 11
531.20447
 21
129.24472
  0
LINE
  8
0
  6
CENTER
 62
     7
 10
495.21677
 20
79.796356
 11
596.84802
 21
79.796356
  0
LINE
  8
0
  6
CONTINUOUS
 62
     7
 10
494.7045
 20
38.796352
 11
494.7045
 21
27.796352
  0
LINE
  8
0
  6
CONTINUOUS
 62
     7
 10
567.70453
 20
38.796352
 11
567.70453
 21
27.796352
  0
LINE
  8
0
  6
CONTINUOUS
 62
     7
 10
496.7045
 20
46.796352
 11
496.7045
 21
42.260464
  0
LINE
  8
0
  6
CONTINUOUS
 62
     7
 10
565.70453
 20
46.796352
 11
565.70453
 21
42.260464
  0
LINE
  8
0
  6
CONTINUOUS
 62
     7
 10
553.20453
 20
117.79636
 11
553.20453
 21
124.79636
  0
LINE
  8
0
  6
CONTINUOUS
 62
     7
 10
509.2045
 20
117.79636
 11
509.2045
 21
124.79636
  0
LINE
  8
0
  6
CONTINUOUS
 62
     7
 10
551.70453
 20
112.79636
 11
551.70453
 21
115.19827
  0
LINE
  8
0
  6
CONTINUOUS
 62
     7
 10
510.7045
 20
112.79636
 11
510.7045
 21
115.19827
  0
LINE
  8
0
  6
CONTINUOUS
 62
     7
 10
577.20447
 20
49.796352
 11
586.20447
 21
49.796352
  0
LINE
  8
0
  6
CONTINUOUS
 62
     7
 10
577.20447
 20
109.79636
 11
586.20447
 21
109.79636
  0
LINE
  8
0
  6
CONTINUOUS
 62
     7
 10
570.70453
 20
51.796352
 11
573.74036
 21
51.796352
  0
LINE
  8
0
  6
CONTINUOUS
 62
     7
 10
556.70453
 20
107.79636
 11
573.74036
 21
107.79636
  0
LINE
  8
0
  6
CONTINUOUS
 62
     7
 10
577.20447
 20
109.79636
 11
577.20447
 21
49.796352
  0
LINE
  8
0
  6
CONTINUOUS
 62
     7
 10
586.20447
 20
109.79636
 11
586.20447
 21
49.796352
  0
LINE
  8
0
  6
CONTINUOUS
 62
     7
 10
494.7045
 20
38.796352
 11
567.70453
 21
38.796352
  0
LINE
  8
0
  6
CONTINUOUS
 62
     7
 10
494.7045
 20
27.796352
 11
567.70453
 21
27.796352
  0
LINE
  8
0
  6
CONTINUOUS
 62
     7
 10
509.2045
 20
124.79636
 11
553.20453
 21
124.79636
  0
LINE
  8
0
  6
CONTINUOUS
 62
     7
 10
509.2045
 20
117.79636
 11
553.20453
 21
117.79636
  0
LINE
  8
0
  6
CENTER
 62
     7
 10
622.81519
 20
81.035767
 11
714.49976
 21
81.035767
  0
LINE
  8
0
  6
CENTER
 62
     7
 10
659.41241
 20
126.0369
 11
659.41241
 21
31.373867
  0
LINE
  8
0
  6
CONTINUOUS
 62
     7
 10
632.91241
 20
113.03577
 11
632.91241
 21
121.03577
  0
LINE
  8
0
  6
CONTINUOUS
 62
     7
 10
685.91241
 20
113.03577
 11
685.91241
 21
121.03577
  0
LINE
  8
0
  6
CONTINUOUS
 62
     7
 10
634.41241
 20
105.53577
 11
634.41241
 21
110.43768
  0
LINE
  8
0
  6
CONTINUOUS
 62
     7
 10
684.41241
 20
105.53577
 11
684.41241
 21
110.43768
  0
LINE
  8
0
  6
CONTINUOUS
 62
     7
 10
695.91235
 20
48.035763
 11
695.91235
 21
37.035763
  0
LINE
  8
0
  6
CONTINUOUS
 62
     7
 10
622.91235
 20
48.035763
 11
622.91235
 21
37.035763
  0
LINE
  8
0
  6
CONTINUOUS
 62
     7
 10
693.91235
 20
55.535763
 11
693.91235
 21
51.499874
  0
LINE
  8
0
  6
CONTINUOUS
 62
     7
 10
624.91235
 20
55.535763
 11
624.91235
 21
51.499874
  0
LINE
  8
0
  6
CONTINUOUS
 62
     7
 10
703.41241
 20
103.03577
 11
710.41241
 21
103.03577
  0
LINE
  8
0
  6
CONTINUOUS
 62
     7
 10
703.41241
 20
59.035763
 11
710.41241
 21
59.035763
  0
LINE
  8
0
  6
CONTINUOUS
 62
     7
 10
698.91235
 20
60.535763
 11
700.81433
 21
60.535763
  0
LINE
  8
0
  6
CONTINUOUS
 62
     7
 10
688.41241
 20
101.53577
 11
700.81433
 21
101.53577
  0
LINE
  8
0
  6
CONTINUOUS
 62
     7
 10
622.91235
 20
48.035763
 11
695.91235
 21
48.035763
  0
LINE
  8
0
  6
CONTINUOUS
 62
     7
 10
622.91235
 20
37.035763
 11
695.91235
 21
37.035763
  0
LINE
  8
0
  6
CONTINUOUS
 62
     7
 10
632.91241
 20
113.03577
 11
685.91241
 21
113.03577
  0
LINE
  8
0
  6
CONTINUOUS
 62
     7
 10
632.91241
 20
121.03577
 11
685.91241
 21
121.03577
  0
LINE
  8
0
  6
CONTINUOUS
 62
     7
 10
703.41241
 20
103.03577
 11
703.41241
 21
59.035763
  0
LINE
  8
0
  6
CONTINUOUS
 62
     7
 10
710.41241
 20
103.03577
 11
710.41241
 21
59.035763
  0
LINE
  8
0
  6
CENTER
 62
     7
 10
779.96021
 20
130.51447
 11
779.96021
 21
16.444759
  0
LINE
  8
0
  6
CENTER
 62
     7
 10
748.41815
 20
76.316498
 11
842.75262
 21
76.316498
  0
LINE
  8
0
  6
CONTINUOUS
 62
     7
 10
753.46021
 20
116.3165
 11
753.46021
 21
124.3165
  0
LINE
  8
0
  6
CONTINUOUS
 62
     7
 10
754.96021
 20
108.3165
 11
754.96021
 21
113.71841
  0
LINE
  8
0
  6
CONTINUOUS
 62
     7
 10
816.46021
 20
35.316494
 11
816.46021
 21
24.316494
  0
LINE
  8
0
  6
CONTINUOUS
 62
     7
 10
743.46021
 20
35.316494
 11
743.46021
 21
24.316494
  0
LINE
  8
0
  6
CONTINUOUS
 62
     7
 10
814.46021
 20
43.316494
 11
814.46021
 21
38.780605
  0
LINE
  8
0
  6
CONTINUOUS
 62
     7
 10
745.46021
 20
43.316494
 11
745.46021
 21
38.780605
  0
LINE
  8
0
  6
CONTINUOUS
 62
     7
 10
806.46021
 20
116.3165
 11
806.46021
 21
124.3165
  0
LINE
  8
0
  6
CONTINUOUS
 62
     7
 10
804.96021
 20
108.3165
 11
804.96021
 21
113.71841
  0
LINE
  8
0
  6
CONTINUOUS
 62
     7
 10
825.96021
 20
106.3165
 11
834.96021
 21
106.3165
  0
LINE
  8
0
  6
CONTINUOUS
 62
     7
 10
825.96021
 20
46.316494
 11
834.96021
 21
46.316494
  0
LINE
  8
0
  6
CONTINUOUS
 62
     7
 10
808.96021
 20
104.3165
 11
822.49609
 21
104.3165
  0
LINE
  8
0
  6
CONTINUOUS
 62
     7
 10
819.46021
 20
48.316494
 11
822.49609
 21
48.316494
  0
LINE
  8
0
  6
CONTINUOUS
 62
     7
 10
825.96021
 20
106.3165
 11
825.96021
 21
46.316494
  0
LINE
  8
0
  6
CONTINUOUS
 62
     7
 10
834.96021
 20
106.3165
 11
834.96021
 21
46.316494
  0
LINE
  8
0
  6
CONTINUOUS
 62
     7
 10
743.46021
 20
24.316494
 11
816.46021
 21
24.316494
  0
LINE
  8
0
  6
CONTINUOUS
 62
     7
 10
743.46021
 20
34.780605
 11
816.46021
 21
34.780605
  0
LINE
  8
0
  6
CONTINUOUS
 62
     7
 10
753.46021
 20
116.3165
 11
806.46021
 21
116.3165
  0
LINE
  8
0
  6
CONTINUOUS
 62
     7
 10
753.46021
 20
124.3165
 11
806.46021
 21
124.3165
  0
LINE
  8
0
  6
CONTINUOUS
 62
     7
 10
379.62085
 20
-119.40766
 11
379.62085
 21
-130.40764
  0
LINE
  8
0
  6
CONTINUOUS
 62
     7
 10
452.62085
 20
-119.40766
 11
452.62085
 21
-130.40764
  0
LINE
  8
0
  6
CONTINUOUS
 62
     7
 10
381.62085
 20
-112.40763
 11
381.62085
 21
-115.94355
  0
LINE
  8
0
  6
CONTINUOUS
 62
     7
 10
450.62085
 20
-109.90763
 11
450.62085
 21
-115.94355
  0
LINE
  8
0
  6
CONTINUOUS
 62
     7
 10
458.12085
 20
-77.407631
 11
464.12085
 21
-77.407631
  0
LINE
  8
0
  6
CONTINUOUS
 62
     7
 10
458.12085
 20
-107.40763
 11
464.12085
 21
-107.40763
  0
LINE
  8
0
  6
CONTINUOUS
 62
     7
 10
386.12085
 20
-57.407635
 11
386.12085
 21
-66.407631
  0
LINE
  8
0
  6
CONTINUOUS
 62
     7
 10
446.12085
 20
-57.407635
 11
446.12085
 21
-66.407631
  0
LINE
  8
0
  6
CONTINUOUS
 62
     7
 10
388.12085
 20
-69.871742
 11
388.12085
 21
-74.907661
  0
LINE
  8
0
  6
CENTER
 62
     7
 10
416.12085
 20
-50.445263
 11
416.12085
 21
-134.44527
  0
LINE
  8
0
  6
CENTER
 62
     7
 10
380.49274
 20
-92.407631
 11
470.41797
 21
-92.407631
  0
LINE
  8
0
  6
CONTINUOUS
 62
     7
 10
444.12085
 20
-69.871742
 11
444.12085
 21
-74.907631
  0
LINE
  8
0
  6
CONTINUOUS
 62
     7
 10
454.62085
 20
-105.90763
 11
455.52277
 21
-105.90763
  0
LINE
  8
0
  6
CONTINUOUS
 62
     7
 10
448.12085
 20
-78.907631
 11
455.52277
 21
-78.907631
  0
LINE
  8
0
  6
CONTINUOUS
 62
     7
 10
379.62085
 20
-130.40764
 11
452.62085
 21
-130.40764
  0
LINE
  8
0
  6
CONTINUOUS
 62
     7
 10
379.62085
 20
-119.40766
 11
452.62085
 21
-119.40766
  0
LINE
  8
0
  6
CONTINUOUS
 62
     7
 10
386.12085
 20
-57.407635
 11
446.12085
 21
-57.407635
  0
LINE
  8
0
  6
CONTINUOUS
 62
     7
 10
386.12085
 20
-66.407631
 11
446.12085
 21
-66.407631
  0
LINE
  8
0
  6
CONTINUOUS
 62
     7
 10
458.12085
 20
-77.407631
 11
458.12085
 21
-107.40763
  0
LINE
  8
0
  6
CONTINUOUS
 62
     7
 10
464.12085
 20
-77.407631
 11
464.12085
 21
-107.40763
  0
LINE
  8
0
  6
CENTER
 62
     7
 10
494.01175
 20
-92.238899
 11
582.2417
 21
-92.238899
  0
LINE
  8
0
  6
CENTER
 62
     7
 10
527.1543
 20
-49.380962
 11
527.1543
 21
-137.83891
  0
LINE
  8
0
  6
CONTINUOUS
 62
     7
 10
497.15433
 20
-63.238873
 11
497.15433
 21
-54.238873
  0
LINE
  8
0
  6
CONTINUOUS
 62
     7
 10
557.1543
 20
-63.238873
 11
557.1543
 21
-54.238873
  0
LINE
  8
0
  6
CONTINUOUS
 62
     7
 10
499.15433
 20
-71.738899
 11
499.15433
 21
-66.70298
  0
LINE
  8
0
  6
CONTINUOUS
 62
     7
 10
555.1543
 20
-71.738899
 11
555.1543
 21
-66.70298
  0
LINE
  8
0
  6
CONTINUOUS
 62
     7
 10
563.6543
 20
-122.2389
 11
563.6543
 21
-133.23891
  0
LINE
  8
0
  6
CONTINUOUS
 62
     7
 10
490.65433
 20
-122.2389
 11
490.65433
 21
-133.23891
  0
LINE
  8
0
  6
CONTINUOUS
 62
     7
 10
561.6543
 20
-113.7389
 11
561.6543
 21
-118.77479
  0
LINE
  8
0
  6
CONTINUOUS
 62
     7
 10
492.65433
 20
-113.7389
 11
492.65433
 21
-118.77479
  0
LINE
  8
0
  6
CONTINUOUS
 62
     7
 10
570.1543
 20
-74.238899
 11
576.1543
 21
-74.238899
  0
LINE
  8
0
  6
CONTINUOUS
 62
     7
 10
570.1543
 20
-110.2389
 11
576.1543
 21
-110.2389
  0
LINE
  8
0
  6
CONTINUOUS
 62
     7
 10
566.6543
 20
-108.7389
 11
567.55621
 21
-108.7389
  0
LINE
  8
0
  6
CONTINUOUS
 62
     7
 10
559.1543
 20
-75.738899
 11
567.55621
 21
-75.738899
  0
LINE
  8
0
  6
CONTINUOUS
 62
     7
 10
490.65433
 20
-133.23891
 11
563.6543
 21
-133.23891
  0
LINE
  8
0
  6
CONTINUOUS
 62
     7
 10
490.65433
 20
-122.2389
 11
563.6543
 21
-122.2389
  0
LINE
  8
0
  6
CONTINUOUS
 62
     7
 10
497.15433
 20
-63.238873
 11
557.1543
 21
-63.238873
  0
LINE
  8
0
  6
CONTINUOUS
 62
     7
 10
497.15433
 20
-54.238873
 11
557.1543
 21
-54.238873
  0
LINE
  8
0
  6
CONTINUOUS
 62
     7
 10
570.1543
 20
-74.238899
 11
570.1543
 21
-110.2389
  0
LINE
  8
0
  6
CONTINUOUS
 62
     7
 10
576.1543
 20
-74.238899
 11
576.1543
 21
-110.2389
  0
LINE
  8
0
  6
CENTER
 62
     7
 10
617.57434
 20
-93.540962
 11
709.25891
 21
-93.540962
  0
LINE
  8
0
  6
CENTER
 62
     7
 10
654.17157
 20
-48.539837
 11
654.17157
 21
-143.20287
  0
LINE
  8
0
  6
CONTINUOUS
 62
     7
 10
624.17157
 20
-61.540966
 11
624.17157
 21
-52.540966
  0
LINE
  8
0
  6
CONTINUOUS
 62
     7
 10
684.17157
 20
-61.540966
 11
684.17157
 21
-52.540966
  0
LINE
  8
0
  6
CONTINUOUS
 62
     7
 10
626.17157
 20
-72.665169
 11
626.17157
 21
-65.005043
  0
LINE
  8
0
  6
CONTINUOUS
 62
     7
 10
682.17157
 20
-69.040962
 11
682.17157
 21
-65.005043
  0
LINE
  8
0
  6
CONTINUOUS
 62
     7
 10
690.67151
 20
-126.54096
 11
690.67151
 21
-137.54097
  0
LINE
  8
0
  6
CONTINUOUS
 62
     7
 10
617.67157
 20
-126.54096
 11
617.67157
 21
-137.54097
  0
LINE
  8
0
  6
CONTINUOUS
 62
     7
 10
688.67151
 20
-119.04096
 11
688.67151
 21
-123.07688
  0
LINE
  8
0
  6
CONTINUOUS
 62
     7
 10
619.67157
 20
-119.04096
 11
619.67157
 21
-123.07688
  0
LINE
  8
0
  6
CONTINUOUS
 62
     7
 10
698.17157
 20
-71.540962
 11
705.17157
 21
-71.540962
  0
LINE
  8
0
  6
CONTINUOUS
 62
     7
 10
698.17157
 20
-115.54096
 11
705.17157
 21
-115.54096
  0
LINE
  8
0
  6
CONTINUOUS
 62
     7
 10
693.67151
 20
-114.04096
 11
695.57349
 21
-114.04096
  0
LINE
  8
0
  6
CONTINUOUS
 62
     7
 10
686.17157
 20
-73.040962
 11
695.57349
 21
-73.040962
  0
LINE
  8
0
  6
CONTINUOUS
 62
     7
 10
698.57349
 20
-71.540962
 11
698.57349
 21
-115.54096
  0
LINE
  8
0
  6
CONTINUOUS
 62
     7
 10
705.17157
 20
-71.540962
 11
705.17157
 21
-115.54096
  0
LINE
  8
0
  6
CONTINUOUS
 62
     7
 10
617.67157
 20
-137.54097
 11
690.67151
 21
-137.54097
  0
LINE
  8
0
  6
CONTINUOUS
 62
     7
 10
617.67157
 20
-126.54096
 11
690.67151
 21
-126.54096
  0
LINE
  8
0
  6
CONTINUOUS
 62
     7
 10
624.17157
 20
-61.540966
 11
684.17157
 21
-61.540966
  0
LINE
  8
0
  6
CONTINUOUS
 62
     7
 10
624.17157
 20
-52.540966
 11
684.17157
 21
-52.540966
  0
LINE
  8
0
  6
CENTER
 62
     7
 10
780.84924
 20
-49.667187
 11
780.84924
 21
-157.86549
  0
LINE
  8
0
  6
CENTER
 62
     7
 10
745.12158
 20
-102.81007
 11
839.97382
 21
-102.81007
  0
LINE
  8
0
  6
CONTINUOUS
 62
     7
 10
750.84924
 20
-66.810066
 11
750.84924
 21
-57.81007
  0
LINE
  8
0
  6
CONTINUOUS
 62
     7
 10
810.84924
 20
-66.810066
 11
810.84924
 21
-57.81007
  0
LINE
  8
0
  6
CONTINUOUS
 62
     7
 10
752.84924
 20
-84.765602
 11
752.84924
 21
-70.274178
  0
LINE
  8
0
  6
CONTINUOUS
 62
     7
 10
808.84924
 20
-73.810066
 11
808.84924
 21
-70.274178
  0
LINE
  8
0
  6
CONTINUOUS
 62
     7
 10
817.34924
 20
-139.81007
 11
817.34924
 21
-150.81007
  0
LINE
  8
0
  6
CONTINUOUS
 62
     7
 10
744.34918
 20
-139.81007
 11
744.34918
 21
-150.81007
  0
LINE
  8
0
  6
CONTINUOUS
 62
     7
 10
815.34924
 20
-132.81007
 11
815.34924
 21
-136.34596
  0
LINE
  8
0
  6
CONTINUOUS
 62
     7
 10
746.34918
 20
-132.81007
 11
746.34918
 21
-136.34596
  0
LINE
  8
0
  6
CONTINUOUS
 62
     7
 10
826.84924
 20
-76.310066
 11
834.84924
 21
-76.310066
  0
LINE
  8
0
  6
CONTINUOUS
 62
     7
 10
826.84924
 20
-129.31007
 11
834.84924
 21
-129.31007
  0
LINE
  8
0
  6
CONTINUOUS
 62
     7
 10
820.34924
 20
-127.81007
 11
824.25116
 21
-127.81007
  0
LINE
  8
0
  6
CONTINUOUS
 62
     7
 10
812.84924
 20
-77.810066
 11
824.25116
 21
-77.810066
  0
LINE
  8
0
  6
CONTINUOUS
 62
     7
 10
744.34918
 20
-150.81007
 11
817.34924
 21
-150.81007
  0
LINE
  8
0
  6
CONTINUOUS
 62
     7
 10
744.34918
 20
-139.81007
 11
817.34924
 21
-139.81007
  0
LINE
  8
0
  6
CONTINUOUS
 62
     7
 10
750.84924
 20
-66.810066
 11
810.84924
 21
-66.810066
  0
LINE
  8
0
  6
CONTINUOUS
 62
     7
 10
750.84924
 20
-57.81007
 11
810.84924
 21
-57.81007
  0
LINE
  8
0
  6
CONTINUOUS
 62
     7
 10
826.84924
 20
-76.310066
 11
826.84924
 21
-129.31007
  0
LINE
  8
0
  6
CONTINUOUS
 62
     7
 10
834.84924
 20
-76.310066
 11
834.84924
 21
-129.31007
  0
LINE
  8
0
  6
CENTER
 62
     7
 10
-242.16046
 20
-356.2847
 11
-138.69312
 21
-356.2847
  0
LINE
  8
0
  6
CENTER
 62
     7
 10
-205.56325
 20
-306.68472
 11
-205.56325
 21
-413.2847
  0
LINE
  8
0
  6
CONTINUOUS
 62
     7
 10
-235.56323
 20
-320.2847
 11
-235.56323
 21
-311.2847
  0
LINE
  8
0
  6
CONTINUOUS
 62
     7
 10
-175.56323
 20
-320.2847
 11
-175.56323
 21
-311.2847
  0
LINE
  8
0
  6
CONTINUOUS
 62
     7
 10
-233.56323
 20
-326.2847
 11
-233.56323
 21
-323.74875
  0
LINE
  8
0
  6
CONTINUOUS
 62
     7
 10
-177.56323
 20
-326.2847
 11
-177.56323
 21
-323.74875
  0
LINE
  8
0
  6
CONTINUOUS
 62
     7
 10
-160.06326
 20
-396.2847
 11
-160.06326
 21
-408.2847
  0
LINE
  8
0
  6
CONTINUOUS
 62
     7
 10
-251.06326
 20
-396.2847
 11
-251.06326
 21
-408.2847
  0
LINE
  8
0
  6
CONTINUOUS
 62
     7
 10
-162.56326
 20
-386.2847
 11
-162.56326
 21
-391.41129
  0
LINE
  8
0
  6
CONTINUOUS
 62
     7
 10
-248.56326
 20
-386.2847
 11
-248.56326
 21
-391.41129
  0
LINE
  8
0
  6
CONTINUOUS
 62
     7
 10
-151.56325
 20
-329.7847
 11
-143.56325
 21
-329.7847
  0
LINE
  8
0
  6
CONTINUOUS
 62
     7
 10
-151.56325
 20
-382.7847
 11
-143.56325
 21
-382.7847
  0
LINE
  8
0
  6
CONTINUOUS
 62
     7
 10
-157.56326
 20
-381.2847
 11
-154.16132
 21
-381.2847
  0
LINE
  8
0
  6
CONTINUOUS
 62
     7
 10
-172.56323
 20
-331.2847
 11
-154.16132
 21
-331.2847
  0
LINE
  8
0
  6
CONTINUOUS
 62
     7
 10
-151.56325
 20
-329.7847
 11
-151.56325
 21
-382.7847
  0
LINE
  8
0
  6
CONTINUOUS
 62
     7
 10
-143.56325
 20
-329.7847
 11
-143.56325
 21
-382.7847
  0
LINE
  8
0
  6
CONTINUOUS
 62
     7
 10
-251.06326
 20
-408.2847
 11
-160.06326
 21
-408.2847
  0
LINE
  8
0
  6
CONTINUOUS
 62
     7
 10
-251.06326
 20
-396.2847
 11
-160.06326
 21
-396.2847
  0
LINE
  8
0
  6
CONTINUOUS
 62
     7
 10
-235.56323
 20
-320.2847
 11
-175.56323
 21
-320.2847
  0
LINE
  8
0
  6
CONTINUOUS
 62
     7
 10
-235.56323
 20
-311.2847
 11
-175.56323
 21
-311.2847
  0
LINE
  8
0
  6
CENTER
 62
     7
 10
-111.35661
 20
-358.60196
 11
2.2156005
 21
-358.60196
  0
LINE
  8
0
  6
CONTINUOUS
 62
     7
 10
-103.02678
 20
-325.60196
 11
-103.02678
 21
-314.60196
  0
LINE
  8
0
  6
CONTINUOUS
 62
     7
 10
-30.026775
 20
-325.60196
 11
-30.026775
 21
-314.60196
  0
LINE
  8
0
  6
CONTINUOUS
 62
     7
 10
-101.02678
 20
-333.10196
 11
-101.02678
 21
-329.06607
  0
LINE
  8
0
  6
CONTINUOUS
 62
     7
 10
-32.026775
 20
-333.10196
 11
-32.026775
 21
-329.06607
  0
LINE
  8
0
  6
CONTINUOUS
 62
     7
 10
-21.026775
 20
-394.60196
 11
-21.026775
 21
-406.60196
  0
LINE
  8
0
  6
CONTINUOUS
 62
     7
 10
-112.02678
 20
-394.60196
 11
-112.02678
 21
-406.60196
  0
LINE
  8
0
  6
CONTINUOUS
 62
     7
 10
-23.526775
 20
-384.10196
 11
-23.526775
 21
-389.72855
  0
LINE
  8
0
  6
CONTINUOUS
 62
     7
 10
-109.52678
 20
-384.10196
 11
-109.52678
 21
-389.72855
  0
LINE
  8
0
  6
CONTINUOUS
 62
     7
 10
-13.526807
 20
-336.60196
 11
-6.5268064
 21
-336.60196
  0
LINE
  8
0
  6
CONTINUOUS
 62
     7
 10
-13.526807
 20
-380.60196
 11
-6.5268064
 21
-380.60196
  0
LINE
  8
0
  6
CONTINUOUS
 62
     7
 10
-18.526775
 20
-379.10196
 11
-16.124889
 21
-379.10196
  0
LINE
  8
0
  6
CONTINUOUS
 62
     7
 10
-27.026775
 20
-338.10196
 11
-16.124889
 21
-338.10196
  0
LINE
  8
0
  6
CENTER
 62
     7
 10
-66.526779
 20
-305.42368
 11
-66.526779
 21
-416.37369
  0
LINE
  8
0
  6
CONTINUOUS
 62
     7
 10
-112.02678
 20
-406.60196
 11
-21.026775
 21
-406.60196
  0
LINE
  8
0
  6
CONTINUOUS
 62
     7
 10
-112.02678
 20
-394.60196
 11
-21.026775
 21
-394.60196
  0
LINE
  8
0
  6
CONTINUOUS
 62
     7
 10
-103.02678
 20
-325.60196
 11
-30.026775
 21
-325.60196
  0
LINE
  8
0
  6
CONTINUOUS
 62
     7
 10
-103.02678
 20
-314.60196
 11
-30.026775
 21
-314.60196
  0
LINE
  8
0
  6
CONTINUOUS
 62
     7
 10
-13.526807
 20
-336.60196
 11
-13.526807
 21
-380.60196
  0
LINE
  8
0
  6
CONTINUOUS
 62
     7
 10
-6.5268064
 20
-336.60196
 11
-6.5268064
 21
-380.60196
  0
LINE
  8
0
  6
CENTER
 62
     7
 10
38.405201
 20
-358.60196
 11
147.12584
 21
-358.60196
  0
LINE
  8
0
  6
CENTER
 62
     7
 10
80.525841
 20
-306.00195
 11
80.525841
 21
-415.60199
  0
LINE
  8
0
  6
CONTINUOUS
 62
     7
 10
44.025867
 20
-321.60196
 11
44.025867
 21
-310.60196
  0
LINE
  8
0
  6
CONTINUOUS
 62
     7
 10
117.02586
 20
-321.60196
 11
117.02586
 21
-310.60196
  0
LINE
  8
0
  6
CONTINUOUS
 62
     7
 10
46.025867
 20
-327.60196
 11
46.025867
 21
-325.06607
  0
LINE
  8
0
  6
CONTINUOUS
 62
     7
 10
115.02586
 20
-327.60196
 11
115.02586
 21
-325.06607
  0
LINE
  8
0
  6
CONTINUOUS
 62
     7
 10
126.02579
 20
-398.60196
 11
126.02579
 21
-410.60196
  0
LINE
  8
0
  6
CONTINUOUS
 62
     7
 10
35.025806
 20
-398.60196
 11
35.025806
 21
-410.60196
  0
LINE
  8
0
  6
CONTINUOUS
 62
     7
 10
123.52579
 20
-389.60196
 11
123.52579
 21
-393.72855
  0
LINE
  8
0
  6
CONTINUOUS
 62
     7
 10
37.525806
 20
-389.60196
 11
37.525806
 21
-393.72855
  0
LINE
  8
0
  6
CONTINUOUS
 62
     7
 10
134.52583
 20
-332.10196
 11
142.52583
 21
-332.10196
  0
LINE
  8
0
  6
CONTINUOUS
 62
     7
 10
134.52583
 20
-385.10196
 11
142.52583
 21
-385.10196
  0
LINE
  8
0
  6
CONTINUOUS
 62
     7
 10
129.52579
 20
-383.60196
 11
131.92775
 21
-383.60196
  0
LINE
  8
0
  6
CONTINUOUS
 62
     7
 10
121.02586
 20
-333.60196
 11
131.92775
 21
-333.60196
  0
LINE
  8
0
  6
CONTINUOUS
 62
     7
 10
134.52583
 20
-332.10196
 11
134.52583
 21
-385.10196
  0
LINE
  8
0
  6
CONTINUOUS
 62
     7
 10
142.52583
 20
-332.10196
 11
142.52583
 21
-385.10196
  0
LINE
  8
0
  6
CONTINUOUS
 62
     7
 10
35.025806
 20
-410.60196
 11
126.02579
 21
-410.60196
  0
LINE
  8
0
  6
CONTINUOUS
 62
     7
 10
35.025806
 20
-398.60196
 11
126.02579
 21
-398.60196
  0
LINE
  8
0
  6
CONTINUOUS
 62
     7
 10
44.025867
 20
-321.60196
 11
117.02586
 21
-321.60196
  0
LINE
  8
0
  6
CONTINUOUS
 62
     7
 10
44.025867
 20
-310.60196
 11
117.02586
 21
-310.60196
  0
LINE
  8
0
  6
CENTER
 62
     7
 10
210.57431
 20
-419.37924
 11
210.57431
 21
-302.77927
  0
LINE
  8
0
  6
CENTER
 62
     7
 10
167.77075
 20
-359.37927
 11
279.7179
 21
-359.37927
  0
LINE
  8
0
  6
CONTINUOUS
 62
     7
 10
165.07434
 20
-402.37927
 11
165.07434
 21
-414.37927
  0
LINE
  8
0
  6
CONTINUOUS
 62
     7
 10
256.07434
 20
-402.37927
 11
256.07434
 21
-414.37927
  0
LINE
  8
0
  6
CONTINUOUS
 62
     7
 10
167.57434
 20
-392.37927
 11
167.57434
 21
-397.50586
  0
LINE
  8
0
  6
CONTINUOUS
 62
     7
 10
253.57434
 20
-392.37927
 11
253.57434
 21
-397.50586
  0
LINE
  8
0
  6
CONTINUOUS
 62
     7
 10
247.07434
 20
-318.37927
 11
247.07434
 21
-307.37927
  0
LINE
  8
0
  6
CONTINUOUS
 62
     7
 10
174.07434
 20
-318.37927
 11
174.07434
 21
-307.37927
  0
LINE
  8
0
  6
CONTINUOUS
 62
     7
 10
245.07434
 20
-326.37927
 11
245.07434
 21
-321.84338
  0
LINE
  8
0
  6
CONTINUOUS
 62
     7
 10
176.07434
 20
-326.37927
 11
176.07434
 21
-321.84338
  0
LINE
  8
0
  6
CONTINUOUS
 62
     7
 10
263.57431
 20
-389.37927
 11
272.57431
 21
-389.37927
  0
LINE
  8
0
  6
CONTINUOUS
 62
     7
 10
263.57431
 20
-329.37927
 11
272.57431
 21
-329.37927
  0
LINE
  8
0
  6
CONTINUOUS
 62
     7
 10
258.57434
 20
-387.37927
 11
260.11023
 21
-387.37927
  0
LINE
  8
0
  6
CONTINUOUS
 62
     7
 10
250.07434
 20
-331.37927
 11
260.11023
 21
-331.37927
  0
LINE
  8
0
  6
CONTINUOUS
 62
     7
 10
174.07434
 20
-307.37927
 11
247.07434
 21
-307.37927
  0
LINE
  8
0
  6
CONTINUOUS
 62
     7
 10
174.07434
 20
-318.37927
 11
247.07434
 21
-318.37927
  0
LINE
  8
0
  6
CONTINUOUS
 62
     7
 10
165.07434
 20
-402.37927
 11
256.07434
 21
-402.37927
  0
LINE
  8
0
  6
CONTINUOUS
 62
     7
 10
165.07434
 20
-414.37927
 11
256.07434
 21
-414.37927
  0
LINE
  8
0
  6
CONTINUOUS
 62
     7
 10
263.57431
 20
-389.37927
 11
263.57431
 21
-329.37927
  0
LINE
  8
0
  6
CONTINUOUS
 62
     7
 10
272.57431
 20
-389.37927
 11
272.57431
 21
-329.37927
  0
LINE
  8
0
  6
CENTER
 62
     7
 10
187.83586
 20
-40.599998
 11
268.64261
 21
-40.599998
  0
LINE
  8
0
  6
CENTER
 62
     7
 10
218.925
 20
2.2579408
 11
218.925
 21
-83.627007
  0
LINE
  8
0
  6
CONTINUOUS
 62
     7
 10
192.42502
 20
-10.599985
 11
192.42502
 21
-2.5999846
  0
LINE
  8
0
  6
CONTINUOUS
 62
     7
 10
245.425
 20
-10.599985
 11
245.425
 21
-2.5999846
  0
LINE
  8
0
  6
CONTINUOUS
 62
     7
 10
193.92502
 20
-20.1
 11
193.92502
 21
-13.198053
  0
LINE
  8
0
  6
CONTINUOUS
 62
     7
 10
243.925
 20
-20.1
 11
243.925
 21
-13.198053
  0
LINE
  8
0
  6
CONTINUOUS
 62
     7
 10
248.925
 20
-69.599998
 11
248.925
 21
-78.599998
  0
LINE
  8
0
  6
CONTINUOUS
 62
     7
 10
188.92502
 20
-69.599998
 11
188.92502
 21
-78.599998
  0
LINE
  8
0
  6
CONTINUOUS
 62
     7
 10
246.925
 20
-61.099998
 11
246.925
 21
-66.135887
  0
LINE
  8
0
  6
CONTINUOUS
 62
     7
 10
190.92502
 20
-61.099998
 11
190.92502
 21
-66.135887
  0
LINE
  8
0
  6
CONTINUOUS
 62
     7
 10
255.925
 20
-22.6
 11
261.92499
 21
-22.6
  0
LINE
  8
0
  6
CONTINUOUS
 62
     7
 10
255.925
 20
-58.599998
 11
261.92499
 21
-58.599998
  0
LINE
  8
0
  6
CONTINUOUS
 62
     7
 10
250.925
 20
-57.099998
 11
253.32692
 21
-57.099998
  0
LINE
  8
0
  6
CONTINUOUS
 62
     7
 10
247.925
 20
-24.1
 11
253.32692
 21
-24.1
  0
LINE
  8
0
  6
CONTINUOUS
 62
     7
 10
255.925
 20
-22.6
 11
255.925
 21
-58.599998
  0
LINE
  8
0
  6
CONTINUOUS
 62
     7
 10
261.92499
 20
-22.6
 11
261.92499
 21
-58.599998
  0
LINE
  8
0
  6
CONTINUOUS
 62
     7
 10
192.42502
 20
-2.5999846
 11
245.425
 21
-2.5999846
  0
LINE
  8
0
  6
CONTINUOUS
 62
     7
 10
192.42502
 20
-10.599985
 11
245.425
 21
-10.599985
  0
LINE
  8
0
  6
CONTINUOUS
 62
     7
 10
188.92502
 20
-69.599998
 11
248.925
 21
-69.599998
  0
LINE
  8
0
  6
CONTINUOUS
 62
     7
 10
188.92502
 20
-78.599998
 11
248.925
 21
-78.599998
  0
ARC
  8
0
  6
CONTINUOUS
 62
     7
 10
-248.34512
 20
153.90277
 40
3
 50
359.99999
 51
59.999988
  0
ARC
  8
0
  6
CONTINUOUS
 62
     7
 10
-209.34512
 20
153.90277
 40
3
 50
120
 51
179.99999
  0
ARC
  8
0
  6
CONTINUOUS
 62
     7
 10
-205.34512
 20
111.09895
 40
3
 50
180.00001
 51
240
  0
ARC
  8
0
  6
CONTINUOUS
 62
     7
 10
-252.34512
 20
111.09895
 40
3
 50
300.00001
 51
6.8301892E-006
  0
ARC
  8
0
  6
CONTINUOUS
 62
     7
 10
-204.44321
 20
150.00085
 40
3
 50
269.99999
 51
329.99998
  0
ARC
  8
0
  6
CONTINUOUS
 62
     7
 10
-204.44321
 20
117.00086
 40
3
 50
29.999994
 51
89.999996
  0
ARC
  8
0
  6
CONTINUOUS
 62
     7
 10
-208.84512
 20
150.50085
 40
3.5
 50
179.99998
 51
270.00003
  0
ARC
  8
0
  6
CONTINUOUS
 62
     7
 10
-204.84512
 20
116.50086
 40
3.5
 50
89.999982
 51
179.99996
  0
ARC
  8
0
  6
CONTINUOUS
 62
     7
 10
-361.34509
 20
150.50085
 40
115.99998
 50
346.58033
 51
360
  0
ARC
  8
0
  6
CONTINUOUS
 62
     7
 10
-218.84511
 20
116.50086
 40
30.5
 50
166.58034
 51
179.99996
  0
ARC
  8
0
  6
CONTINUOUS
 62
     7
 10
-180.72093
 20
106.3989
 40
3
 50
300.00001
 51
6.8301892E-006
  0
ARC
  8
0
  6
CONTINUOUS
 62
     7
 10
-140.7209
 20
112.30081
 40
37
 50
148.29617
 51
179.99996
  0
ARC
  8
0
  6
CONTINUOUS
 62
     7
 10
-206.28612
 20
152.80081
 40
40.065216
 50
328.29614
 51
0
  0
ARC
  8
0
  6
CONTINUOUS
 62
     7
 10
-169.22093
 20
154.20273
 40
3
 50
359.99999
 51
59.999988
  0
ARC
  8
0
  6
CONTINUOUS
 62
     7
 10
-136.22093
 20
154.20273
 40
3
 50
120
 51
179.99999
  0
ARC
  8
0
  6
CONTINUOUS
 62
     7
 10
-135.7209
 20
152.80081
 40
3.5
 50
179.99998
 51
270.00003
  0
ARC
  8
0
  6
CONTINUOUS
 62
     7
 10
-121.31902
 20
152.30081
 40
3
 50
270
 51
329.99999
  0
ARC
  8
0
  6
CONTINUOUS
 62
     7
 10
-121.31902
 20
113.30081
 40
3
 50
30.000001
 51
90.000003
  0
ARC
  8
0
  6
CONTINUOUS
 62
     7
 10
-123.72092
 20
112.30081
 40
4
 50
89.999982
 51
179.99996
  0
ARC
  8
0
  6
CONTINUOUS
 62
     7
 10
-124.72093
 20
106.3989
 40
3
 50
180.00001
 51
240
  0
ARC
  8
0
  6
CONTINUOUS
 62
     7
 10
-91.050003
 20
152.25192
 40
3
 50
359.99999
 51
59.999988
  0
ARC
  8
0
  6
CONTINUOUS
 62
     7
 10
-44.049999
 20
152.25192
 40
3
 50
120
 51
179.99999
  0
ARC
  8
0
  6
CONTINUOUS
 62
     7
 10
-38.148083
 20
146.35001
 40
3
 50
270
 51
329.99999
  0
ARC
  8
0
  6
CONTINUOUS
 62
     7
 10
-38.148083
 20
113.35
 40
3
 50
30.000001
 51
90.000003
  0
ARC
  8
0
  6
CONTINUOUS
 62
     7
 10
-39.549999
 20
106.44808
 40
3
 50
180.00001
 51
240
  0
ARC
  8
0
  6
CONTINUOUS
 62
     7
 10
-95.550003
 20
106.44808
 40
3
 50
300.00001
 51
0
  0
ARC
  8
0
  6
CONTINUOUS
 62
     7
 10
-43.549969
 20
146.85001
 40
3.5
 50
179.99998
 51
270.00003
  0
ARC
  8
0
  6
CONTINUOUS
 62
     7
 10
-38.55003
 20
112.35
 40
4
 50
89.999982
 51
179.99996
  0
ARC
  8
0
  6
CONTINUOUS
 62
     7
 10
-191.5482
 20
146.85001
 40
103.49824
 50
345.13699
 51
360
  0
ARC
  8
0
  6
CONTINUOUS
 62
     7
 10
-61.55003
 20
112.35
 40
31
 50
165.13699
 51
179.99996
  0
ARC
  8
0
  6
CONTINUOUS
 62
     7
 10
-1.275
 20
153.90192
 40
3
 50
0
 51
59.999988
  0
ARC
  8
0
  6
CONTINUOUS
 62
     7
 10
45.724998
 20
153.90192
 40
3
 50
120
 51
179.99999
  0
ARC
  8
0
  6
CONTINUOUS
 62
     7
 10
50.224998
 20
103.09808
 40
3
 50
180.00001
 51
240
  0
ARC
  8
0
  6
CONTINUOUS
 62
     7
 10
-5.7750001
 20
103.09808
 40
3
 50
300.00001
 51
6.8301892E-006
  0
ARC
  8
0
  6
CONTINUOUS
 62
     7
 10
53.626915
 20
149
 40
3
 50
270
 51
329.99999
  0
ARC
  8
0
  6
CONTINUOUS
 62
     7
 10
53.626915
 20
110
 40
3
 50
30.000001
 51
90.000003
  0
ARC
  8
0
  6
CONTINUOUS
 62
     7
 10
51.225014
 20
109
 40
4
 50
89.999982
 51
179.99996
  0
ARC
  8
0
  6
CONTINUOUS
 62
     7
 10
46.224998
 20
149.5
 40
3.5
 50
179.99998
 51
270.00003
  0
ARC
  8
0
  6
CONTINUOUS
 62
     7
 10
-140.97495
 20
149.5
 40
143
 50
348.28583
 51
356.2879
  0
ARC
  8
0
  6
CONTINUOUS
 62
     7
 10
34.225029
 20
109
 40
37
 50
161.94603
 51
179.99996
  0
ARC
  8
0
  6
CONTINUOUS
 62
     7
 10
96.550003
 20
155.10191
 40
3
 50
359.99999
 51
59.999988
  0
ARC
  8
0
  6
CONTINUOUS
 62
     7
 10
143.55
 20
155.10191
 40
3
 50
120
 51
179.99999
  0
ARC
  8
0
  6
CONTINUOUS
 62
     7
 10
148.05
 20
82.29808
 40
3
 50
180.00001
 51
240
  0
ARC
  8
0
  6
CONTINUOUS
 62
     7
 10
92.050003
 20
82.29808
 40
3
 50
300.00001
 51
6.8301892E-006
  0
ARC
  8
0
  6
CONTINUOUS
 62
     7
 10
152.58591
 20
151.7
 40
4
 50
270
 51
329.99999
  0
ARC
  8
0
  6
CONTINUOUS
 62
     7
 10
152.58591
 20
87.699997
 40
4
 50
30.000001
 51
90.000003
  0
ARC
  8
0
  6
CONTINUOUS
 62
     7
 10
144.55003
 20
151.7
 40
4
 50
179.99998
 51
270.00003
  0
ARC
  8
0
  6
CONTINUOUS
 62
     7
 10
149.05003
 20
87.699997
 40
4
 50
89.999982
 51
179.99996
  0
ARC
  8
0
  6
CONTINUOUS
 62
     7
 10
-223.37779
 20
151.7
 40
323
 50
351.63936
 51
358.78875
  0
ARC
  8
0
  6
CONTINUOUS
 62
     7
 10
149.05003
 20
93.699997
 40
54
 50
168.2088
 51
179.99996
  0
ARC
  8
0
  6
CONTINUOUS
 62
     7
 10
199.27499
 20
154.45192
 40
3
 50
359.99999
 51
59.999988
  0
ARC
  8
0
  6
CONTINUOUS
 62
     7
 10
246.27499
 20
154.45192
 40
3
 50
120
 51
179.99999
  0
ARC
  8
0
  6
CONTINUOUS
 62
     7
 10
250.77499
 20
69.648087
 40
3
 50
180.00001
 51
240
  0
ARC
  8
0
  6
CONTINUOUS
 62
     7
 10
194.77499
 20
69.648087
 40
3
 50
300.00001
 51
6.8301892E-006
  0
ARC
  8
0
  6
CONTINUOUS
 62
     7
 10
256.31091
 20
151.55
 40
4
 50
270
 51
329.99999
  0
ARC
  8
0
  6
CONTINUOUS
 62
     7
 10
256.31091
 20
74.550003
 40
4
 50
30.000001
 51
90.000003
  0
ARC
  8
0
  6
CONTINUOUS
 62
     7
 10
249.27502
 20
153.55
 40
6
 50
179.99998
 51
270.00003
  0
ARC
  8
0
  6
CONTINUOUS
 62
     7
 10
252.77502
 20
73.550003
 40
5
 50
89.999982
 51
179.99996
  0
ARC
  8
0
  6
CONTINUOUS
 62
     7
 10
-158.41953
 20
153.55002
 40
360.69455
 50
351.56181
 51
360
  0
ARC
  8
0
  6
CONTINUOUS
 62
     7
 10
252.77502
 20
92.550003
 40
55
 50
171.56183
 51
179.99996
  0
ARC
  8
0
  6
CONTINUOUS
 62
     7
 10
-252.61382
 20
25.299723
 40
3
 50
359.99999
 51
59.999988
  0
ARC
  8
0
  6
CONTINUOUS
 62
     7
 10
-213.61382
 20
25.299723
 40
3
 50
120
 51
179.99996
  0
ARC
  8
0
  6
CONTINUOUS
 62
     7
 10
-201.11382
 20
-29.638083
 40
4
 50
179.99999
 51
240.00001
  0
ARC
  8
0
  6
CONTINUOUS
 62
     7
 10
-265.11383
 20
-29.638083
 40
4
 50
300.00001
 51
0
  0
ARC
  8
0
  6
CONTINUOUS
 62
     7
 10
-197.7119
 20
22.397806
 40
3
 50
270
 51
329.99999
  0
ARC
  8
0
  6
CONTINUOUS
 62
     7
 10
-197.7119
 20
-24.602194
 40
3
 50
30.000001
 51
90.000003
  0
ARC
  8
0
  6
CONTINUOUS
 62
     7
 10
-213.11378
 20
22.897806
 40
3.5
 50
179.99998
 51
270.00003
  0
ARC
  8
0
  6
CONTINUOUS
 62
     7
 10
-201.11383
 20
-25.602194
 40
4
 50
89.999982
 51
179.99996
  0
ARC
  8
0
  6
CONTINUOUS
 62
     7
 10
-216.11382
 20
-25.602194
 40
45
 50
89.999982
 51
90.59496
  0
ARC
  8
0
  6
CONTINUOUS
 62
     7
 10
-312.63528
 20
22.897806
 40
63.021484
 50
333.32144
 51
360
  0
ARC
  8
0
  6
CONTINUOUS
 62
     7
 10
-216.11382
 20
-25.602194
 40
45
 50
153.32145
 51
179.99996
  0
ARC
  8
0
  6
CONTINUOUS
 62
     7
 10
-96.934418
 20
-25.094812
 40
4
 50
180.00001
 51
240
  0
ARC
  8
0
  6
CONTINUOUS
 62
     7
 10
-160.93442
 20
-25.094812
 40
4
 50
300.00001
 51
0
  0
ARC
  8
0
  6
CONTINUOUS
 62
     7
 10
-152.43442
 20
39.842995
 40
3
 50
359.99999
 51
59.999988
  0
ARC
  8
0
  6
CONTINUOUS
 62
     7
 10
-105.43442
 20
39.842995
 40
3
 50
120
 51
179.99999
  0
ARC
  8
0
  6
CONTINUOUS
 62
     7
 10
-91.532501
 20
35.441078
 40
3
 50
270
 51
329.99999
  0
ARC
  8
0
  6
CONTINUOUS
 62
     7
 10
-91.532501
 20
-20.558924
 40
3
 50
30.000001
 51
90.000003
  0
ARC
  8
0
  6
CONTINUOUS
 62
     7
 10
-103.43439
 20
37.441078
 40
5
 50
179.99998
 51
270.00003
  0
ARC
  8
0
  6
CONTINUOUS
 62
     7
 10
-95.934448
 20
-22.558924
 40
5
 50
89.999982
 51
179.99996
  0
ARC
  8
0
  6
CONTINUOUS
 62
     7
 10
-338.18246
 20
37.441078
 40
188.74808
 50
345.74985
 51
360
  0
ARC
  8
0
  6
CONTINUOUS
 62
     7
 10
-101.93445
 20
-22.558924
 40
55
 50
165.74987
 51
179.99996
  0
ARC
  8
0
  6
CONTINUOUS
 62
     7
 10
-29.717081
 20
44.433987
 40
3
 50
359.99999
 51
59.999988
  0
ARC
  8
0
  6
CONTINUOUS
 62
     7
 10
17.282921
 20
44.433987
 40
3
 50
120
 51
179.99999
  0
ARC
  8
0
  6
CONTINUOUS
 62
     7
 10
25.782921
 20
-39.503815
 40
4
 50
180.00001
 51
240
  0
ARC
  8
0
  6
CONTINUOUS
 62
     7
 10
-38.217083
 20
-39.503815
 40
4
 50
300.00001
 51
6.8301892E-006
  0
ARC
  8
0
  6
CONTINUOUS
 62
     7
 10
31.318825
 20
41.53207
 40
4
 50
270
 51
329.99999
  0
ARC
  8
0
  6
CONTINUOUS
 62
     7
 10
31.318825
 20
-35.467926
 40
4
 50
30.000001
 51
90.000003
  0
ARC
  8
0
  6
CONTINUOUS
 62
     7
 10
20.282951
 20
43.53207
 40
6
 50
179.99998
 51
270.00003
  0
ARC
  8
0
  6
CONTINUOUS
 62
     7
 10
26.782951
 20
-36.467926
 40
5
 50
89.999982
 51
179.99996
  0
ARC
  8
0
  6
CONTINUOUS
 62
     7
 10
-268.73373
 20
43.53207
 40
242.01666
 50
347.22577
 51
360
  0
ARC
  8
0
  6
CONTINUOUS
 62
     7
 10
26.782951
 20
-23.467928
 40
61
 50
167.22578
 51
179.99996
  0
ARC
  8
0
  6
CONTINUOUS
 62
     7
 10
-98.341583
 20
-3.4999924
 40
174.66658
 50
350.20179
 51
1.7986089E-005
  0
ARC
  8
0
  6
CONTINUOUS
 62
     7
 10
104.325
 20
-38.499985
 40
31
 50
170.20181
 51
179.99998
  0
ARC
  8
0
  6
CONTINUOUS
 62
     7
 10
133.325
 20
-38.499985
 40
4
 50
90.000003
 51
179.99998
  0
ARC
  8
0
  6
CONTINUOUS
 62
     7
 10
130.325
 20
-3.4999924
 40
4
 50
179.99998
 51
270.00003
  0
ARC
  8
0
  6
CONTINUOUS
 62
     7
 10
73.324997
 20
2.4019241
 40
3
 50
360
 51
60.000002
  0
ARC
  8
0
  6
CONTINUOUS
 62
     7
 10
129.325
 20
2.4019241
 40
3
 50
120.00002
 51
180.00001
  0
ARC
  8
0
  6
CONTINUOUS
 62
     7
 10
134.72691
 20
-4.5
 40
3
 50
270.00001
 51
330
  0
ARC
  8
0
  6
CONTINUOUS
 62
     7
 10
134.72691
 20
-37.5
 40
3
 50
30.000011
 51
90.000009
  0
ARC
  8
0
  6
CONTINUOUS
 62
     7
 10
69.324997
 20
-42.535904
 40
4
 50
300.00002
 51
1.11559E-005
  0
ARC
  8
0
  6
CONTINUOUS
 62
     7
 10
133.325
 20
-42.535904
 40
4
 50
179.99998
 51
239.99998
  0
ARC
  8
0
  6
CONTINUOUS
 62
     7
 10
-194.91399
 20
-165.75891
 40
4
 50
180.00001
 51
240
  0
ARC
  8
0
  6
CONTINUOUS
 62
     7
 10
-258.91397
 20
-165.75891
 40
4
 50
300.00001
 51
6.8301892E-006
  0
ARC
  8
0
  6
CONTINUOUS
 62
     7
 10
-254.91399
 20
-107.82111
 40
3
 50
359.99999
 51
59.999988
  0
ARC
  8
0
  6
CONTINUOUS
 62
     7
 10
-198.91399
 20
-107.82111
 40
3
 50
120
 51
179.99999
  0
ARC
  8
0
  6
CONTINUOUS
 62
     7
 10
-191.51207
 20
-113.72303
 40
3
 50
270
 51
329.99999
  0
ARC
  8
0
  6
CONTINUOUS
 62
     7
 10
-191.51207
 20
-160.72302
 40
3
 50
30.000001
 51
90.000003
  0
ARC
  8
0
  6
CONTINUOUS
 62
     7
 10
-197.91396
 20
-112.72303
 40
4
 50
179.99998
 51
270.00003
  0
ARC
  8
0
  6
CONTINUOUS
 62
     7
 10
-193.91396
 20
-162.72302
 40
5
 50
89.999982
 51
179.99996
  0
ARC
  8
0
  6
CONTINUOUS
 62
     7
 10
-614.81403
 20
-112.72303
 40
363.00003
 50
353.23254
 51
358.65525
  0
ARC
  8
0
  6
CONTINUOUS
 62
     7
 10
-208.91396
 20
-162.72302
 40
46
 50
170.96461
 51
179.99996
  0
ARC
  8
0
  6
CONTINUOUS
 62
     7
 10
-55.783691
 20
-176.18301
 40
4
 50
180.00001
 51
240
  0
ARC
  8
0
  6
CONTINUOUS
 62
     7
 10
-119.78369
 20
-176.18301
 40
4
 50
300.00001
 51
6.8301892E-006
  0
ARC
  8
0
  6
CONTINUOUS
 62
     7
 10
-115.78369
 20
-90.245201
 40
3
 50
359.99999
 51
59.999988
  0
ARC
  8
0
  6
CONTINUOUS
 62
     7
 10
-59.783691
 20
-90.245201
 40
3
 50
120
 51
179.99999
  0
ARC
  8
0
  6
CONTINUOUS
 62
     7
 10
-50.247787
 20
-95.147118
 40
4
 50
270
 51
329.99999
  0
ARC
  8
0
  6
CONTINUOUS
 62
     7
 10
-50.247787
 20
-172.14713
 40
4
 50
30.000001
 51
90.000003
  0
ARC
  8
0
  6
CONTINUOUS
 62
     7
 10
-57.783661
 20
-94.147118
 40
5
 50
179.99998
 51
270.00003
  0
ARC
  8
0
  6
CONTINUOUS
 62
     7
 10
-54.783661
 20
-173.14713
 40
5
 50
89.999982
 51
179.99996
  0
ARC
  8
0
  6
CONTINUOUS
 62
     7
 10
-779.28369
 20
-94.147118
 40
666.5
 50
354.79488
 51
360
  0
ARC
  8
0
  6
CONTINUOUS
 62
     7
 10
-54.783661
 20
-160.14713
 40
61
 50
174.7949
 51
179.99996
  0
ARC
  8
0
  6
CONTINUOUS
 62
     7
 10
449.91382
 20
46.923275
 40
4
 50
179.99999
 51
240.00001
  0
ARC
  8
0
  6
CONTINUOUS
 62
     7
 10
372.91382
 20
46.923275
 40
4
 50
300
 51
0
  0
ARC
  8
0
  6
CONTINUOUS
 62
     7
 10
387.91382
 20
112.86111
 40
3
 50
0
 51
60.000002
  0
ARC
  8
0
  6
CONTINUOUS
 62
     7
 10
434.91382
 20
112.86111
 40
3
 50
120
 51
180.00001
  0
ARC
  8
0
  6
CONTINUOUS
 62
     7
 10
454.81573
 20
108.4592
 40
3
 50
270
 51
330
  0
ARC
  8
0
  6
CONTINUOUS
 62
     7
 10
454.81573
 20
52.459194
 40
3
 50
30.000001
 51
90.000003
  0
ARC
  8
0
  6
CONTINUOUS
 62
     7
 10
449.91382
 20
51.459194
 40
4
 50
90.000003
 51
180.00001
  0
ARC
  8
0
  6
CONTINUOUS
 62
     7
 10
431.91382
 20
50.459194
 40
55
 50
153.73181
 51
180.00001
  0
ARC
  8
0
  6
CONTINUOUS
 62
     7
 10
436.91382
 20
110.4592
 40
5
 50
179.99999
 51
270
  0
ARC
  8
0
  6
CONTINUOUS
 62
     7
 10
310.34381
 20
110.45886
 40
80.57
 50
333.73181
 51
360
  0
ARC
  8
0
  6
CONTINUOUS
 62
     7
 10
492.70447
 20
42.260464
 40
4
 50
300.00001
 51
6.8301888E-006
  0
ARC
  8
0
  6
CONTINUOUS
 62
     7
 10
569.70447
 20
42.260464
 40
4
 50
180.00001
 51
240
  0
ARC
  8
0
  6
CONTINUOUS
 62
     7
 10
554.70447
 20
115.19827
 40
3
 50
120
 51
179.99999
  0
ARC
  8
0
  6
CONTINUOUS
 62
     7
 10
507.70447
 20
115.19827
 40
3
 50
359.99999
 51
59.999995
  0
ARC
  8
0
  6
CONTINUOUS
 62
     7
 10
573.74036
 20
47.796352
 40
4
 50
30.000011
 51
90.000003
  0
ARC
  8
0
  6
CONTINUOUS
 62
     7
 10
573.74036
 20
111.79636
 40
4
 50
270
 51
330
  0
ARC
  8
0
  6
CONTINUOUS
 62
     7
 10
570.70453
 20
46.796352
 40
5
 50
89.999982
 51
180.00002
  0
ARC
  8
0
  6
CONTINUOUS
 62
     7
 10
556.70453
 20
112.79636
 40
5
 50
180.00004
 51
270.00002
  0
ARC
  8
0
  6
CONTINUOUS
 62
     7
 10
557.70453
 20
46.796352
 40
61
 50
156.04775
 51
180.00002
  0
ARC
  8
0
  6
CONTINUOUS
 62
     7
 10
409.13306
 20
112.79636
 40
101.57143
 50
336.04774
 51
360
  0
ARC
  8
0
  6
CONTINUOUS
 62
     7
 10
631.41235
 20
110.43768
 40
3
 50
359.99999
 51
59.999988
  0
ARC
  8
0
  6
CONTINUOUS
 62
     7
 10
687.41241
 20
110.43768
 40
3
 50
120
 51
179.99999
  0
ARC
  8
0
  6
CONTINUOUS
 62
     7
 10
697.91241
 20
51.499874
 40
4
 50
180.00001
 51
240
  0
ARC
  8
0
  6
CONTINUOUS
 62
     7
 10
620.91235
 20
51.499874
 40
4
 50
300.00001
 51
0
  0
ARC
  8
0
  6
CONTINUOUS
 62
     7
 10
700.81433
 20
104.53577
 40
3
 50
270
 51
329.99999
  0
ARC
  8
0
  6
CONTINUOUS
 62
     7
 10
700.81433
 20
57.535763
 40
3
 50
30.000001
 51
90.000003
  0
ARC
  8
0
  6
CONTINUOUS
 62
     7
 10
688.41241
 20
105.53577
 40
4
 50
179.99998
 51
270.00003
  0
ARC
  8
0
  6
CONTINUOUS
 62
     7
 10
698.91235
 20
55.535763
 40
5
 50
89.999982
 51
179.99996
  0
ARC
  8
0
  6
CONTINUOUS
 62
     7
 10
544.08386
 20
105.53577
 40
90.328537
 50
338.484
 51
360
  0
ARC
  8
0
  6
CONTINUOUS
 62
     7
 10
670.91241
 20
55.535763
 40
46
 50
158.48401
 51
179.99996
  0
ARC
  8
0
  6
CONTINUOUS
 62
     7
 10
751.96021
 20
113.71841
 40
3
 50
359.99999
 51
59.999988
  0
ARC
  8
0
  6
CONTINUOUS
 62
     7
 10
818.46021
 20
38.780605
 40
4
 50
180.00001
 51
240
  0
ARC
  8
0
  6
CONTINUOUS
 62
     7
 10
741.46021
 20
38.780605
 40
4
 50
300.00001
 51
6.8301892E-006
  0
ARC
  8
0
  6
CONTINUOUS
 62
     7
 10
807.96021
 20
113.71841
 40
3
 50
120
 51
179.99999
  0
ARC
  8
0
  6
CONTINUOUS
 62
     7
 10
822.49609
 20
108.3165
 40
4
 50
270
 51
329.99999
  0
ARC
  8
0
  6
CONTINUOUS
 62
     7
 10
822.49609
 20
44.316494
 40
4
 50
30.000001
 51
90.000003
  0
ARC
  8
0
  6
CONTINUOUS
 62
     7
 10
808.96021
 20
108.3165
 40
4
 50
179.99998
 51
270.00003
  0
ARC
  8
0
  6
CONTINUOUS
 62
     7
 10
819.46021
 20
43.316494
 40
5
 50
89.999982
 51
179.99996
  0
ARC
  8
0
  6
CONTINUOUS
 62
     7
 10
588.8418
 20
108.3165
 40
166.11842
 50
343.36975
 51
360
  0
ARC
  8
0
  6
CONTINUOUS
 62
     7
 10
806.46021
 20
43.316494
 40
61
 50
163.36976
 51
179.99996
  0
ARC
  8
0
  6
CONTINUOUS
 62
     7
 10
454.62085
 20
-115.94355
 40
4
 50
179.99999
 51
240.00001
  0
ARC
  8
0
  6
CONTINUOUS
 62
     7
 10
377.62085
 20
-115.94355
 40
4
 50
300
 51
0
  0
ARC
  8
0
  6
CONTINUOUS
 62
     7
 10
455.52277
 20
-108.90763
 40
3
 50
30.000001
 51
90.000003
  0
ARC
  8
0
  6
CONTINUOUS
 62
     7
 10
384.12085
 20
-69.871742
 40
4
 50
0
 51
60.000002
  0
ARC
  8
0
  6
CONTINUOUS
 62
     7
 10
448.12085
 20
-69.871742
 40
4
 50
120
 51
180.00001
  0
ARC
  8
0
  6
CONTINUOUS
 62
     7
 10
455.52277
 20
-75.907631
 40
3
 50
270
 51
330
  0
ARC
  8
0
  6
CONTINUOUS
 62
     7
 10
448.12085
 20
-74.907631
 40
4
 50
179.99999
 51
270
  0
ARC
  8
0
  6
CONTINUOUS
 62
     7
 10
454.62085
 20
-109.90763
 40
4
 50
90.000003
 51
180.00001
  0
ARC
  8
0
  6
CONTINUOUS
 62
     7
 10
415.12085
 20
-112.40763
 40
33.5
 50
160.33287
 51
180.00001
  0
ARC
  8
0
  6
CONTINUOUS
 62
     7
 10
310.19785
 20
-74.907661
 40
77.922997
 50
340.33286
 51
360
  0
ARC
  8
0
  6
CONTINUOUS
 62
     7
 10
495.15433
 20
-66.70298
 40
4
 50
359.99999
 51
59.999988
  0
ARC
  8
0
  6
CONTINUOUS
 62
     7
 10
559.1543
 20
-66.703011
 40
4
 50
120
 51
179.99999
  0
ARC
  8
0
  6
CONTINUOUS
 62
     7
 10
565.6543
 20
-118.77479
 40
4
 50
180.00001
 51
240
  0
ARC
  8
0
  6
CONTINUOUS
 62
     7
 10
488.65433
 20
-118.77479
 40
4
 50
300.00001
 51
6.8301892E-006
  0
ARC
  8
0
  6
CONTINUOUS
 62
     7
 10
567.55621
 20
-72.738899
 40
3
 50
270
 51
329.99999
  0
ARC
  8
0
  6
CONTINUOUS
 62
     7
 10
567.55621
 20
-111.7389
 40
3
 50
30.000001
 51
90.000003
  0
ARC
  8
0
  6
CONTINUOUS
 62
     7
 10
559.1543
 20
-71.738899
 40
4
 50
179.99998
 51
270.00003
  0
ARC
  8
0
  6
CONTINUOUS
 62
     7
 10
566.6543
 20
-113.7389
 40
5
 50
89.999982
 51
179.99996
  0
ARC
  8
0
  6
CONTINUOUS
 62
     7
 10
398.21204
 20
-71.738899
 40
100.94231
 50
342.40518
 51
360
  0
ARC
  8
0
  6
CONTINUOUS
 62
     7
 10
530.65436
 20
-113.7389
 40
38
 50
162.40519
 51
179.99996
  0
ARC
  8
0
  6
CONTINUOUS
 62
     7
 10
622.17157
 20
-65.005074
 40
4
 50
359.99999
 51
59.999988
  0
ARC
  8
0
  6
CONTINUOUS
 62
     7
 10
686.17157
 20
-65.005074
 40
4
 50
120
 51
179.99999
  0
ARC
  8
0
  6
CONTINUOUS
 62
     7
 10
692.67157
 20
-123.07688
 40
4
 50
180.00001
 51
240
  0
ARC
  8
0
  6
CONTINUOUS
 62
     7
 10
615.67157
 20
-123.07688
 40
4
 50
300.00001
 51
0
  0
ARC
  8
0
  6
CONTINUOUS
 62
     7
 10
695.57349
 20
-70.040962
 40
3
 50
270
 51
329.99999
  0
ARC
  8
0
  6
CONTINUOUS
 62
     7
 10
695.57349
 20
-117.04096
 40
3
 50
30.000001
 51
90.000003
  0
ARC
  8
0
  6
CONTINUOUS
 62
     7
 10
686.17157
 20
-69.040962
 40
4
 50
179.99998
 51
270.00003
  0
ARC
  8
0
  6
CONTINUOUS
 62
     7
 10
693.67151
 20
-119.04096
 40
5
 50
89.999982
 51
179.99996
  0
ARC
  8
0
  6
CONTINUOUS
 62
     7
 10
474.21478
 20
-69.040962
 40
152
 50
346.47007
 51
358.63374
  0
ARC
  8
0
  6
CONTINUOUS
 62
     7
 10
665.67157
 20
-119.04096
 40
46
 50
161.70599
 51
179.99996
  0
ARC
  8
0
  6
CONTINUOUS
 62
     7
 10
748.84924
 20
-70.274178
 40
4
 50
359.99999
 51
59.999988
  0
ARC
  8
0
  6
CONTINUOUS
 62
     7
 10
812.84924
 20
-70.274178
 40
4
 50
120
 51
179.99999
  0
ARC
  8
0
  6
CONTINUOUS
 62
     7
 10
819.34924
 20
-136.34596
 40
4
 50
180.00001
 51
240
  0
ARC
  8
0
  6
CONTINUOUS
 62
     7
 10
742.34924
 20
-136.34596
 40
4
 50
300.00001
 51
0
  0
ARC
  8
0
  6
CONTINUOUS
 62
     7
 10
824.25116
 20
-74.810066
 40
3
 50
270
 51
329.99999
  0
ARC
  8
0
  6
CONTINUOUS
 62
     7
 10
824.25116
 20
-130.81007
 40
3
 50
30.000001
 51
90.000003
  0
ARC
  8
0
  6
CONTINUOUS
 62
     7
 10
812.84924
 20
-73.810066
 40
4
 50
179.99998
 51
270.00003
  0
ARC
  8
0
  6
CONTINUOUS
 62
     7
 10
820.34924
 20
-132.81007
 40
5
 50
89.999982
 51
179.99996
  0
ARC
  8
0
  6
CONTINUOUS
 62
     7
 10
541.13251
 20
-73.810066
 40
212
 50
348.2917
 51
357.0378
  0
ARC
  8
0
  6
CONTINUOUS
 62
     7
 10
801.34918
 20
-132.81007
 40
55
 50
163.11049
 51
179.99996
  0
ARC
  8
0
  6
CONTINUOUS
 62
     7
 10
-237.56325
 20
-323.74881
 40
4
 50
359.99999
 51
59.999988
  0
ARC
  8
0
  6
CONTINUOUS
 62
     7
 10
-173.56325
 20
-323.74881
 40
4
 50
120
 51
179.99999
  0
ARC
  8
0
  6
CONTINUOUS
 62
     7
 10
-156.56325
 20
-391.41129
 40
6
 50
180.00001
 51
234.31468
  0
ARC
  8
0
  6
CONTINUOUS
 62
     7
 10
-254.56323
 20
-391.41129
 40
6
 50
305.68534
 51
0
  0
ARC
  8
0
  6
CONTINUOUS
 62
     7
 10
-154.16132
 20
-328.2847
 40
3
 50
270
 51
329.99999
  0
ARC
  8
0
  6
CONTINUOUS
 62
     7
 10
-154.16132
 20
-384.2847
 40
3
 50
30.000001
 51
90.000003
  0
ARC
  8
0
  6
CONTINUOUS
 62
     7
 10
-172.56323
 20
-326.2847
 40
5
 50
179.99998
 51
270.00003
  0
ARC
  8
0
  6
CONTINUOUS
 62
     7
 10
-157.56326
 20
-386.2847
 40
5
 50
89.999982
 51
179.99996
  0
ARC
  8
0
  6
CONTINUOUS
 62
     7
 10
-311.56299
 20
-326.2847
 40
78
 50
337.69976
 51
0
  0
ARC
  8
0
  6
CONTINUOUS
 62
     7
 10
-193.56326
 20
-386.2847
 40
55
 50
146.44305
 51
179.99996
  0
ARC
  8
0
  6
CONTINUOUS
 62
     7
 10
-105.02681
 20
-329.06607
 40
4
 50
359.99999
 51
59.999988
  0
ARC
  8
0
  6
CONTINUOUS
 62
     7
 10
-28.026806
 20
-329.06607
 40
4
 50
120
 51
179.99999
  0
ARC
  8
0
  6
CONTINUOUS
 62
     7
 10
-17.526806
 20
-389.72855
 40
6
 50
180.00001
 51
234.31468
  0
ARC
  8
0
  6
CONTINUOUS
 62
     7
 10
-115.52681
 20
-389.72855
 40
6
 50
305.68534
 51
6.8301892E-006
  0
ARC
  8
0
  6
CONTINUOUS
 62
     7
 10
-16.124889
 20
-335.10196
 40
3
 50
270
 51
329.99999
  0
ARC
  8
0
  6
CONTINUOUS
 62
     7
 10
-16.124889
 20
-382.10196
 40
3
 50
30.000001
 51
90.000003
  0
ARC
  8
0
  6
CONTINUOUS
 62
     7
 10
-27.026775
 20
-333.10196
 40
5
 50
179.99998
 51
270.00003
  0
ARC
  8
0
  6
CONTINUOUS
 62
     7
 10
-18.526775
 20
-384.10196
 40
5
 50
89.999982
 51
179.99996
  0
ARC
  8
0
  6
CONTINUOUS
 62
     7
 10
-212.27678
 20
-333.10196
 40
111.25
 50
341.07535
 51
0
  0
ARC
  8
0
  6
CONTINUOUS
 62
     7
 10
-63.526779
 20
-384.10196
 40
46
 50
161.07538
 51
179.99996
  0
ARC
  8
0
  6
CONTINUOUS
 62
     7
 10
42.025806
 20
-325.06607
 40
4
 50
359.99999
 51
59.999988
  0
ARC
  8
0
  6
CONTINUOUS
 62
     7
 10
119.02584
 20
-325.06607
 40
4
 50
120
 51
179.99999
  0
ARC
  8
0
  6
CONTINUOUS
 62
     7
 10
129.52583
 20
-393.72855
 40
6
 50
180.00001
 51
234.31468
  0
ARC
  8
0
  6
CONTINUOUS
 62
     7
 10
31.525808
 20
-393.72855
 40
6
 50
305.68534
 51
0
  0
ARC
  8
0
  6
CONTINUOUS
 62
     7
 10
131.92775
 20
-330.60196
 40
3
 50
270
 51
329.99999
  0
ARC
  8
0
  6
CONTINUOUS
 62
     7
 10
131.92775
 20
-386.60196
 40
3
 50
30.000001
 51
90.000003
  0
ARC
  8
0
  6
CONTINUOUS
 62
     7
 10
121.02586
 20
-327.60196
 40
6
 50
179.99998
 51
270.00003
  0
ARC
  8
0
  6
CONTINUOUS
 62
     7
 10
129.52579
 20
-389.60196
 40
6
 50
89.999982
 51
179.99996
  0
ARC
  8
0
  6
CONTINUOUS
 62
     7
 10
-128.34102
 20
-327.60196
 40
174.36685
 50
344.38714
 51
360
  0
ARC
  8
0
  6
CONTINUOUS
 62
     7
 10
93.525841
 20
-389.60196
 40
56
 50
164.38716
 51
179.99996
  0
ARC
  8
0
  6
CONTINUOUS
 62
     7
 10
161.57431
 20
-397.50586
 40
6
 50
305.68533
 51
6.8301886E-006
  0
ARC
  8
0
  6
CONTINUOUS
 62
     7
 10
259.57431
 20
-397.50586
 40
6
 50
180.00001
 51
234.31467
  0
ARC
  8
0
  6
CONTINUOUS
 62
     7
 10
249.07431
 20
-321.84338
 40
4
 50
120
 51
179.99999
  0
ARC
  8
0
  6
CONTINUOUS
 62
     7
 10
172.07431
 20
-321.84338
 40
4
 50
359.99999
 51
59.999995
  0
ARC
  8
0
  6
CONTINUOUS
 62
     7
 10
260.11023
 20
-391.37927
 40
4
 50
30.000011
 51
90.000003
  0
ARC
  8
0
  6
CONTINUOUS
 62
     7
 10
260.11023
 20
-327.37927
 40
4
 50
270
 51
330
  0
ARC
  8
0
  6
CONTINUOUS
 62
     7
 10
258.57434
 20
-392.37927
 40
5
 50
89.999982
 51
180.00002
  0
ARC
  8
0
  6
CONTINUOUS
 62
     7
 10
250.07434
 20
-326.37927
 40
5
 50
180.00004
 51
270.00002
  0
ARC
  8
0
  6
CONTINUOUS
 62
     7
 10
228.57434
 20
-392.37927
 40
61
 50
165.32282
 51
180.00002
  0
ARC
  8
0
  6
CONTINUOUS
 62
     7
 10
-23.410973
 20
-326.37927
 40
199.48529
 50
345.32279
 51
360
  0
ARC
  8
0
  6
CONTINUOUS
 62
     7
 10
190.925
 20
-13.198069
 40
3
 50
359.99999
 51
59.999988
  0
ARC
  8
0
  6
CONTINUOUS
 62
     7
 10
246.925
 20
-13.198084
 40
3
 50
120
 51
179.99999
  0
ARC
  8
0
  6
CONTINUOUS
 62
     7
 10
250.925
 20
-66.135887
 40
4
 50
180.00001
 51
240
  0
ARC
  8
0
  6
CONTINUOUS
 62
     7
 10
186.925
 20
-66.135902
 40
4
 50
300.00001
 51
6.8301892E-006
  0
ARC
  8
0
  6
CONTINUOUS
 62
     7
 10
253.32692
 20
-21.1
 40
3
 50
270
 51
329.99999
  0
ARC
  8
0
  6
CONTINUOUS
 62
     7
 10
253.32692
 20
-60.099998
 40
3
 50
30.000001
 51
90.000003
  0
ARC
  8
0
  6
CONTINUOUS
 62
     7
 10
247.925
 20
-20.1
 40
4
 50
179.99998
 51
270.00003
  0
ARC
  8
0
  6
CONTINUOUS
 62
     7
 10
250.925
 20
-61.099998
 40
4
 50
89.999982
 51
179.99996
  0
ARC
  8
0
  6
CONTINUOUS
 62
     7
 10
-50.741642
 20
-20.1
 40
244.66667
 50
351.63017
 51
360
  0
ARC
  8
0
  6
CONTINUOUS
 62
     7
 10
227.92502
 20
-61.099998
 40
37
 50
171.63018
 51
179.99996
  0
TEXT
  8
0
  6
CONTINUOUS
 62
     7
 10
231.65195
 20
222.90187
 40
15
 41
0.84349531
  1
径違いチーズ（三方径違い）
  0
TEXT
  8
0
  6
CONTINUOUS
 62
     7
 10
-248.0588
 20
176.66306
 40
5
 41
1.0054945
  1
1X3/4X1/2
  0
TEXT
  8
0
  6
CONTINUOUS
 62
     7
 10
-174.64236
 20
177.44444
 40
5
 41
1.0040817
  1
11/4X1/2X3/4
  0
TEXT
  8
0
  6
CONTINUOUS
 62
     7
 10
-87.185717
 20
178.10001
 40
5
 41
1.0049261
  1
11/4X1X1/2
  0
TEXT
  8
0
  6
CONTINUOUS
 62
     7
 10
5.739285
 20
176.7
 40
5
 41
1.0049261
  1
11/4X1X3/4
  0
TEXT
  8
0
  6
CONTINUOUS
 62
     7
 10
100.20669
 20
177.37828
 40
5
 41
1.0044643
  1
11/4X1X11/2
  0
TEXT
  8
0
  6
CONTINUOUS
 62
     7
 10
210.63169
 20
177.37828
 40
5
 41
1.0062112
  1
11/4X1X2
  0
TEXT
  8
0
  6
CONTINUOUS
 62
     7
 10
-242.89993
 20
45.442375
 40
5
 41
1.0049261
  1
11/2X3/4X1
  0
TEXT
  8
0
  6
CONTINUOUS
 62
     7
 10
-140.02772
 20
62.369362
 40
5
 41
1.0044643
  1
11/2X1X11/4
  0
TEXT
  8
0
  6
CONTINUOUS
 62
     7
 10
-14.302795
 20
67.732071
 40
5
 41
1.0062112
  1
11/2X1X2
  0
TEXT
  8
0
  6
CONTINUOUS
 62
     7
 10
79.376989
 20
26.718838
 40
5
 41
1.0037594
  1
11/2X11/4X1/2
  0
TEXT
  8
0
  6
CONTINUOUS
 62
     7
 10
-243.57929
 20
-83.511185
 40
5
 41
1.0044643
  1
11/2X11/4X1
  0
TEXT
  8
0
  6
CONTINUOUS
 62
     7
 10
-103.427
 20
-64.318832
 40
5
 41
1.0044643
  1
11/2X11/4X2
  0
TEXT
  8
0
  6
CONTINUOUS
 62
     7
 10
414.11727
 20
136.20795
 40
5
 41
1.0062112
  1
2X1X11/4
  0
TEXT
  8
0
  6
CONTINUOUS
 62
     7
 10
533.85259
 20
137.85614
 40
5
 41
1.0062112
  1
2X1X11/2
  0
TEXT
  8
0
  6
CONTINUOUS
 62
     7
 10
656.85424
 20
138.78488
 40
5
 41
1.0062112
  1
2X11/4X1
  0
TEXT
  8
0
  6
CONTINUOUS
 62
     7
 10
777.44188
 20
141.34479
 40
5
 41
1.0044643
  1
2X11/4X11/2
  0
TEXT
  8
0
  6
CONTINUOUS
 62
     7
 10
408.45702
 20
-39.295147
 40
5
 41
1.0049261
  1
2X11/2X1/2
  0
TEXT
  8
0
  6
CONTINUOUS
 62
     7
 10
534.40081
 20
-39.040295
 40
5
 41
1.0049261
  1
2X11/2X3/4
  0
TEXT
  8
0
  6
CONTINUOUS
 62
     7
 10
650.58867
 20
-42.239574
 40
5
 41
1.0062112
  1
2X11/2X1
  0
TEXT
  8
0
  6
CONTINUOUS
 62
     7
 10
768.71313
 20
-42.065502
 40
5
 41
1.0044643
  1
2X11/2X11/4
  0
TEXT
  8
0
  6
CONTINUOUS
 62
     7
 10
-222.22444
 20
-293.90588
 40
5
 41
1.0034843
  1
21/2X11/2X11/4
  0
TEXT
  8
0
  6
CONTINUOUS
 62
     7
 10
-71.601603
 20
-294.67831
 40
5
 41
1.0062112
  1
21/2X2X1
  0
TEXT
  8
0
  6
CONTINUOUS
 62
     7
 10
62.027891
 20
-291.58862
 40
5
 41
1.0044643
  1
21/2X2X11/4
  0
TEXT
  8
0
  6
CONTINUOUS
 62
     7
 10
192.56768
 20
-287.72647
 40
5
 41
1.0044643
  1
21/2X2X11/2
  0
TEXT
  8
0
  6
CONTINUOUS
 62
     7
 10
196.61713
 20
11.051416
 40
5
 41
1.0037594
  1
11/2X11/4X3/4
  0
LINE
  8
0
  6
CONTINUOUS
 62
     7
 10
-228.24512
 20
139.50085
 11
-228.24512
 21
137.85739
  0
LINE
  8
0
  6
CONTINUOUS
 62
     7
 10
-229.44512
 20
139.50085
 11
-229.44512
 21
137.85739
  0
LINE
  8
0
  6
CONTINUOUS
 62
     7
 10
-229.44512
 20
129.14432
 11
-229.44512
 21
127.50085
  0
LINE
  8
0
  6
CONTINUOUS
 62
     7
 10
-228.24512
 20
129.14432
 11
-228.24512
 21
127.50085
  0
LINE
  8
0
  6
CONTINUOUS
 62
     7
 10
-229.44512
 20
136.65303
 11
-229.44512
 21
133.50085
  0
LINE
  8
0
  6
CONTINUOUS
 62
     7
 10
-228.24512
 20
136.65303
 11
-228.24512
 21
133.50085
  0
ARC
  8
0
  6
CONTINUOUS
 62
     7
 10
-226.44512
 20
133.50085
 40
2.4000001
 50
306.00832
 51
53.991676
  0
ARC
  8
0
  6
CONTINUOUS
 62
     7
 10
-226.44512
 20
133.50085
 40
3.5999999
 50
306.00832
 51
53.991676
  0
ARC
  8
0
  6
CONTINUOUS
 62
     7
 10
-231.24512
 20
133.50085
 40
2.4000001
 50
126.00833
 51
233.99168
  0
ARC
  8
0
  6
CONTINUOUS
 62
     7
 10
-231.24512
 20
133.50085
 40
3.5999999
 50
126.00833
 51
233.99168
  0
ARC
  8
0
  6
CONTINUOUS
 62
     7
 10
-228.84512
 20
130.19855
 40
7.6823077
 50
53.991676
 51
85.520553
  0
ARC
  8
0
  6
CONTINUOUS
 62
     7
 10
-228.84512
 20
130.19855
 40
6.4823079
 50
53.991676
 51
84.689121
  0
ARC
  8
0
  6
CONTINUOUS
 62
     7
 10
-228.84512
 20
136.80316
 40
6.4823079
 50
233.99167
 51
306.00832
  0
ARC
  8
0
  6
CONTINUOUS
 62
     7
 10
-228.84512
 20
136.80316
 40
7.6823077
 50
233.99167
 51
265.52055
  0
ARC
  8
0
  6
CONTINUOUS
 62
     7
 10
-228.84512
 20
139.05085
 40
0.75
 50
36.869897
 51
143.1301
  0
ARC
  8
0
  6
CONTINUOUS
 62
     7
 10
-228.84512
 20
133.95085
 40
0.75
 50
216.8699
 51
323.1301
  0
ARC
  8
0
  6
CONTINUOUS
 62
     7
 10
-228.84512
 20
127.95085
 40
0.75
 50
216.8699
 51
323.1301
  0
ARC
  8
0
  6
CONTINUOUS
 62
     7
 10
-228.84512
 20
130.19855
 40
6.4823079
 50
95.310878
 51
126.00833
  0
ARC
  8
0
  6
CONTINUOUS
 62
     7
 10
-228.84512
 20
130.19855
 40
7.6823077
 50
94.479452
 51
126.00833
  0
ARC
  8
0
  6
CONTINUOUS
 62
     7
 10
-228.84512
 20
136.80316
 40
7.6823077
 50
274.47945
 51
306.00832
  0
LINE
  8
0
  6
CONTINUOUS
 62
     7
 10
-152.12093
 20
138.80081
 11
-152.12093
 21
137.15735
  0
LINE
  8
0
  6
CONTINUOUS
 62
     7
 10
-153.32093
 20
138.80081
 11
-153.32093
 21
137.15735
  0
LINE
  8
0
  6
CONTINUOUS
 62
     7
 10
-153.32093
 20
128.44428
 11
-153.32093
 21
126.80081
  0
LINE
  8
0
  6
CONTINUOUS
 62
     7
 10
-152.12093
 20
128.44428
 11
-152.12093
 21
126.80081
  0
LINE
  8
0
  6
CONTINUOUS
 62
     7
 10
-153.32093
 20
135.95298
 11
-153.32093
 21
132.80081
  0
LINE
  8
0
  6
CONTINUOUS
 62
     7
 10
-152.12093
 20
135.95298
 11
-152.12093
 21
132.80081
  0
ARC
  8
0
  6
CONTINUOUS
 62
     7
 10
-150.32093
 20
132.80081
 40
2.4000001
 50
306.00832
 51
53.991676
  0
ARC
  8
0
  6
CONTINUOUS
 62
     7
 10
-150.32093
 20
132.80081
 40
3.5999999
 50
306.00832
 51
53.991676
  0
ARC
  8
0
  6
CONTINUOUS
 62
     7
 10
-155.12093
 20
132.80081
 40
2.4000001
 50
126.00833
 51
233.99168
  0
ARC
  8
0
  6
CONTINUOUS
 62
     7
 10
-155.12093
 20
132.80081
 40
3.5999999
 50
126.00833
 51
233.99168
  0
ARC
  8
0
  6
CONTINUOUS
 62
     7
 10
-152.72093
 20
129.4985
 40
7.6823077
 50
53.991676
 51
85.520553
  0
ARC
  8
0
  6
CONTINUOUS
 62
     7
 10
-152.72093
 20
129.4985
 40
6.4823079
 50
53.991676
 51
84.689121
  0
ARC
  8
0
  6
CONTINUOUS
 62
     7
 10
-152.72093
 20
136.10312
 40
6.4823079
 50
233.99167
 51
306.00832
  0
ARC
  8
0
  6
CONTINUOUS
 62
     7
 10
-152.72093
 20
136.10312
 40
7.6823077
 50
233.99167
 51
265.52055
  0
ARC
  8
0
  6
CONTINUOUS
 62
     7
 10
-152.72093
 20
138.35081
 40
0.75
 50
36.869897
 51
143.1301
  0
ARC
  8
0
  6
CONTINUOUS
 62
     7
 10
-152.72093
 20
133.25081
 40
0.75
 50
216.8699
 51
323.1301
  0
ARC
  8
0
  6
CONTINUOUS
 62
     7
 10
-152.72093
 20
127.25081
 40
0.75
 50
216.8699
 51
323.1301
  0
ARC
  8
0
  6
CONTINUOUS
 62
     7
 10
-152.72093
 20
129.4985
 40
6.4823079
 50
95.310878
 51
126.00833
  0
ARC
  8
0
  6
CONTINUOUS
 62
     7
 10
-152.72093
 20
129.4985
 40
7.6823077
 50
94.479452
 51
126.00833
  0
ARC
  8
0
  6
CONTINUOUS
 62
     7
 10
-152.72093
 20
136.10312
 40
7.6823077
 50
274.47945
 51
306.00832
  0
LINE
  8
0
  6
CONTINUOUS
 62
     7
 10
-66.950003
 20
135.85001
 11
-66.950003
 21
134.20654
  0
LINE
  8
0
  6
CONTINUOUS
 62
     7
 10
-68.150003
 20
135.85001
 11
-68.150003
 21
134.20654
  0
LINE
  8
0
  6
CONTINUOUS
 62
     7
 10
-68.150003
 20
125.49347
 11
-68.150003
 21
123.85001
  0
LINE
  8
0
  6
CONTINUOUS
 62
     7
 10
-66.950003
 20
125.49347
 11
-66.950003
 21
123.85001
  0
LINE
  8
0
  6
CONTINUOUS
 62
     7
 10
-68.150003
 20
133.00218
 11
-68.150003
 21
129.85001
  0
LINE
  8
0
  6
CONTINUOUS
 62
     7
 10
-66.950003
 20
133.00218
 11
-66.950003
 21
129.85001
  0
ARC
  8
0
  6
CONTINUOUS
 62
     7
 10
-65.150003
 20
129.85001
 40
2.4000001
 50
306.00832
 51
53.991676
  0
ARC
  8
0
  6
CONTINUOUS
 62
     7
 10
-65.150003
 20
129.85001
 40
3.5999999
 50
306.00832
 51
53.991676
  0
ARC
  8
0
  6
CONTINUOUS
 62
     7
 10
-69.950003
 20
129.85001
 40
2.4000001
 50
126.00833
 51
233.99168
  0
ARC
  8
0
  6
CONTINUOUS
 62
     7
 10
-69.950003
 20
129.85001
 40
3.5999999
 50
126.00833
 51
233.99168
  0
ARC
  8
0
  6
CONTINUOUS
 62
     7
 10
-67.550003
 20
126.5477
 40
7.6823077
 50
53.991676
 51
85.520553
  0
ARC
  8
0
  6
CONTINUOUS
 62
     7
 10
-67.550003
 20
126.5477
 40
6.4823079
 50
53.991676
 51
84.689121
  0
ARC
  8
0
  6
CONTINUOUS
 62
     7
 10
-67.550003
 20
133.15231
 40
6.4823079
 50
233.99167
 51
306.00832
  0
ARC
  8
0
  6
CONTINUOUS
 62
     7
 10
-67.550003
 20
133.15231
 40
7.6823077
 50
233.99167
 51
265.52055
  0
ARC
  8
0
  6
CONTINUOUS
 62
     7
 10
-67.550003
 20
135.40001
 40
0.75
 50
36.869897
 51
143.1301
  0
ARC
  8
0
  6
CONTINUOUS
 62
     7
 10
-67.550003
 20
130.30001
 40
0.75
 50
216.8699
 51
323.1301
  0
ARC
  8
0
  6
CONTINUOUS
 62
     7
 10
-67.550003
 20
124.30001
 40
0.75
 50
216.8699
 51
323.1301
  0
ARC
  8
0
  6
CONTINUOUS
 62
     7
 10
-67.550003
 20
126.5477
 40
6.4823079
 50
95.310878
 51
126.00833
  0
ARC
  8
0
  6
CONTINUOUS
 62
     7
 10
-67.550003
 20
126.5477
 40
7.6823077
 50
94.479452
 51
126.00833
  0
ARC
  8
0
  6
CONTINUOUS
 62
     7
 10
-67.550003
 20
133.15231
 40
7.6823077
 50
274.47945
 51
306.00832
  0
LINE
  8
0
  6
CONTINUOUS
 62
     7
 10
22.825
 20
135.5
 11
22.825
 21
133.85653
  0
LINE
  8
0
  6
CONTINUOUS
 62
     7
 10
21.625
 20
135.5
 11
21.625
 21
133.85653
  0
LINE
  8
0
  6
CONTINUOUS
 62
     7
 10
21.625
 20
125.14347
 11
21.625
 21
123.5
  0
LINE
  8
0
  6
CONTINUOUS
 62
     7
 10
22.825
 20
125.14347
 11
22.825
 21
123.5
  0
LINE
  8
0
  6
CONTINUOUS
 62
     7
 10
21.625
 20
132.65217
 11
21.625
 21
129.5
  0
LINE
  8
0
  6
CONTINUOUS
 62
     7
 10
22.825
 20
132.65217
 11
22.825
 21
129.5
  0
ARC
  8
0
  6
CONTINUOUS
 62
     7
 10
24.625
 20
129.5
 40
2.4000001
 50
306.00832
 51
53.991676
  0
ARC
  8
0
  6
CONTINUOUS
 62
     7
 10
24.625
 20
129.5
 40
3.5999999
 50
306.00832
 51
53.991676
  0
ARC
  8
0
  6
CONTINUOUS
 62
     7
 10
19.825
 20
129.5
 40
2.4000001
 50
126.00833
 51
233.99168
  0
ARC
  8
0
  6
CONTINUOUS
 62
     7
 10
19.825
 20
129.5
 40
3.5999999
 50
126.00833
 51
233.99168
  0
ARC
  8
0
  6
CONTINUOUS
 62
     7
 10
22.225
 20
126.19769
 40
7.6823077
 50
53.991676
 51
85.520553
  0
ARC
  8
0
  6
CONTINUOUS
 62
     7
 10
22.225
 20
126.19769
 40
6.4823079
 50
53.991676
 51
84.689121
  0
ARC
  8
0
  6
CONTINUOUS
 62
     7
 10
22.225
 20
132.80231
 40
6.4823079
 50
233.99167
 51
306.00832
  0
ARC
  8
0
  6
CONTINUOUS
 62
     7
 10
22.225
 20
132.80231
 40
7.6823077
 50
233.99167
 51
265.52055
  0
ARC
  8
0
  6
CONTINUOUS
 62
     7
 10
22.225
 20
135.05
 40
0.75
 50
36.869897
 51
143.1301
  0
ARC
  8
0
  6
CONTINUOUS
 62
     7
 10
22.225
 20
129.95
 40
0.75
 50
216.8699
 51
323.1301
  0
ARC
  8
0
  6
CONTINUOUS
 62
     7
 10
22.225
 20
123.95
 40
0.75
 50
216.8699
 51
323.1301
  0
ARC
  8
0
  6
CONTINUOUS
 62
     7
 10
22.225
 20
126.19769
 40
6.4823079
 50
95.310878
 51
126.00833
  0
ARC
  8
0
  6
CONTINUOUS
 62
     7
 10
22.225
 20
126.19769
 40
7.6823077
 50
94.479452
 51
126.00833
  0
ARC
  8
0
  6
CONTINUOUS
 62
     7
 10
22.225
 20
132.80231
 40
7.6823077
 50
274.47945
 51
306.00832
  0
LINE
  8
0
  6
CONTINUOUS
 62
     7
 10
120.65
 20
125.7
 11
120.65
 21
124.05653
  0
LINE
  8
0
  6
CONTINUOUS
 62
     7
 10
119.45
 20
125.7
 11
119.45
 21
124.05653
  0
LINE
  8
0
  6
CONTINUOUS
 62
     7
 10
119.45
 20
115.34346
 11
119.45
 21
113.7
  0
LINE
  8
0
  6
CONTINUOUS
 62
     7
 10
120.65
 20
115.34346
 11
120.65
 21
113.7
  0
LINE
  8
0
  6
CONTINUOUS
 62
     7
 10
119.45
 20
122.85217
 11
119.45
 21
119.7
  0
LINE
  8
0
  6
CONTINUOUS
 62
     7
 10
120.65
 20
122.85217
 11
120.65
 21
119.7
  0
ARC
  8
0
  6
CONTINUOUS
 62
     7
 10
122.45
 20
119.7
 40
2.4000001
 50
306.00832
 51
53.991676
  0
ARC
  8
0
  6
CONTINUOUS
 62
     7
 10
122.45
 20
119.7
 40
3.5999999
 50
306.00832
 51
53.991676
  0
ARC
  8
0
  6
CONTINUOUS
 62
     7
 10
117.65
 20
119.7
 40
2.4000001
 50
126.00833
 51
233.99168
  0
ARC
  8
0
  6
CONTINUOUS
 62
     7
 10
117.65
 20
119.7
 40
3.5999999
 50
126.00833
 51
233.99168
  0
ARC
  8
0
  6
CONTINUOUS
 62
     7
 10
120.05
 20
116.39769
 40
7.6823077
 50
53.991676
 51
85.520553
  0
ARC
  8
0
  6
CONTINUOUS
 62
     7
 10
120.05
 20
116.39769
 40
6.4823079
 50
53.991676
 51
84.689121
  0
ARC
  8
0
  6
CONTINUOUS
 62
     7
 10
120.05
 20
123.0023
 40
6.4823079
 50
233.99167
 51
306.00832
  0
ARC
  8
0
  6
CONTINUOUS
 62
     7
 10
120.05
 20
123.0023
 40
7.6823077
 50
233.99167
 51
265.52055
  0
ARC
  8
0
  6
CONTINUOUS
 62
     7
 10
120.05
 20
125.25
 40
0.75
 50
36.869897
 51
143.1301
  0
ARC
  8
0
  6
CONTINUOUS
 62
     7
 10
120.05
 20
120.15
 40
0.75
 50
216.8699
 51
323.1301
  0
ARC
  8
0
  6
CONTINUOUS
 62
     7
 10
120.05
 20
114.15
 40
0.75
 50
216.8699
 51
323.1301
  0
ARC
  8
0
  6
CONTINUOUS
 62
     7
 10
120.05
 20
116.39769
 40
6.4823079
 50
95.310878
 51
126.00833
  0
ARC
  8
0
  6
CONTINUOUS
 62
     7
 10
120.05
 20
116.39769
 40
7.6823077
 50
94.479452
 51
126.00833
  0
ARC
  8
0
  6
CONTINUOUS
 62
     7
 10
120.05
 20
123.0023
 40
7.6823077
 50
274.47945
 51
306.00832
  0
LINE
  8
0
  6
CONTINUOUS
 62
     7
 10
223.37499
 20
119.05
 11
223.37499
 21
117.40654
  0
LINE
  8
0
  6
CONTINUOUS
 62
     7
 10
222.17499
 20
119.05
 11
222.17499
 21
117.40654
  0
LINE
  8
0
  6
CONTINUOUS
 62
     7
 10
222.17499
 20
108.69347
 11
222.17499
 21
107.05
  0
LINE
  8
0
  6
CONTINUOUS
 62
     7
 10
223.37499
 20
108.69347
 11
223.37499
 21
107.05
  0
LINE
  8
0
  6
CONTINUOUS
 62
     7
 10
222.17499
 20
116.20218
 11
222.17499
 21
113.05
  0
LINE
  8
0
  6
CONTINUOUS
 62
     7
 10
223.37499
 20
116.20218
 11
223.37499
 21
113.05
  0
ARC
  8
0
  6
CONTINUOUS
 62
     7
 10
225.17499
 20
113.05
 40
2.4000001
 50
306.00832
 51
53.991676
  0
ARC
  8
0
  6
CONTINUOUS
 62
     7
 10
225.17499
 20
113.05
 40
3.5999999
 50
306.00832
 51
53.991676
  0
ARC
  8
0
  6
CONTINUOUS
 62
     7
 10
220.37499
 20
113.05
 40
2.4000001
 50
126.00833
 51
233.99168
  0
ARC
  8
0
  6
CONTINUOUS
 62
     7
 10
220.37499
 20
113.05
 40
3.5999999
 50
126.00833
 51
233.99168
  0
ARC
  8
0
  6
CONTINUOUS
 62
     7
 10
222.77499
 20
109.7477
 40
7.6823077
 50
53.991676
 51
85.520553
  0
ARC
  8
0
  6
CONTINUOUS
 62
     7
 10
222.77499
 20
109.7477
 40
6.4823079
 50
53.991676
 51
84.689121
  0
ARC
  8
0
  6
CONTINUOUS
 62
     7
 10
222.77499
 20
116.35231
 40
6.4823079
 50
233.99167
 51
306.00832
  0
ARC
  8
0
  6
CONTINUOUS
 62
     7
 10
222.77499
 20
116.35231
 40
7.6823077
 50
233.99167
 51
265.52055
  0
ARC
  8
0
  6
CONTINUOUS
 62
     7
 10
222.77499
 20
118.6
 40
0.75
 50
36.869897
 51
143.1301
  0
ARC
  8
0
  6
CONTINUOUS
 62
     7
 10
222.77499
 20
113.5
 40
0.75
 50
216.8699
 51
323.1301
  0
ARC
  8
0
  6
CONTINUOUS
 62
     7
 10
222.77499
 20
107.5
 40
0.75
 50
216.8699
 51
323.1301
  0
ARC
  8
0
  6
CONTINUOUS
 62
     7
 10
222.77499
 20
109.7477
 40
6.4823079
 50
95.310878
 51
126.00833
  0
ARC
  8
0
  6
CONTINUOUS
 62
     7
 10
222.77499
 20
109.7477
 40
7.6823077
 50
94.479452
 51
126.00833
  0
ARC
  8
0
  6
CONTINUOUS
 62
     7
 10
222.77499
 20
116.35231
 40
7.6823077
 50
274.47945
 51
306.00832
  0
LINE
  8
0
  6
CONTINUOUS
 62
     7
 10
-232.51382
 20
4.897807
 11
-232.51382
 21
3.2543405
  0
LINE
  8
0
  6
CONTINUOUS
 62
     7
 10
-233.71382
 20
4.897807
 11
-233.71382
 21
3.2543405
  0
LINE
  8
0
  6
CONTINUOUS
 62
     7
 10
-233.71382
 20
-5.4587265
 11
-233.71382
 21
-7.102193
  0
LINE
  8
0
  6
CONTINUOUS
 62
     7
 10
-232.51382
 20
-5.4587265
 11
-232.51382
 21
-7.102193
  0
LINE
  8
0
  6
CONTINUOUS
 62
     7
 10
-233.71382
 20
2.0499793
 11
-233.71382
 21
-1.102193
  0
LINE
  8
0
  6
CONTINUOUS
 62
     7
 10
-232.51382
 20
2.0499793
 11
-232.51382
 21
-1.102193
  0
ARC
  8
0
  6
CONTINUOUS
 62
     7
 10
-230.71382
 20
-1.102193
 40
2.4000001
 50
306.00832
 51
53.991676
  0
ARC
  8
0
  6
CONTINUOUS
 62
     7
 10
-230.71382
 20
-1.102193
 40
3.5999999
 50
306.00832
 51
53.991676
  0
ARC
  8
0
  6
CONTINUOUS
 62
     7
 10
-235.51382
 20
-1.102193
 40
2.4000001
 50
126.00833
 51
233.99168
  0
ARC
  8
0
  6
CONTINUOUS
 62
     7
 10
-235.51382
 20
-1.102193
 40
3.5999999
 50
126.00833
 51
233.99168
  0
ARC
  8
0
  6
CONTINUOUS
 62
     7
 10
-233.11382
 20
-4.4045006
 40
7.6823077
 50
53.991676
 51
85.520553
  0
ARC
  8
0
  6
CONTINUOUS
 62
     7
 10
-233.11382
 20
-4.4045006
 40
6.4823079
 50
53.991676
 51
84.689121
  0
ARC
  8
0
  6
CONTINUOUS
 62
     7
 10
-233.11382
 20
2.2001146
 40
6.4823079
 50
233.99167
 51
306.00832
  0
ARC
  8
0
  6
CONTINUOUS
 62
     7
 10
-233.11382
 20
2.2001146
 40
7.6823077
 50
233.99167
 51
265.52055
  0
ARC
  8
0
  6
CONTINUOUS
 62
     7
 10
-233.11382
 20
4.4478072
 40
0.75
 50
36.869897
 51
143.1301
  0
ARC
  8
0
  6
CONTINUOUS
 62
     7
 10
-233.11382
 20
-0.65219301
 40
0.75
 50
216.8699
 51
323.1301
  0
ARC
  8
0
  6
CONTINUOUS
 62
     7
 10
-233.11382
 20
-6.6521932
 40
0.75
 50
216.8699
 51
323.1301
  0
ARC
  8
0
  6
CONTINUOUS
 62
     7
 10
-233.11382
 20
-4.4045006
 40
6.4823079
 50
95.310878
 51
126.00833
  0
ARC
  8
0
  6
CONTINUOUS
 62
     7
 10
-233.11382
 20
-4.4045006
 40
7.6823077
 50
94.479452
 51
126.00833
  0
ARC
  8
0
  6
CONTINUOUS
 62
     7
 10
-233.11382
 20
2.2001146
 40
7.6823077
 50
274.47945
 51
306.00832
  0
LINE
  8
0
  6
CONTINUOUS
 62
     7
 10
-128.33442
 20
13.441077
 11
-128.33442
 21
11.79761
  0
LINE
  8
0
  6
CONTINUOUS
 62
     7
 10
-129.53442
 20
13.441077
 11
-129.53442
 21
11.79761
  0
LINE
  8
0
  6
CONTINUOUS
 62
     7
 10
-129.53442
 20
3.0845432
 11
-129.53442
 21
1.4410768
  0
LINE
  8
0
  6
CONTINUOUS
 62
     7
 10
-128.33442
 20
3.0845432
 11
-128.33442
 21
1.4410768
  0
LINE
  8
0
  6
CONTINUOUS
 62
     7
 10
-129.53442
 20
10.593249
 11
-129.53442
 21
7.4410768
  0
LINE
  8
0
  6
CONTINUOUS
 62
     7
 10
-128.33442
 20
10.593249
 11
-128.33442
 21
7.4410768
  0
ARC
  8
0
  6
CONTINUOUS
 62
     7
 10
-126.53442
 20
7.4410768
 40
2.4000001
 50
306.00832
 51
53.991676
  0
ARC
  8
0
  6
CONTINUOUS
 62
     7
 10
-126.53442
 20
7.4410768
 40
3.5999999
 50
306.00832
 51
53.991676
  0
ARC
  8
0
  6
CONTINUOUS
 62
     7
 10
-131.33442
 20
7.4410768
 40
2.4000001
 50
126.00833
 51
233.99168
  0
ARC
  8
0
  6
CONTINUOUS
 62
     7
 10
-131.33442
 20
7.4410768
 40
3.5999999
 50
126.00833
 51
233.99168
  0
ARC
  8
0
  6
CONTINUOUS
 62
     7
 10
-128.93442
 20
4.1387691
 40
7.6823077
 50
53.991676
 51
85.520553
  0
ARC
  8
0
  6
CONTINUOUS
 62
     7
 10
-128.93442
 20
4.1387691
 40
6.4823079
 50
53.991676
 51
84.689121
  0
ARC
  8
0
  6
CONTINUOUS
 62
     7
 10
-128.93442
 20
10.743384
 40
6.4823079
 50
233.99167
 51
306.00832
  0
ARC
  8
0
  6
CONTINUOUS
 62
     7
 10
-128.93442
 20
10.743384
 40
7.6823077
 50
233.99167
 51
265.52055
  0
ARC
  8
0
  6
CONTINUOUS
 62
     7
 10
-128.93442
 20
12.991077
 40
0.75
 50
36.869897
 51
143.1301
  0
ARC
  8
0
  6
CONTINUOUS
 62
     7
 10
-128.93442
 20
7.8910767
 40
0.75
 50
216.8699
 51
323.1301
  0
ARC
  8
0
  6
CONTINUOUS
 62
     7
 10
-128.93442
 20
1.8910766
 40
0.75
 50
216.8699
 51
323.1301
  0
ARC
  8
0
  6
CONTINUOUS
 62
     7
 10
-128.93442
 20
4.1387691
 40
6.4823079
 50
95.310878
 51
126.00833
  0
ARC
  8
0
  6
CONTINUOUS
 62
     7
 10
-128.93442
 20
4.1387691
 40
7.6823077
 50
94.479452
 51
126.00833
  0
ARC
  8
0
  6
CONTINUOUS
 62
     7
 10
-128.93442
 20
10.743384
 40
7.6823077
 50
274.47945
 51
306.00832
  0
LINE
  8
0
  6
CONTINUOUS
 62
     7
 10
-5.6170796
 20
9.0320706
 11
-5.6170796
 21
7.3886042
  0
LINE
  8
0
  6
CONTINUOUS
 62
     7
 10
-6.8170797
 20
9.0320706
 11
-6.8170797
 21
7.3886042
  0
LINE
  8
0
  6
CONTINUOUS
 62
     7
 10
-6.8170797
 20
-1.3244629
 11
-6.8170797
 21
-2.9679294
  0
LINE
  8
0
  6
CONTINUOUS
 62
     7
 10
-5.6170796
 20
-1.3244629
 11
-5.6170796
 21
-2.9679294
  0
LINE
  8
0
  6
CONTINUOUS
 62
     7
 10
-6.8170797
 20
6.184243
 11
-6.8170797
 21
3.0320706
  0
LINE
  8
0
  6
CONTINUOUS
 62
     7
 10
-5.6170796
 20
6.184243
 11
-5.6170796
 21
3.0320706
  0
ARC
  8
0
  6
CONTINUOUS
 62
     7
 10
-3.8170795
 20
3.0320706
 40
2.4000001
 50
306.00832
 51
53.991676
  0
ARC
  8
0
  6
CONTINUOUS
 62
     7
 10
-3.8170795
 20
3.0320706
 40
3.5999999
 50
306.00832
 51
53.991676
  0
ARC
  8
0
  6
CONTINUOUS
 62
     7
 10
-8.6170797
 20
3.0320706
 40
2.4000001
 50
126.00833
 51
233.99168
  0
ARC
  8
0
  6
CONTINUOUS
 62
     7
 10
-8.6170797
 20
3.0320706
 40
3.5999999
 50
126.00833
 51
233.99168
  0
ARC
  8
0
  6
CONTINUOUS
 62
     7
 10
-6.2170796
 20
-0.27023697
 40
7.6823077
 50
53.991676
 51
85.520553
  0
ARC
  8
0
  6
CONTINUOUS
 62
     7
 10
-6.2170796
 20
-0.27023697
 40
6.4823079
 50
53.991676
 51
84.689121
  0
ARC
  8
0
  6
CONTINUOUS
 62
     7
 10
-6.2170796
 20
6.3343782
 40
6.4823079
 50
233.99167
 51
306.00832
  0
ARC
  8
0
  6
CONTINUOUS
 62
     7
 10
-6.2170796
 20
6.3343782
 40
7.6823077
 50
233.99167
 51
265.52055
  0
ARC
  8
0
  6
CONTINUOUS
 62
     7
 10
-6.2170796
 20
8.5820708
 40
0.75
 50
36.869897
 51
143.1301
  0
ARC
  8
0
  6
CONTINUOUS
 62
     7
 10
-6.2170796
 20
3.4820706
 40
0.75
 50
216.8699
 51
323.1301
  0
ARC
  8
0
  6
CONTINUOUS
 62
     7
 10
-6.2170796
 20
-2.5179296
 40
0.75
 50
216.8699
 51
323.1301
  0
ARC
  8
0
  6
CONTINUOUS
 62
     7
 10
-6.2170796
 20
-0.27023697
 40
6.4823079
 50
95.310878
 51
126.00833
  0
ARC
  8
0
  6
CONTINUOUS
 62
     7
 10
-6.2170796
 20
-0.27023697
 40
7.6823077
 50
94.479452
 51
126.00833
  0
ARC
  8
0
  6
CONTINUOUS
 62
     7
 10
-6.2170796
 20
6.3343782
 40
7.6823077
 50
274.47945
 51
306.00832
  0
LINE
  8
0
  6
CONTINUOUS
 62
     7
 10
101.925
 20
-15
 11
101.925
 21
-16.643466
  0
LINE
  8
0
  6
CONTINUOUS
 62
     7
 10
100.725
 20
-15
 11
100.725
 21
-16.643466
  0
LINE
  8
0
  6
CONTINUOUS
 62
     7
 10
100.725
 20
-25.356534
 11
100.725
 21
-27
  0
LINE
  8
0
  6
CONTINUOUS
 62
     7
 10
101.925
 20
-25.356534
 11
101.925
 21
-27
  0
LINE
  8
0
  6
CONTINUOUS
 62
     7
 10
100.725
 20
-17.847828
 11
100.725
 21
-21
  0
LINE
  8
0
  6
CONTINUOUS
 62
     7
 10
101.925
 20
-17.847828
 11
101.925
 21
-21
  0
ARC
  8
0
  6
CONTINUOUS
 62
     7
 10
103.725
 20
-21
 40
2.4000001
 50
306.00832
 51
53.991676
  0
ARC
  8
0
  6
CONTINUOUS
 62
     7
 10
103.725
 20
-21
 40
3.5999999
 50
306.00832
 51
53.991676
  0
ARC
  8
0
  6
CONTINUOUS
 62
     7
 10
98.924997
 20
-21
 40
2.4000001
 50
126.00833
 51
233.99168
  0
ARC
  8
0
  6
CONTINUOUS
 62
     7
 10
98.924997
 20
-21
 40
3.5999999
 50
126.00833
 51
233.99168
  0
ARC
  8
0
  6
CONTINUOUS
 62
     7
 10
101.325
 20
-24.302308
 40
7.6823077
 50
53.991676
 51
85.520553
  0
ARC
  8
0
  6
CONTINUOUS
 62
     7
 10
101.325
 20
-24.302308
 40
6.4823079
 50
53.991676
 51
84.689121
  0
ARC
  8
0
  6
CONTINUOUS
 62
     7
 10
101.325
 20
-17.697692
 40
6.4823079
 50
233.99167
 51
306.00832
  0
ARC
  8
0
  6
CONTINUOUS
 62
     7
 10
101.325
 20
-17.697692
 40
7.6823077
 50
233.99167
 51
265.52055
  0
ARC
  8
0
  6
CONTINUOUS
 62
     7
 10
101.325
 20
-15.45
 40
0.75
 50
36.869897
 51
143.1301
  0
ARC
  8
0
  6
CONTINUOUS
 62
     7
 10
101.325
 20
-20.55
 40
0.75
 50
216.8699
 51
323.1301
  0
ARC
  8
0
  6
CONTINUOUS
 62
     7
 10
101.325
 20
-26.55
 40
0.75
 50
216.8699
 51
323.1301
  0
ARC
  8
0
  6
CONTINUOUS
 62
     7
 10
101.325
 20
-24.302308
 40
6.4823079
 50
95.310878
 51
126.00833
  0
ARC
  8
0
  6
CONTINUOUS
 62
     7
 10
101.325
 20
-24.302308
 40
7.6823077
 50
94.479452
 51
126.00833
  0
ARC
  8
0
  6
CONTINUOUS
 62
     7
 10
101.325
 20
-17.697692
 40
7.6823077
 50
274.47945
 51
306.00832
  0
LINE
  8
0
  6
CONTINUOUS
 62
     7
 10
219.525
 20
-34.599998
 11
219.525
 21
-36.243465
  0
LINE
  8
0
  6
CONTINUOUS
 62
     7
 10
218.325
 20
-34.599998
 11
218.325
 21
-36.243465
  0
LINE
  8
0
  6
CONTINUOUS
 62
     7
 10
218.325
 20
-44.956532
 11
218.325
 21
-46.599998
  0
LINE
  8
0
  6
CONTINUOUS
 62
     7
 10
219.525
 20
-44.956532
 11
219.525
 21
-46.599998
  0
LINE
  8
0
  6
CONTINUOUS
 62
     7
 10
218.325
 20
-37.447826
 11
218.325
 21
-40.599998
  0
LINE
  8
0
  6
CONTINUOUS
 62
     7
 10
219.525
 20
-37.447826
 11
219.525
 21
-40.599998
  0
ARC
  8
0
  6
CONTINUOUS
 62
     7
 10
221.325
 20
-40.599998
 40
2.4000001
 50
306.00832
 51
53.991676
  0
ARC
  8
0
  6
CONTINUOUS
 62
     7
 10
221.325
 20
-40.599998
 40
3.5999999
 50
306.00832
 51
53.991676
  0
ARC
  8
0
  6
CONTINUOUS
 62
     7
 10
216.525
 20
-40.599998
 40
2.4000001
 50
126.00833
 51
233.99168
  0
ARC
  8
0
  6
CONTINUOUS
 62
     7
 10
216.525
 20
-40.599998
 40
3.5999999
 50
126.00833
 51
233.99168
  0
ARC
  8
0
  6
CONTINUOUS
 62
     7
 10
218.925
 20
-43.902306
 40
7.6823077
 50
53.991676
 51
85.520553
  0
ARC
  8
0
  6
CONTINUOUS
 62
     7
 10
218.925
 20
-43.902306
 40
6.4823079
 50
53.991676
 51
84.689121
  0
ARC
  8
0
  6
CONTINUOUS
 62
     7
 10
218.925
 20
-37.297691
 40
6.4823079
 50
233.99167
 51
306.00832
  0
ARC
  8
0
  6
CONTINUOUS
 62
     7
 10
218.925
 20
-37.297691
 40
7.6823077
 50
233.99167
 51
265.52055
  0
ARC
  8
0
  6
CONTINUOUS
 62
     7
 10
218.925
 20
-35.049998
 40
0.75
 50
36.869897
 51
143.1301
  0
ARC
  8
0
  6
CONTINUOUS
 62
     7
 10
218.925
 20
-40.149998
 40
0.75
 50
216.8699
 51
323.1301
  0
ARC
  8
0
  6
CONTINUOUS
 62
     7
 10
218.925
 20
-46.149999
 40
0.75
 50
216.8699
 51
323.1301
  0
ARC
  8
0
  6
CONTINUOUS
 62
     7
 10
218.925
 20
-43.902306
 40
6.4823079
 50
95.310878
 51
126.00833
  0
ARC
  8
0
  6
CONTINUOUS
 62
     7
 10
218.925
 20
-43.902306
 40
7.6823077
 50
94.479452
 51
126.00833
  0
ARC
  8
0
  6
CONTINUOUS
 62
     7
 10
218.925
 20
-37.297691
 40
7.6823077
 50
274.47945
 51
306.00832
  0
LINE
  8
0
  6
CONTINUOUS
 62
     7
 10
-226.31399
 20
-131.22302
 11
-226.31399
 21
-132.86649
  0
LINE
  8
0
  6
CONTINUOUS
 62
     7
 10
-227.51399
 20
-131.22302
 11
-227.51399
 21
-132.86649
  0
LINE
  8
0
  6
CONTINUOUS
 62
     7
 10
-227.51399
 20
-141.57956
 11
-227.51399
 21
-143.22302
  0
LINE
  8
0
  6
CONTINUOUS
 62
     7
 10
-226.31399
 20
-141.57956
 11
-226.31399
 21
-143.22302
  0
LINE
  8
0
  6
CONTINUOUS
 62
     7
 10
-227.51399
 20
-134.07085
 11
-227.51399
 21
-137.22302
  0
LINE
  8
0
  6
CONTINUOUS
 62
     7
 10
-226.31399
 20
-134.07085
 11
-226.31399
 21
-137.22302
  0
ARC
  8
0
  6
CONTINUOUS
 62
     7
 10
-224.51399
 20
-137.22302
 40
2.4000001
 50
306.00832
 51
53.991676
  0
ARC
  8
0
  6
CONTINUOUS
 62
     7
 10
-224.51399
 20
-137.22302
 40
3.5999999
 50
306.00832
 51
53.991676
  0
ARC
  8
0
  6
CONTINUOUS
 62
     7
 10
-229.31399
 20
-137.22302
 40
2.4000001
 50
126.00833
 51
233.99168
  0
ARC
  8
0
  6
CONTINUOUS
 62
     7
 10
-229.31399
 20
-137.22302
 40
3.5999999
 50
126.00833
 51
233.99168
  0
ARC
  8
0
  6
CONTINUOUS
 62
     7
 10
-226.91399
 20
-140.52533
 40
7.6823077
 50
53.991676
 51
85.520553
  0
ARC
  8
0
  6
CONTINUOUS
 62
     7
 10
-226.91399
 20
-140.52533
 40
6.4823079
 50
53.991676
 51
84.689121
  0
ARC
  8
0
  6
CONTINUOUS
 62
     7
 10
-226.91399
 20
-133.92071
 40
6.4823079
 50
233.99167
 51
306.00832
  0
ARC
  8
0
  6
CONTINUOUS
 62
     7
 10
-226.91399
 20
-133.92071
 40
7.6823077
 50
233.99167
 51
265.52055
  0
ARC
  8
0
  6
CONTINUOUS
 62
     7
 10
-226.91399
 20
-131.67302
 40
0.75
 50
36.869897
 51
143.1301
  0
ARC
  8
0
  6
CONTINUOUS
 62
     7
 10
-226.91399
 20
-136.77302
 40
0.75
 50
216.8699
 51
323.1301
  0
ARC
  8
0
  6
CONTINUOUS
 62
     7
 10
-226.91399
 20
-142.77302
 40
0.75
 50
216.8699
 51
323.1301
  0
ARC
  8
0
  6
CONTINUOUS
 62
     7
 10
-226.91399
 20
-140.52533
 40
6.4823079
 50
95.310878
 51
126.00833
  0
ARC
  8
0
  6
CONTINUOUS
 62
     7
 10
-226.91399
 20
-140.52533
 40
7.6823077
 50
94.479452
 51
126.00833
  0
ARC
  8
0
  6
CONTINUOUS
 62
     7
 10
-226.91399
 20
-133.92071
 40
7.6823077
 50
274.47945
 51
306.00832
  0
LINE
  8
0
  6
CONTINUOUS
 62
     7
 10
-87.183691
 20
-127.64713
 11
-87.183691
 21
-129.29059
  0
LINE
  8
0
  6
CONTINUOUS
 62
     7
 10
-88.383691
 20
-127.64713
 11
-88.383691
 21
-129.29059
  0
LINE
  8
0
  6
CONTINUOUS
 62
     7
 10
-88.383691
 20
-138.00366
 11
-88.383691
 21
-139.64713
  0
LINE
  8
0
  6
CONTINUOUS
 62
     7
 10
-87.183691
 20
-138.00366
 11
-87.183691
 21
-139.64713
  0
LINE
  8
0
  6
CONTINUOUS
 62
     7
 10
-88.383691
 20
-130.49495
 11
-88.383691
 21
-133.64713
  0
LINE
  8
0
  6
CONTINUOUS
 62
     7
 10
-87.183691
 20
-130.49495
 11
-87.183691
 21
-133.64713
  0
ARC
  8
0
  6
CONTINUOUS
 62
     7
 10
-85.383691
 20
-133.64713
 40
2.4000001
 50
306.00832
 51
53.991676
  0
ARC
  8
0
  6
CONTINUOUS
 62
     7
 10
-85.383691
 20
-133.64713
 40
3.5999999
 50
306.00832
 51
53.991676
  0
ARC
  8
0
  6
CONTINUOUS
 62
     7
 10
-90.183692
 20
-133.64713
 40
2.4000001
 50
126.00833
 51
233.99168
  0
ARC
  8
0
  6
CONTINUOUS
 62
     7
 10
-90.183692
 20
-133.64713
 40
3.5999999
 50
126.00833
 51
233.99168
  0
ARC
  8
0
  6
CONTINUOUS
 62
     7
 10
-87.783691
 20
-136.94943
 40
7.6823077
 50
53.991676
 51
85.520553
  0
ARC
  8
0
  6
CONTINUOUS
 62
     7
 10
-87.783691
 20
-136.94943
 40
6.4823079
 50
53.991676
 51
84.689121
  0
ARC
  8
0
  6
CONTINUOUS
 62
     7
 10
-87.783691
 20
-130.34482
 40
6.4823079
 50
233.99167
 51
306.00832
  0
ARC
  8
0
  6
CONTINUOUS
 62
     7
 10
-87.783691
 20
-130.34482
 40
7.6823077
 50
233.99167
 51
265.52055
  0
ARC
  8
0
  6
CONTINUOUS
 62
     7
 10
-87.783691
 20
-128.09713
 40
0.75
 50
36.869897
 51
143.1301
  0
ARC
  8
0
  6
CONTINUOUS
 62
     7
 10
-87.783691
 20
-133.19713
 40
0.75
 50
216.8699
 51
323.1301
  0
ARC
  8
0
  6
CONTINUOUS
 62
     7
 10
-87.783691
 20
-139.19713
 40
0.75
 50
216.8699
 51
323.1301
  0
ARC
  8
0
  6
CONTINUOUS
 62
     7
 10
-87.783691
 20
-136.94943
 40
6.4823079
 50
95.310878
 51
126.00833
  0
ARC
  8
0
  6
CONTINUOUS
 62
     7
 10
-87.783691
 20
-136.94943
 40
7.6823077
 50
94.479452
 51
126.00833
  0
ARC
  8
0
  6
CONTINUOUS
 62
     7
 10
-87.783691
 20
-130.34482
 40
7.6823077
 50
274.47945
 51
306.00832
  0
LINE
  8
0
  6
CONTINUOUS
 62
     7
 10
412.16382
 20
87.959198
 11
412.16382
 21
85.904865
  0
LINE
  8
0
  6
CONTINUOUS
 62
     7
 10
410.66382
 20
87.959198
 11
410.66382
 21
85.904865
  0
LINE
  8
0
  6
CONTINUOUS
 62
     7
 10
410.66382
 20
75.013531
 11
410.66382
 21
72.959198
  0
LINE
  8
0
  6
CONTINUOUS
 62
     7
 10
412.16382
 20
75.013531
 11
412.16382
 21
72.959198
  0
LINE
  8
0
  6
CONTINUOUS
 62
     7
 10
410.66382
 20
84.399414
 11
410.66382
 21
80.459198
  0
LINE
  8
0
  6
CONTINUOUS
 62
     7
 10
412.16382
 20
84.399414
 11
412.16382
 21
80.459198
  0
ARC
  8
0
  6
CONTINUOUS
 62
     7
 10
414.41382
 20
80.459198
 40
3
 50
306.00832
 51
53.991676
  0
ARC
  8
0
  6
CONTINUOUS
 62
     7
 10
414.41382
 20
80.459198
 40
4.5
 50
306.00832
 51
53.991676
  0
ARC
  8
0
  6
CONTINUOUS
 62
     7
 10
408.41382
 20
80.459198
 40
3
 50
126.00833
 51
233.99168
  0
ARC
  8
0
  6
CONTINUOUS
 62
     7
 10
408.41382
 20
80.459198
 40
4.5
 50
126.00833
 51
233.99168
  0
ARC
  8
0
  6
CONTINUOUS
 62
     7
 10
411.41382
 20
76.331314
 40
9.6028843
 50
53.991676
 51
85.520553
  0
ARC
  8
0
  6
CONTINUOUS
 62
     7
 10
411.41382
 20
76.331314
 40
8.1028843
 50
53.991676
 51
84.689121
  0
ARC
  8
0
  6
CONTINUOUS
 62
     7
 10
411.41382
 20
84.587082
 40
8.1028843
 50
233.99167
 51
306.00832
  0
ARC
  8
0
  6
CONTINUOUS
 62
     7
 10
411.41382
 20
84.587082
 40
9.6028843
 50
233.99167
 51
265.52055
  0
ARC
  8
0
  6
CONTINUOUS
 62
     7
 10
411.41382
 20
87.396698
 40
0.9375
 50
36.869897
 51
143.1301
  0
ARC
  8
0
  6
CONTINUOUS
 62
     7
 10
411.41382
 20
81.021698
 40
0.9375
 50
216.8699
 51
323.1301
  0
ARC
  8
0
  6
CONTINUOUS
 62
     7
 10
411.41382
 20
73.521698
 40
0.9375
 50
216.8699
 51
323.1301
  0
ARC
  8
0
  6
CONTINUOUS
 62
     7
 10
411.41382
 20
76.331314
 40
9.6028843
 50
94.479452
 51
126.00833
  0
ARC
  8
0
  6
CONTINUOUS
 62
     7
 10
411.41382
 20
76.331314
 40
8.1028843
 50
95.310878
 51
126.00833
  0
ARC
  8
0
  6
CONTINUOUS
 62
     7
 10
411.41382
 20
84.587082
 40
9.6028843
 50
274.47945
 51
306.00832
  0
LINE
  8
0
  6
CONTINUOUS
 62
     7
 10
531.95447
 20
87.296356
 11
531.95447
 21
85.242023
  0
LINE
  8
0
  6
CONTINUOUS
 62
     7
 10
530.45447
 20
87.296356
 11
530.45447
 21
85.242023
  0
LINE
  8
0
  6
CONTINUOUS
 62
     7
 10
530.45447
 20
74.350689
 11
530.45447
 21
72.296356
  0
LINE
  8
0
  6
CONTINUOUS
 62
     7
 10
531.95447
 20
74.350689
 11
531.95447
 21
72.296356
  0
LINE
  8
0
  6
CONTINUOUS
 62
     7
 10
530.45447
 20
83.736572
 11
530.45447
 21
79.796356
  0
LINE
  8
0
  6
CONTINUOUS
 62
     7
 10
531.95447
 20
83.736572
 11
531.95447
 21
79.796356
  0
ARC
  8
0
  6
CONTINUOUS
 62
     7
 10
534.20447
 20
79.796356
 40
3
 50
306.00832
 51
53.991676
  0
ARC
  8
0
  6
CONTINUOUS
 62
     7
 10
534.20447
 20
79.796356
 40
4.5
 50
306.00832
 51
53.991676
  0
ARC
  8
0
  6
CONTINUOUS
 62
     7
 10
528.20447
 20
79.796356
 40
3
 50
126.00833
 51
233.99168
  0
ARC
  8
0
  6
CONTINUOUS
 62
     7
 10
528.20447
 20
79.796356
 40
4.5
 50
126.00833
 51
233.99168
  0
ARC
  8
0
  6
CONTINUOUS
 62
     7
 10
531.20447
 20
75.668472
 40
9.6028843
 50
53.991676
 51
85.520553
  0
ARC
  8
0
  6
CONTINUOUS
 62
     7
 10
531.20447
 20
75.668472
 40
8.1028843
 50
53.991676
 51
84.689121
  0
ARC
  8
0
  6
CONTINUOUS
 62
     7
 10
531.20447
 20
83.924241
 40
8.1028843
 50
233.99167
 51
306.00832
  0
ARC
  8
0
  6
CONTINUOUS
 62
     7
 10
531.20447
 20
83.924241
 40
9.6028843
 50
233.99167
 51
265.52055
  0
ARC
  8
0
  6
CONTINUOUS
 62
     7
 10
531.20447
 20
86.733856
 40
0.9375
 50
36.869897
 51
143.1301
  0
ARC
  8
0
  6
CONTINUOUS
 62
     7
 10
531.20447
 20
80.358856
 40
0.9375
 50
216.8699
 51
323.1301
  0
ARC
  8
0
  6
CONTINUOUS
 62
     7
 10
531.20447
 20
72.858856
 40
0.9375
 50
216.8699
 51
323.1301
  0
ARC
  8
0
  6
CONTINUOUS
 62
     7
 10
531.20447
 20
75.668472
 40
9.6028843
 50
94.479452
 51
126.00833
  0
ARC
  8
0
  6
CONTINUOUS
 62
     7
 10
531.20447
 20
75.668472
 40
8.1028843
 50
95.310878
 51
126.00833
  0
ARC
  8
0
  6
CONTINUOUS
 62
     7
 10
531.20447
 20
83.924241
 40
9.6028843
 50
274.47945
 51
306.00832
  0
LINE
  8
0
  6
CONTINUOUS
 62
     7
 10
660.16241
 20
88.535767
 11
660.16241
 21
86.481434
  0
LINE
  8
0
  6
CONTINUOUS
 62
     7
 10
658.66241
 20
88.535767
 11
658.66241
 21
86.481434
  0
LINE
  8
0
  6
CONTINUOUS
 62
     7
 10
658.66241
 20
75.590099
 11
658.66241
 21
73.535767
  0
LINE
  8
0
  6
CONTINUOUS
 62
     7
 10
660.16241
 20
75.590099
 11
660.16241
 21
73.535767
  0
LINE
  8
0
  6
CONTINUOUS
 62
     7
 10
658.66241
 20
84.975982
 11
658.66241
 21
81.035767
  0
LINE
  8
0
  6
CONTINUOUS
 62
     7
 10
660.16241
 20
84.975982
 11
660.16241
 21
81.035767
  0
ARC
  8
0
  6
CONTINUOUS
 62
     7
 10
662.41241
 20
81.035767
 40
3
 50
306.00832
 51
53.991676
  0
ARC
  8
0
  6
CONTINUOUS
 62
     7
 10
662.41241
 20
81.035767
 40
4.5
 50
306.00832
 51
53.991676
  0
ARC
  8
0
  6
CONTINUOUS
 62
     7
 10
656.41241
 20
81.035767
 40
3
 50
126.00833
 51
233.99168
  0
ARC
  8
0
  6
CONTINUOUS
 62
     7
 10
656.41241
 20
81.035767
 40
4.5
 50
126.00833
 51
233.99168
  0
ARC
  8
0
  6
CONTINUOUS
 62
     7
 10
659.41241
 20
76.907882
 40
9.6028843
 50
53.991676
 51
85.520553
  0
ARC
  8
0
  6
CONTINUOUS
 62
     7
 10
659.41241
 20
76.907882
 40
8.1028843
 50
53.991676
 51
84.689121
  0
ARC
  8
0
  6
CONTINUOUS
 62
     7
 10
659.41241
 20
85.163651
 40
8.1028843
 50
233.99167
 51
306.00832
  0
ARC
  8
0
  6
CONTINUOUS
 62
     7
 10
659.41241
 20
85.163651
 40
9.6028843
 50
233.99167
 51
265.52055
  0
ARC
  8
0
  6
CONTINUOUS
 62
     7
 10
659.41241
 20
87.973267
 40
0.9375
 50
36.869897
 51
143.1301
  0
ARC
  8
0
  6
CONTINUOUS
 62
     7
 10
659.41241
 20
81.598267
 40
0.9375
 50
216.8699
 51
323.1301
  0
ARC
  8
0
  6
CONTINUOUS
 62
     7
 10
659.41241
 20
74.098267
 40
0.9375
 50
216.8699
 51
323.1301
  0
ARC
  8
0
  6
CONTINUOUS
 62
     7
 10
659.41241
 20
76.907882
 40
9.6028843
 50
94.479452
 51
126.00833
  0
ARC
  8
0
  6
CONTINUOUS
 62
     7
 10
659.41241
 20
76.907882
 40
8.1028843
 50
95.310878
 51
126.00833
  0
ARC
  8
0
  6
CONTINUOUS
 62
     7
 10
659.41241
 20
85.163651
 40
9.6028843
 50
274.47945
 51
306.00832
  0
LINE
  8
0
  6
CONTINUOUS
 62
     7
 10
780.71021
 20
83.816498
 11
780.71021
 21
81.762165
  0
LINE
  8
0
  6
CONTINUOUS
 62
     7
 10
779.21021
 20
83.816498
 11
779.21021
 21
81.762165
  0
LINE
  8
0
  6
CONTINUOUS
 62
     7
 10
779.21021
 20
70.870831
 11
779.21021
 21
68.816498
  0
LINE
  8
0
  6
CONTINUOUS
 62
     7
 10
780.71021
 20
70.870831
 11
780.71021
 21
68.816498
  0
LINE
  8
0
  6
CONTINUOUS
 62
     7
 10
779.21021
 20
80.256713
 11
779.21021
 21
76.316498
  0
LINE
  8
0
  6
CONTINUOUS
 62
     7
 10
780.71021
 20
80.256713
 11
780.71021
 21
76.316498
  0
ARC
  8
0
  6
CONTINUOUS
 62
     7
 10
782.96021
 20
76.316498
 40
3
 50
306.00832
 51
53.991676
  0
ARC
  8
0
  6
CONTINUOUS
 62
     7
 10
782.96021
 20
76.316498
 40
4.5
 50
306.00832
 51
53.991676
  0
ARC
  8
0
  6
CONTINUOUS
 62
     7
 10
776.96021
 20
76.316498
 40
3
 50
126.00833
 51
233.99168
  0
ARC
  8
0
  6
CONTINUOUS
 62
     7
 10
776.96021
 20
76.316498
 40
4.5
 50
126.00833
 51
233.99168
  0
ARC
  8
0
  6
CONTINUOUS
 62
     7
 10
779.96021
 20
72.188613
 40
9.6028843
 50
53.991676
 51
85.520553
  0
ARC
  8
0
  6
CONTINUOUS
 62
     7
 10
779.96021
 20
72.188613
 40
8.1028843
 50
53.991676
 51
84.689121
  0
ARC
  8
0
  6
CONTINUOUS
 62
     7
 10
779.96021
 20
80.444382
 40
8.1028843
 50
233.99167
 51
306.00832
  0
ARC
  8
0
  6
CONTINUOUS
 62
     7
 10
779.96021
 20
80.444382
 40
9.6028843
 50
233.99167
 51
265.52055
  0
ARC
  8
0
  6
CONTINUOUS
 62
     7
 10
779.96021
 20
83.253998
 40
0.9375
 50
36.869897
 51
143.1301
  0
ARC
  8
0
  6
CONTINUOUS
 62
     7
 10
779.96021
 20
76.878998
 40
0.9375
 50
216.8699
 51
323.1301
  0
ARC
  8
0
  6
CONTINUOUS
 62
     7
 10
779.96021
 20
69.378998
 40
0.9375
 50
216.8699
 51
323.1301
  0
ARC
  8
0
  6
CONTINUOUS
 62
     7
 10
779.96021
 20
72.188613
 40
9.6028843
 50
94.479452
 51
126.00833
  0
ARC
  8
0
  6
CONTINUOUS
 62
     7
 10
779.96021
 20
72.188613
 40
8.1028843
 50
95.310878
 51
126.00833
  0
ARC
  8
0
  6
CONTINUOUS
 62
     7
 10
779.96021
 20
80.444382
 40
9.6028843
 50
274.47945
 51
306.00832
  0
LINE
  8
0
  6
CONTINUOUS
 62
     7
 10
416.87085
 20
-84.907631
 11
416.87085
 21
-86.961964
  0
LINE
  8
0
  6
CONTINUOUS
 62
     7
 10
415.37085
 20
-84.907631
 11
415.37085
 21
-86.961964
  0
LINE
  8
0
  6
CONTINUOUS
 62
     7
 10
415.37085
 20
-97.853298
 11
415.37085
 21
-99.907631
  0
LINE
  8
0
  6
CONTINUOUS
 62
     7
 10
416.87085
 20
-97.853298
 11
416.87085
 21
-99.907631
  0
LINE
  8
0
  6
CONTINUOUS
 62
     7
 10
415.37085
 20
-88.467415
 11
415.37085
 21
-92.407631
  0
LINE
  8
0
  6
CONTINUOUS
 62
     7
 10
416.87085
 20
-88.467415
 11
416.87085
 21
-92.407631
  0
ARC
  8
0
  6
CONTINUOUS
 62
     7
 10
419.12085
 20
-92.407631
 40
3
 50
306.00832
 51
53.991676
  0
ARC
  8
0
  6
CONTINUOUS
 62
     7
 10
419.12085
 20
-92.407631
 40
4.5
 50
306.00832
 51
53.991676
  0
ARC
  8
0
  6
CONTINUOUS
 62
     7
 10
413.12085
 20
-92.407631
 40
3
 50
126.00833
 51
233.99168
  0
ARC
  8
0
  6
CONTINUOUS
 62
     7
 10
413.12085
 20
-92.407631
 40
4.5
 50
126.00833
 51
233.99168
  0
ARC
  8
0
  6
CONTINUOUS
 62
     7
 10
416.12085
 20
-96.535515
 40
9.6028843
 50
53.991676
 51
85.520553
  0
ARC
  8
0
  6
CONTINUOUS
 62
     7
 10
416.12085
 20
-96.535515
 40
8.1028843
 50
53.991676
 51
84.689121
  0
ARC
  8
0
  6
CONTINUOUS
 62
     7
 10
416.12085
 20
-88.279747
 40
8.1028843
 50
233.99167
 51
306.00832
  0
ARC
  8
0
  6
CONTINUOUS
 62
     7
 10
416.12085
 20
-88.279747
 40
9.6028843
 50
233.99167
 51
265.52055
  0
ARC
  8
0
  6
CONTINUOUS
 62
     7
 10
416.12085
 20
-85.470131
 40
0.9375
 50
36.869897
 51
143.1301
  0
ARC
  8
0
  6
CONTINUOUS
 62
     7
 10
416.12085
 20
-91.845131
 40
0.9375
 50
216.8699
 51
323.1301
  0
ARC
  8
0
  6
CONTINUOUS
 62
     7
 10
416.12085
 20
-99.345131
 40
0.9375
 50
216.8699
 51
323.1301
  0
ARC
  8
0
  6
CONTINUOUS
 62
     7
 10
416.12085
 20
-96.535515
 40
9.6028843
 50
94.479452
 51
126.00833
  0
ARC
  8
0
  6
CONTINUOUS
 62
     7
 10
416.12085
 20
-96.535515
 40
8.1028843
 50
95.310878
 51
126.00833
  0
ARC
  8
0
  6
CONTINUOUS
 62
     7
 10
416.12085
 20
-88.279747
 40
9.6028843
 50
274.47945
 51
306.00832
  0
LINE
  8
0
  6
CONTINUOUS
 62
     7
 10
527.9043
 20
-84.738899
 11
527.9043
 21
-86.793232
  0
LINE
  8
0
  6
CONTINUOUS
 62
     7
 10
526.4043
 20
-84.738899
 11
526.4043
 21
-86.793232
  0
LINE
  8
0
  6
CONTINUOUS
 62
     7
 10
526.4043
 20
-97.684566
 11
526.4043
 21
-99.738899
  0
LINE
  8
0
  6
CONTINUOUS
 62
     7
 10
527.9043
 20
-97.684566
 11
527.9043
 21
-99.738899
  0
LINE
  8
0
  6
CONTINUOUS
 62
     7
 10
526.4043
 20
-88.298684
 11
526.4043
 21
-92.238899
  0
LINE
  8
0
  6
CONTINUOUS
 62
     7
 10
527.9043
 20
-88.298684
 11
527.9043
 21
-92.238899
  0
ARC
  8
0
  6
CONTINUOUS
 62
     7
 10
530.1543
 20
-92.238899
 40
3
 50
306.00832
 51
53.991676
  0
ARC
  8
0
  6
CONTINUOUS
 62
     7
 10
530.1543
 20
-92.238899
 40
4.5
 50
306.00832
 51
53.991676
  0
ARC
  8
0
  6
CONTINUOUS
 62
     7
 10
524.1543
 20
-92.238899
 40
3
 50
126.00833
 51
233.99168
  0
ARC
  8
0
  6
CONTINUOUS
 62
     7
 10
524.1543
 20
-92.238899
 40
4.5
 50
126.00833
 51
233.99168
  0
ARC
  8
0
  6
CONTINUOUS
 62
     7
 10
527.1543
 20
-96.366784
 40
9.6028843
 50
53.991676
 51
85.520553
  0
ARC
  8
0
  6
CONTINUOUS
 62
     7
 10
527.1543
 20
-96.366784
 40
8.1028843
 50
53.991676
 51
84.689121
  0
ARC
  8
0
  6
CONTINUOUS
 62
     7
 10
527.1543
 20
-88.111015
 40
8.1028843
 50
233.99167
 51
306.00832
  0
ARC
  8
0
  6
CONTINUOUS
 62
     7
 10
527.1543
 20
-88.111015
 40
9.6028843
 50
233.99167
 51
265.52055
  0
ARC
  8
0
  6
CONTINUOUS
 62
     7
 10
527.1543
 20
-85.301399
 40
0.9375
 50
36.869897
 51
143.1301
  0
ARC
  8
0
  6
CONTINUOUS
 62
     7
 10
527.1543
 20
-91.676399
 40
0.9375
 50
216.8699
 51
323.1301
  0
ARC
  8
0
  6
CONTINUOUS
 62
     7
 10
527.1543
 20
-99.176399
 40
0.9375
 50
216.8699
 51
323.1301
  0
ARC
  8
0
  6
CONTINUOUS
 62
     7
 10
527.1543
 20
-96.366784
 40
9.6028843
 50
94.479452
 51
126.00833
  0
ARC
  8
0
  6
CONTINUOUS
 62
     7
 10
527.1543
 20
-96.366784
 40
8.1028843
 50
95.310878
 51
126.00833
  0
ARC
  8
0
  6
CONTINUOUS
 62
     7
 10
527.1543
 20
-88.111015
 40
9.6028843
 50
274.47945
 51
306.00832
  0
LINE
  8
0
  6
CONTINUOUS
 62
     7
 10
654.92157
 20
-86.040962
 11
654.92157
 21
-88.095295
  0
LINE
  8
0
  6
CONTINUOUS
 62
     7
 10
653.42157
 20
-86.040962
 11
653.42157
 21
-88.095295
  0
LINE
  8
0
  6
CONTINUOUS
 62
     7
 10
653.42157
 20
-98.986629
 11
653.42157
 21
-101.04096
  0
LINE
  8
0
  6
CONTINUOUS
 62
     7
 10
654.92157
 20
-98.986629
 11
654.92157
 21
-101.04096
  0
LINE
  8
0
  6
CONTINUOUS
 62
     7
 10
653.42157
 20
-89.600747
 11
653.42157
 21
-93.540962
  0
LINE
  8
0
  6
CONTINUOUS
 62
     7
 10
654.92157
 20
-89.600747
 11
654.92157
 21
-93.540962
  0
ARC
  8
0
  6
CONTINUOUS
 62
     7
 10
657.17157
 20
-93.540962
 40
3
 50
306.00832
 51
53.991676
  0
ARC
  8
0
  6
CONTINUOUS
 62
     7
 10
657.17157
 20
-93.540962
 40
4.5
 50
306.00832
 51
53.991676
  0
ARC
  8
0
  6
CONTINUOUS
 62
     7
 10
651.17157
 20
-93.540962
 40
3
 50
126.00833
 51
233.99168
  0
ARC
  8
0
  6
CONTINUOUS
 62
     7
 10
651.17157
 20
-93.540962
 40
4.5
 50
126.00833
 51
233.99168
  0
ARC
  8
0
  6
CONTINUOUS
 62
     7
 10
654.17157
 20
-97.668847
 40
9.6028843
 50
53.991676
 51
85.520553
  0
ARC
  8
0
  6
CONTINUOUS
 62
     7
 10
654.17157
 20
-97.668847
 40
8.1028843
 50
53.991676
 51
84.689121
  0
ARC
  8
0
  6
CONTINUOUS
 62
     7
 10
654.17157
 20
-89.413078
 40
8.1028843
 50
233.99167
 51
306.00832
  0
ARC
  8
0
  6
CONTINUOUS
 62
     7
 10
654.17157
 20
-89.413078
 40
9.6028843
 50
233.99167
 51
265.52055
  0
ARC
  8
0
  6
CONTINUOUS
 62
     7
 10
654.17157
 20
-86.603462
 40
0.9375
 50
36.869897
 51
143.1301
  0
ARC
  8
0
  6
CONTINUOUS
 62
     7
 10
654.17157
 20
-92.978462
 40
0.9375
 50
216.8699
 51
323.1301
  0
ARC
  8
0
  6
CONTINUOUS
 62
     7
 10
654.17157
 20
-100.47846
 40
0.9375
 50
216.8699
 51
323.1301
  0
ARC
  8
0
  6
CONTINUOUS
 62
     7
 10
654.17157
 20
-97.668847
 40
9.6028843
 50
94.479452
 51
126.00833
  0
ARC
  8
0
  6
CONTINUOUS
 62
     7
 10
654.17157
 20
-97.668847
 40
8.1028843
 50
95.310878
 51
126.00833
  0
ARC
  8
0
  6
CONTINUOUS
 62
     7
 10
654.17157
 20
-89.413078
 40
9.6028843
 50
274.47945
 51
306.00832
  0
LINE
  8
0
  6
CONTINUOUS
 62
     7
 10
781.59924
 20
-95.310066
 11
781.59924
 21
-97.364399
  0
LINE
  8
0
  6
CONTINUOUS
 62
     7
 10
780.09924
 20
-95.310066
 11
780.09924
 21
-97.364399
  0
LINE
  8
0
  6
CONTINUOUS
 62
     7
 10
780.09924
 20
-108.25573
 11
780.09924
 21
-110.31007
  0
LINE
  8
0
  6
CONTINUOUS
 62
     7
 10
781.59924
 20
-108.25573
 11
781.59924
 21
-110.31007
  0
LINE
  8
0
  6
CONTINUOUS
 62
     7
 10
780.09924
 20
-98.869851
 11
780.09924
 21
-102.81007
  0
LINE
  8
0
  6
CONTINUOUS
 62
     7
 10
781.59924
 20
-98.869851
 11
781.59924
 21
-102.81007
  0
ARC
  8
0
  6
CONTINUOUS
 62
     7
 10
783.84924
 20
-102.81007
 40
3
 50
306.00832
 51
53.991676
  0
ARC
  8
0
  6
CONTINUOUS
 62
     7
 10
783.84924
 20
-102.81007
 40
4.5
 50
306.00832
 51
53.991676
  0
ARC
  8
0
  6
CONTINUOUS
 62
     7
 10
777.84924
 20
-102.81007
 40
3
 50
126.00833
 51
233.99168
  0
ARC
  8
0
  6
CONTINUOUS
 62
     7
 10
777.84924
 20
-102.81007
 40
4.5
 50
126.00833
 51
233.99168
  0
ARC
  8
0
  6
CONTINUOUS
 62
     7
 10
780.84924
 20
-106.93795
 40
9.6028843
 50
53.991676
 51
85.520553
  0
ARC
  8
0
  6
CONTINUOUS
 62
     7
 10
780.84924
 20
-106.93795
 40
8.1028843
 50
53.991676
 51
84.689121
  0
ARC
  8
0
  6
CONTINUOUS
 62
     7
 10
780.84924
 20
-98.682182
 40
8.1028843
 50
233.99167
 51
306.00832
  0
ARC
  8
0
  6
CONTINUOUS
 62
     7
 10
780.84924
 20
-98.682182
 40
9.6028843
 50
233.99167
 51
265.52055
  0
ARC
  8
0
  6
CONTINUOUS
 62
     7
 10
780.84924
 20
-95.872566
 40
0.9375
 50
36.869897
 51
143.1301
  0
ARC
  8
0
  6
CONTINUOUS
 62
     7
 10
780.84924
 20
-102.24757
 40
0.9375
 50
216.8699
 51
323.1301
  0
ARC
  8
0
  6
CONTINUOUS
 62
     7
 10
780.84924
 20
-109.74757
 40
0.9375
 50
216.8699
 51
323.1301
  0
ARC
  8
0
  6
CONTINUOUS
 62
     7
 10
780.84924
 20
-106.93795
 40
9.6028843
 50
94.479452
 51
126.00833
  0
ARC
  8
0
  6
CONTINUOUS
 62
     7
 10
780.84924
 20
-106.93795
 40
8.1028843
 50
95.310878
 51
126.00833
  0
ARC
  8
0
  6
CONTINUOUS
 62
     7
 10
780.84924
 20
-98.682182
 40
9.6028843
 50
274.47945
 51
306.00832
  0
LINE
  8
0
  6
CONTINUOUS
 62
     7
 10
-204.81325
 20
-348.7847
 11
-204.81325
 21
-350.83903
  0
LINE
  8
0
  6
CONTINUOUS
 62
     7
 10
-206.31325
 20
-348.7847
 11
-206.31325
 21
-350.83903
  0
LINE
  8
0
  6
CONTINUOUS
 62
     7
 10
-206.31325
 20
-361.73037
 11
-206.31325
 21
-363.7847
  0
LINE
  8
0
  6
CONTINUOUS
 62
     7
 10
-204.81325
 20
-361.73037
 11
-204.81325
 21
-363.7847
  0
LINE
  8
0
  6
CONTINUOUS
 62
     7
 10
-206.31325
 20
-352.34448
 11
-206.31325
 21
-356.2847
  0
LINE
  8
0
  6
CONTINUOUS
 62
     7
 10
-204.81325
 20
-352.34448
 11
-204.81325
 21
-356.2847
  0
ARC
  8
0
  6
CONTINUOUS
 62
     7
 10
-202.56325
 20
-356.2847
 40
3
 50
306.00832
 51
53.991676
  0
ARC
  8
0
  6
CONTINUOUS
 62
     7
 10
-202.56325
 20
-356.2847
 40
4.5
 50
306.00832
 51
53.991676
  0
ARC
  8
0
  6
CONTINUOUS
 62
     7
 10
-208.56325
 20
-356.2847
 40
3
 50
126.00833
 51
233.99168
  0
ARC
  8
0
  6
CONTINUOUS
 62
     7
 10
-208.56325
 20
-356.2847
 40
4.5
 50
126.00833
 51
233.99168
  0
ARC
  8
0
  6
CONTINUOUS
 62
     7
 10
-205.56325
 20
-360.41258
 40
9.6028843
 50
53.991676
 51
85.520553
  0
ARC
  8
0
  6
CONTINUOUS
 62
     7
 10
-205.56325
 20
-360.41258
 40
8.1028843
 50
53.991676
 51
84.689121
  0
ARC
  8
0
  6
CONTINUOUS
 62
     7
 10
-205.56325
 20
-352.15681
 40
8.1028843
 50
233.99167
 51
306.00832
  0
ARC
  8
0
  6
CONTINUOUS
 62
     7
 10
-205.56325
 20
-352.15681
 40
9.6028843
 50
233.99167
 51
265.52055
  0
ARC
  8
0
  6
CONTINUOUS
 62
     7
 10
-205.56325
 20
-349.3472
 40
0.9375
 50
36.869897
 51
143.1301
  0
ARC
  8
0
  6
CONTINUOUS
 62
     7
 10
-205.56325
 20
-355.7222
 40
0.9375
 50
216.8699
 51
323.1301
  0
ARC
  8
0
  6
CONTINUOUS
 62
     7
 10
-205.56325
 20
-363.2222
 40
0.9375
 50
216.8699
 51
323.1301
  0
ARC
  8
0
  6
CONTINUOUS
 62
     7
 10
-205.56325
 20
-360.41258
 40
9.6028843
 50
94.479452
 51
126.00833
  0
ARC
  8
0
  6
CONTINUOUS
 62
     7
 10
-205.56325
 20
-360.41258
 40
8.1028843
 50
95.310878
 51
126.00833
  0
ARC
  8
0
  6
CONTINUOUS
 62
     7
 10
-205.56325
 20
-352.15681
 40
9.6028843
 50
274.47945
 51
306.00832
  0
LINE
  8
0
  6
CONTINUOUS
 62
     7
 10
-65.776779
 20
-351.10196
 11
-65.776779
 21
-353.15629
  0
LINE
  8
0
  6
CONTINUOUS
 62
     7
 10
-67.276779
 20
-351.10196
 11
-67.276779
 21
-353.15629
  0
LINE
  8
0
  6
CONTINUOUS
 62
     7
 10
-67.276779
 20
-364.04763
 11
-67.276779
 21
-366.10196
  0
LINE
  8
0
  6
CONTINUOUS
 62
     7
 10
-65.776779
 20
-364.04763
 11
-65.776779
 21
-366.10196
  0
LINE
  8
0
  6
CONTINUOUS
 62
     7
 10
-67.276779
 20
-354.66174
 11
-67.276779
 21
-358.60196
  0
LINE
  8
0
  6
CONTINUOUS
 62
     7
 10
-65.776779
 20
-354.66174
 11
-65.776779
 21
-358.60196
  0
ARC
  8
0
  6
CONTINUOUS
 62
     7
 10
-63.526779
 20
-358.60196
 40
3
 50
306.00832
 51
53.991676
  0
ARC
  8
0
  6
CONTINUOUS
 62
     7
 10
-63.526779
 20
-358.60196
 40
4.5
 50
306.00832
 51
53.991676
  0
ARC
  8
0
  6
CONTINUOUS
 62
     7
 10
-69.526779
 20
-358.60196
 40
3
 50
126.00833
 51
233.99168
  0
ARC
  8
0
  6
CONTINUOUS
 62
     7
 10
-69.526779
 20
-358.60196
 40
4.5
 50
126.00833
 51
233.99168
  0
ARC
  8
0
  6
CONTINUOUS
 62
     7
 10
-66.526779
 20
-362.72984
 40
9.6028843
 50
53.991676
 51
85.520553
  0
ARC
  8
0
  6
CONTINUOUS
 62
     7
 10
-66.526779
 20
-362.72984
 40
8.1028843
 50
53.991676
 51
84.689121
  0
ARC
  8
0
  6
CONTINUOUS
 62
     7
 10
-66.526779
 20
-354.47407
 40
8.1028843
 50
233.99167
 51
306.00832
  0
ARC
  8
0
  6
CONTINUOUS
 62
     7
 10
-66.526779
 20
-354.47407
 40
9.6028843
 50
233.99167
 51
265.52055
  0
ARC
  8
0
  6
CONTINUOUS
 62
     7
 10
-66.526779
 20
-351.66446
 40
0.9375
 50
36.869897
 51
143.1301
  0
ARC
  8
0
  6
CONTINUOUS
 62
     7
 10
-66.526779
 20
-358.03946
 40
0.9375
 50
216.8699
 51
323.1301
  0
ARC
  8
0
  6
CONTINUOUS
 62
     7
 10
-66.526779
 20
-365.53946
 40
0.9375
 50
216.8699
 51
323.1301
  0
ARC
  8
0
  6
CONTINUOUS
 62
     7
 10
-66.526779
 20
-362.72984
 40
9.6028843
 50
94.479452
 51
126.00833
  0
ARC
  8
0
  6
CONTINUOUS
 62
     7
 10
-66.526779
 20
-362.72984
 40
8.1028843
 50
95.310878
 51
126.00833
  0
ARC
  8
0
  6
CONTINUOUS
 62
     7
 10
-66.526779
 20
-354.47407
 40
9.6028843
 50
274.47945
 51
306.00832
  0
LINE
  8
0
  6
CONTINUOUS
 62
     7
 10
81.275841
 20
-351.10196
 11
81.275841
 21
-353.15629
  0
LINE
  8
0
  6
CONTINUOUS
 62
     7
 10
79.775841
 20
-351.10196
 11
79.775841
 21
-353.15629
  0
LINE
  8
0
  6
CONTINUOUS
 62
     7
 10
79.775841
 20
-364.04763
 11
79.775841
 21
-366.10196
  0
LINE
  8
0
  6
CONTINUOUS
 62
     7
 10
81.275841
 20
-364.04763
 11
81.275841
 21
-366.10196
  0
LINE
  8
0
  6
CONTINUOUS
 62
     7
 10
79.775841
 20
-354.66174
 11
79.775841
 21
-358.60196
  0
LINE
  8
0
  6
CONTINUOUS
 62
     7
 10
81.275841
 20
-354.66174
 11
81.275841
 21
-358.60196
  0
ARC
  8
0
  6
CONTINUOUS
 62
     7
 10
83.525841
 20
-358.60196
 40
3
 50
306.00832
 51
53.991676
  0
ARC
  8
0
  6
CONTINUOUS
 62
     7
 10
83.525841
 20
-358.60196
 40
4.5
 50
306.00832
 51
53.991676
  0
ARC
  8
0
  6
CONTINUOUS
 62
     7
 10
77.525841
 20
-358.60196
 40
3
 50
126.00833
 51
233.99168
  0
ARC
  8
0
  6
CONTINUOUS
 62
     7
 10
77.525841
 20
-358.60196
 40
4.5
 50
126.00833
 51
233.99168
  0
ARC
  8
0
  6
CONTINUOUS
 62
     7
 10
80.525841
 20
-362.72984
 40
9.6028843
 50
53.991676
 51
85.520553
  0
ARC
  8
0
  6
CONTINUOUS
 62
     7
 10
80.525841
 20
-362.72984
 40
8.1028843
 50
53.991676
 51
84.689121
  0
ARC
  8
0
  6
CONTINUOUS
 62
     7
 10
80.525841
 20
-354.47407
 40
8.1028843
 50
233.99167
 51
306.00832
  0
ARC
  8
0
  6
CONTINUOUS
 62
     7
 10
80.525841
 20
-354.47407
 40
9.6028843
 50
233.99167
 51
265.52055
  0
ARC
  8
0
  6
CONTINUOUS
 62
     7
 10
80.525841
 20
-351.66446
 40
0.9375
 50
36.869897
 51
143.1301
  0
ARC
  8
0
  6
CONTINUOUS
 62
     7
 10
80.525841
 20
-358.03946
 40
0.9375
 50
216.8699
 51
323.1301
  0
ARC
  8
0
  6
CONTINUOUS
 62
     7
 10
80.525841
 20
-365.53946
 40
0.9375
 50
216.8699
 51
323.1301
  0
ARC
  8
0
  6
CONTINUOUS
 62
     7
 10
80.525841
 20
-362.72984
 40
9.6028843
 50
94.479452
 51
126.00833
  0
ARC
  8
0
  6
CONTINUOUS
 62
     7
 10
80.525841
 20
-362.72984
 40
8.1028843
 50
95.310878
 51
126.00833
  0
ARC
  8
0
  6
CONTINUOUS
 62
     7
 10
80.525841
 20
-354.47407
 40
9.6028843
 50
274.47945
 51
306.00832
  0
LINE
  8
0
  6
CONTINUOUS
 62
     7
 10
211.32431
 20
-351.87927
 11
211.32431
 21
-353.93361
  0
LINE
  8
0
  6
CONTINUOUS
 62
     7
 10
209.82431
 20
-351.87927
 11
209.82431
 21
-353.93361
  0
LINE
  8
0
  6
CONTINUOUS
 62
     7
 10
209.82431
 20
-364.82494
 11
209.82431
 21
-366.87927
  0
LINE
  8
0
  6
CONTINUOUS
 62
     7
 10
211.32431
 20
-364.82494
 11
211.32431
 21
-366.87927
  0
LINE
  8
0
  6
CONTINUOUS
 62
     7
 10
209.82431
 20
-355.43906
 11
209.82431
 21
-359.37927
  0
LINE
  8
0
  6
CONTINUOUS
 62
     7
 10
211.32431
 20
-355.43906
 11
211.32431
 21
-359.37927
  0
ARC
  8
0
  6
CONTINUOUS
 62
     7
 10
213.57431
 20
-359.37927
 40
3
 50
306.00832
 51
53.991676
  0
ARC
  8
0
  6
CONTINUOUS
 62
     7
 10
213.57431
 20
-359.37927
 40
4.5
 50
306.00832
 51
53.991676
  0
ARC
  8
0
  6
CONTINUOUS
 62
     7
 10
207.57431
 20
-359.37927
 40
3
 50
126.00833
 51
233.99168
  0
ARC
  8
0
  6
CONTINUOUS
 62
     7
 10
207.57431
 20
-359.37927
 40
4.5
 50
126.00833
 51
233.99168
  0
ARC
  8
0
  6
CONTINUOUS
 62
     7
 10
210.57431
 20
-363.50716
 40
9.6028843
 50
53.991676
 51
85.520553
  0
ARC
  8
0
  6
CONTINUOUS
 62
     7
 10
210.57431
 20
-363.50716
 40
8.1028843
 50
53.991676
 51
84.689121
  0
ARC
  8
0
  6
CONTINUOUS
 62
     7
 10
210.57431
 20
-355.25139
 40
8.1028843
 50
233.99167
 51
306.00832
  0
ARC
  8
0
  6
CONTINUOUS
 62
     7
 10
210.57431
 20
-355.25139
 40
9.6028843
 50
233.99167
 51
265.52055
  0
ARC
  8
0
  6
CONTINUOUS
 62
     7
 10
210.57431
 20
-352.44177
 40
0.9375
 50
36.869897
 51
143.1301
  0
ARC
  8
0
  6
CONTINUOUS
 62
     7
 10
210.57431
 20
-358.81677
 40
0.9375
 50
216.8699
 51
323.1301
  0
ARC
  8
0
  6
CONTINUOUS
 62
     7
 10
210.57431
 20
-366.31677
 40
0.9375
 50
216.8699
 51
323.1301
  0
ARC
  8
0
  6
CONTINUOUS
 62
     7
 10
210.57431
 20
-363.50716
 40
9.6028843
 50
94.479452
 51
126.00833
  0
ARC
  8
0
  6
CONTINUOUS
 62
     7
 10
210.57431
 20
-363.50716
 40
8.1028843
 50
95.310878
 51
126.00833
  0
ARC
  8
0
  6
CONTINUOUS
 62
     7
 10
210.57431
 20
-355.25139
 40
9.6028843
 50
274.47945
 51
306.00832
  0
ENDSEC
  0
EOF
