  0
SECTION
  2
HEADER
  9
$EXTMAX
 10
297.25922
 20
211.66544
  9
$EXTMIN
 10
-297.25922
 20
-210.82214
  0
ENDSEC
  0
SECTION
  2
TABLES
  0
TABLE
  2
LTYPE
 70
    22
  0
LTYPE
  2
CONTINUOUS
 70
    64
  3
Solid line
 72
    65
 73
     0
 40
0.000000
  0
LTYPE
  2
DASHED
 70
    64
  3
__ __ __ __ __ __ __ __ __ __ __ __ __ __ __
 72
    65
 73
     2
 40
3.500000
 49
2.000000
 49
-1.500000
  0
LTYPE
  2
CENTER
 70
    64
  3
____ _ ____ _ ____ _ ____ _ ____ _ ____ _ ____
 72
    65
 73
     4
 40
17.500000
 49
13.000000
 49
-1.500000
 49
1.500000
 49
-1.500000
  0
LTYPE
  2
PHANTOM
 70
    64
  3
_____ _ _ _____ _ _ _____ _ _ _____ _ _ ____  
 72
    65
 73
     6
 40
15.500000
 49
8.000000
 49
-1.500000
 49
1.500000
 49
-1.500000
 49
1.500000
 49
-1.500000
  0
LTYPE
  2
DOT
 70
    64
  3
. . . . . . . . . . . . . . . . . . . . . . . .
 72
    65
 73
     2
 40
0.25
 49
0.0
 49
-0.25
  0
ENDTAB
  0
TABLE
  2
LAYER
 70
     1
  0
LAYER
  2
0
 70
     0
 62
     7
  6
CONTINUOUS
  0
ENDTAB
  0
TABLE
  2
STYLE
 70
     1
  0
STYLE
  2
STANDARD
 70
     0
 40
0.000000
 41
1.000000
 50
0.000000
 71
     0
 42
0.200000
  3
txt
  4
BIGFONT
  0
ENDTAB
  0
TABLE
  2
VIEW
 70
     0
  0
ENDTAB
  0
ENDSEC
  0
SECTION
  2
BLOCKS
  0
ENDSEC
  0
SECTION
  2
ENTITIES
  0
POINT
  8
0
  6
CONTINUOUS
 62
     7
 10
-861.04095
 20
126.24902
  0
POINT
  8
0
  6
CONTINUOUS
 62
     7
 10
-770.08197
 20
124.75789
  0
POINT
  8
0
  6
CONTINUOUS
 62
     7
 10
-660.48389
 20
118.04781
  0
POINT
  8
0
  6
CONTINUOUS
 62
     7
 10
-543.43018
 20
118.79337
  0
POINT
  8
0
  6
CONTINUOUS
 62
     7
 10
-880.41479
 20
11.211378
  0
POINT
  8
0
  6
CONTINUOUS
 62
     7
 10
-798.78046
 20
9.4675598
  0
POINT
  8
0
  6
CONTINUOUS
 62
     7
 10
-709.75214
 20
14.117743
  0
POINT
  8
0
  6
CONTINUOUS
 62
     7
 10
-619.97998
 20
11.211378
  0
POINT
  8
0
  6
CONTINUOUS
 62
     7
 10
-529.23254
 20
8.3050156
  0
POINT
  8
0
  6
CONTINUOUS
 62
     7
 10
-431.79071
 20
4.2361064
  0
POINT
  8
0
  6
CONTINUOUS
 62
     7
 10
-866.11444
 20
-125.38769
  0
POINT
  8
0
  6
CONTINUOUS
 62
     7
 10
-765.55432
 20
-128.29405
  0
POINT
  8
0
  6
CONTINUOUS
 62
     7
 10
-659.7627
 20
-131.20042
  0
POINT
  8
0
  6
CONTINUOUS
 62
     7
 10
-549.32086
 20
-135.26933
  0
POINT
  8
0
  6
CONTINUOUS
 62
     7
 10
-436.26337
 20
-139.33824
  0
POINT
  8
0
  6
CONTINUOUS
 62
     7
 10
-231.45567
 20
106.79852
  0
POINT
  8
0
  6
CONTINUOUS
 62
     7
 10
-132.4528
 20
106.79852
  0
POINT
  8
0
  6
CONTINUOUS
 62
     7
 10
-25.422676
 20
106.12958
  0
POINT
  8
0
  6
CONTINUOUS
 62
     7
 10
89.634712
 20
107.46745
  0
POINT
  8
0
  6
CONTINUOUS
 62
     7
 10
213.38831
 20
107.46745
  0
POINT
  8
0
  6
CONTINUOUS
 62
     7
 10
-200.78232
 20
-76.455132
  0
POINT
  8
0
  6
CONTINUOUS
 62
     7
 10
-35.893555
 20
-75.77562
  0
POINT
  8
0
  6
CONTINUOUS
 62
     7
 10
74.48127
 20
-76.444557
  0
POINT
  8
0
  6
CONTINUOUS
 62
     7
 10
190.87654
 20
-76.444557
  0
POINT
  8
0
  6
CONTINUOUS
 62
     7
 10
393.41568
 20
105.22552
  0
POINT
  8
0
  6
CONTINUOUS
 62
     7
 10
523.97406
 20
104.43903
  0
POINT
  8
0
  6
CONTINUOUS
 62
     7
 10
662.79065
 20
104.43903
  0
POINT
  8
0
  6
CONTINUOUS
 62
     7
 10
814.97772
 20
104.43903
  0
POINT
  8
0
  6
CONTINUOUS
 62
     7
 10
398.13464
 20
-84.320099
  0
POINT
  8
0
  6
CONTINUOUS
 62
     7
 10
527.12006
 20
-85.10659
  0
POINT
  8
0
  6
CONTINUOUS
 62
     7
 10
662.3974
 20
-85.893089
  0
POINT
  8
0
  6
CONTINUOUS
 62
     7
 10
803.9668
 20
-85.893089
  0
POINT
  8
0
  6
CONTINUOUS
 62
     7
 10
404.14212
 20
-339.50504
  0
POINT
  8
0
  6
CONTINUOUS
 62
     7
 10
588.74072
 20
-339.50504
  0
POINT
  8
0
  6
CONTINUOUS
 62
     7
 10
789.98346
 20
-340.26157
  0
POINT
  8
0
  6
CONTINUOUS
 62
     7
 10
466.93591
 20
-533.18225
  0
POINT
  8
0
  6
CONTINUOUS
 62
     7
 10
698.44073
 20
-528.64294
  0
POINT
  8
0
  6
CONTINUOUS
 62
     7
 10
149.99506
 20
-336.78543
  0
POINT
  8
0
  6
CONTINUOUS
 62
     7
 10
-24.607136
 20
-337.57193
  0
POINT
  8
0
  6
CONTINUOUS
 62
     7
 10
-182.29965
 20
-336.78543
  0
POINT
  8
0
  6
CONTINUOUS
 62
     7
 10
-174.82794
 20
-523.97156
  0
POINT
  8
0
  6
CONTINUOUS
 62
     7
 10
19.436659
 20
-528.69055
  0
POINT
  8
0
  6
CONTINUOUS
 62
     7
 10
177.52243
 20
-527.11755
  0
POINT
  8
0
  6
CONTINUOUS
 62
     7
 10
-204.40694
 20
-851.75354
  0
POINT
  8
0
  6
CONTINUOUS
 62
     7
 10
-18.544476
 20
-850.98236
  0
POINT
  8
0
  6
CONTINUOUS
 62
     7
 10
171.17406
 20
-850.98236
  0
POINT
  8
0
  6
CONTINUOUS
 62
     7
 10
406.29675
 20
-866.3175
  0
POINT
  8
0
  6
CONTINUOUS
 62
     7
 10
589.42731
 20
-865.58032
  0
POINT
  8
0
  6
CONTINUOUS
 62
     7
 10
805.82672
 20
-864.8432
  0
POINT
  8
0
  6
CONTINUOUS
 62
     7
 10
130.51633
 20
-1291.3452
  0
POINT
  8
0
  6
CONTINUOUS
 62
     7
 10
-145.24124
 20
-1292.109
  0
LINE
  8
0
  6
CONTINUOUS
 62
     7
 10
-202.45567
 20
61.298531
 11
-190.45567
 21
61.298531
  0
LINE
  8
0
  6
CENTER
 62
     7
 10
-183.74922
 20
106.79852
 11
-280.28067
 21
106.79852
  0
LINE
  8
0
  6
CENTER
 62
     7
 10
-231.45567
 20
45.322716
 11
-231.45567
 21
156.5508
  0
LINE
  8
0
  6
CONTINUOUS
 62
     7
 10
-214.9557
 20
63.798531
 11
-207.32909
 21
63.798531
  0
LINE
  8
0
  6
CONTINUOUS
 62
     7
 10
-217.9557
 20
60.798531
 11
-217.9557
 21
58.396599
  0
LINE
  8
0
  6
CONTINUOUS
 62
     7
 10
-216.4557
 20
55.798515
 11
-216.4557
 21
49.798515
  0
LINE
  8
0
  6
CONTINUOUS
 62
     7
 10
-246.45569
 20
55.798515
 11
-246.45569
 21
49.798515
  0
LINE
  8
0
  6
CONTINUOUS
 62
     7
 10
-244.95569
 20
60.798531
 11
-244.95569
 21
58.396599
  0
LINE
  8
0
  6
CONTINUOUS
 62
     7
 10
-247.95569
 20
63.798531
 11
-255.58226
 21
63.798531
  0
LINE
  8
0
  6
CONTINUOUS
 62
     7
 10
-260.45566
 20
61.298531
 11
-272.45566
 21
61.298531
  0
LINE
  8
0
  6
CONTINUOUS
 62
     7
 10
-260.45566
 20
152.29854
 11
-272.45566
 21
152.29854
  0
LINE
  8
0
  6
CONTINUOUS
 62
     7
 10
-255.58226
 20
149.79854
 11
-207.32909
 21
149.79854
  0
LINE
  8
0
  6
CONTINUOUS
 62
     7
 10
-202.45567
 20
152.29854
 11
-190.45567
 21
152.29854
  0
LINE
  8
0
  6
CONTINUOUS
 62
     7
 10
-260.45566
 20
152.29854
 11
-260.45566
 21
61.298531
  0
LINE
  8
0
  6
CONTINUOUS
 62
     7
 10
-272.45566
 20
152.29854
 11
-272.45566
 21
61.298531
  0
LINE
  8
0
  6
CONTINUOUS
 62
     7
 10
-202.45567
 20
152.29854
 11
-202.45567
 21
61.298531
  0
LINE
  8
0
  6
CONTINUOUS
 62
     7
 10
-190.45567
 20
152.29854
 11
-190.45567
 21
61.298531
  0
LINE
  8
0
  6
CONTINUOUS
 62
     7
 10
-246.45569
 20
55.396599
 11
-216.4557
 21
55.396599
  0
LINE
  8
0
  6
CONTINUOUS
 62
     7
 10
-246.45569
 20
49.798515
 11
-216.4557
 21
49.798515
  0
LINE
  8
0
  6
CONTINUOUS
 62
     7
 10
-88.452805
 20
61.298515
 11
-88.452805
 21
152.29852
  0
LINE
  8
0
  6
CONTINUOUS
 62
     7
 10
-100.4528
 20
152.29852
 11
-88.452805
 21
152.29852
  0
LINE
  8
0
  6
CONTINUOUS
 62
     7
 10
-100.4528
 20
61.298515
 11
-100.4528
 21
152.29852
  0
LINE
  8
0
  6
CONTINUOUS
 62
     7
 10
-159.57941
 20
149.79852
 11
-105.32622
 21
149.79852
  0
LINE
  8
0
  6
CONTINUOUS
 62
     7
 10
-164.4528
 20
61.298515
 11
-164.4528
 21
152.29852
  0
LINE
  8
0
  6
CONTINUOUS
 62
     7
 10
-164.4528
 20
152.29852
 11
-176.4528
 21
152.29852
  0
LINE
  8
0
  6
CONTINUOUS
 62
     7
 10
-176.4528
 20
61.298515
 11
-176.4528
 21
152.29852
  0
LINE
  8
0
  6
CENTER
 62
     7
 10
-132.4528
 20
45.322716
 11
-132.4528
 21
156.5508
  0
LINE
  8
0
  6
CENTER
 62
     7
 10
-80.69548
 20
106.79852
 11
-184.4528
 21
106.79852
  0
LINE
  8
0
  6
CONTINUOUS
 62
     7
 10
-164.4528
 20
61.298515
 11
-176.4528
 21
61.298515
  0
LINE
  8
0
  6
CONTINUOUS
 62
     7
 10
-154.95282
 20
63.798515
 11
-159.57941
 21
63.798515
  0
LINE
  8
0
  6
CONTINUOUS
 62
     7
 10
-148.95282
 20
57.798515
 11
-148.95282
 21
57.396599
  0
LINE
  8
0
  6
CONTINUOUS
 62
     7
 10
-150.45282
 20
54.798515
 11
-150.45282
 21
48.798515
  0
LINE
  8
0
  6
CONTINUOUS
 62
     7
 10
-114.45284
 20
54.798515
 11
-150.45282
 21
54.798515
  0
LINE
  8
0
  6
CONTINUOUS
 62
     7
 10
-114.45284
 20
48.798515
 11
-150.45282
 21
48.798515
  0
LINE
  8
0
  6
CONTINUOUS
 62
     7
 10
-114.45284
 20
54.798515
 11
-114.45284
 21
48.798515
  0
LINE
  8
0
  6
CONTINUOUS
 62
     7
 10
-115.95284
 20
57.798515
 11
-115.95284
 21
57.396599
  0
LINE
  8
0
  6
CONTINUOUS
 62
     7
 10
-109.95284
 20
63.798515
 11
-105.32622
 21
63.798515
  0
LINE
  8
0
  6
CONTINUOUS
 62
     7
 10
-100.4528
 20
61.298515
 11
-88.452805
 21
61.298515
  0
LINE
  8
0
  6
CONTINUOUS
 62
     7
 10
22.577324
 20
60.629578
 11
22.577324
 21
151.62958
  0
LINE
  8
0
  6
CONTINUOUS
 62
     7
 10
10.577323
 20
151.62958
 11
22.577324
 21
151.62958
  0
LINE
  8
0
  6
CONTINUOUS
 62
     7
 10
10.577323
 20
60.629578
 11
10.577323
 21
151.62958
  0
LINE
  8
0
  6
CONTINUOUS
 62
     7
 10
-56.549278
 20
149.12958
 11
5.7039099
 21
149.12958
  0
LINE
  8
0
  6
CONTINUOUS
 62
     7
 10
-61.422676
 20
60.629578
 11
-61.422676
 21
151.62958
  0
LINE
  8
0
  6
CONTINUOUS
 62
     7
 10
-61.422676
 20
151.62958
 11
-73.422676
 21
151.62958
  0
LINE
  8
0
  6
CONTINUOUS
 62
     7
 10
-73.422676
 20
60.629578
 11
-73.422676
 21
151.62958
  0
LINE
  8
0
  6
CONTINUOUS
 62
     7
 10
-61.422676
 20
60.629578
 11
-73.422676
 21
60.629578
  0
LINE
  8
0
  6
CONTINUOUS
 62
     7
 10
-51.922691
 20
63.129578
 11
-56.549278
 21
63.129578
  0
LINE
  8
0
  6
CONTINUOUS
 62
     7
 10
-45.922691
 20
57.129578
 11
-45.922691
 21
55.727661
  0
LINE
  8
0
  6
CONTINUOUS
 62
     7
 10
-47.422691
 20
53.129578
 11
-47.422691
 21
46.129578
  0
LINE
  8
0
  6
CONTINUOUS
 62
     7
 10
-3.4227076
 20
46.129578
 11
-47.422691
 21
46.129578
  0
LINE
  8
0
  6
CONTINUOUS
 62
     7
 10
-3.4227076
 20
53.129578
 11
-47.422691
 21
53.129578
  0
LINE
  8
0
  6
CONTINUOUS
 62
     7
 10
-3.4227076
 20
53.129578
 11
-3.4227076
 21
46.129578
  0
LINE
  8
0
  6
CONTINUOUS
 62
     7
 10
-4.9227076
 20
57.129578
 11
-4.9227076
 21
55.727661
  0
LINE
  8
0
  6
CONTINUOUS
 62
     7
 10
1.0772926
 20
63.129578
 11
5.7039099
 21
63.129578
  0
LINE
  8
0
  6
CONTINUOUS
 62
     7
 10
10.577323
 20
60.629578
 11
22.577324
 21
60.629578
  0
LINE
  8
0
  6
CENTER
 62
     7
 10
-25.422676
 20
41.585052
 11
-25.422676
 21
155.88185
  0
LINE
  8
0
  6
CENTER
 62
     7
 10
30.204369
 20
106.12958
 11
-82.893929
 21
106.12958
  0
LINE
  8
0
  6
CONTINUOUS
 62
     7
 10
129.63472
 20
152.96745
 11
141.63472
 21
152.96745
  0
LINE
  8
0
  6
CONTINUOUS
 62
     7
 10
141.63472
 20
61.967453
 11
141.63472
 21
152.96745
  0
LINE
  8
0
  6
CONTINUOUS
 62
     7
 10
129.63472
 20
61.967453
 11
129.63472
 21
152.96745
  0
LINE
  8
0
  6
CONTINUOUS
 62
     7
 10
54.50811
 20
150.46745
 11
124.7613
 21
150.46745
  0
LINE
  8
0
  6
CENTER
 62
     7
 10
89.634712
 20
40.434143
 11
89.634712
 21
157.21973
  0
LINE
  8
0
  6
CONTINUOUS
 62
     7
 10
49.634712
 20
152.96745
 11
37.634712
 21
152.96745
  0
LINE
  8
0
  6
CONTINUOUS
 62
     7
 10
37.634712
 20
61.967453
 11
37.634712
 21
152.96745
  0
LINE
  8
0
  6
CONTINUOUS
 62
     7
 10
49.634712
 20
61.967453
 11
49.634712
 21
152.96745
  0
LINE
  8
0
  6
CENTER
 62
     7
 10
148.36952
 20
107.46745
 11
27.634712
 21
107.46745
  0
LINE
  8
0
  6
CONTINUOUS
 62
     7
 10
129.63472
 20
61.967453
 11
141.63472
 21
61.967453
  0
LINE
  8
0
  6
CONTINUOUS
 62
     7
 10
49.634712
 20
61.967453
 11
37.634712
 21
61.967453
  0
LINE
  8
0
  6
CONTINUOUS
 62
     7
 10
58.634697
 20
64.467453
 11
54.50811
 21
64.467453
  0
LINE
  8
0
  6
CONTINUOUS
 62
     7
 10
64.634697
 20
58.467453
 11
64.634697
 21
56.065536
  0
LINE
  8
0
  6
CONTINUOUS
 62
     7
 10
116.13468
 20
53.467453
 11
63.134697
 21
53.467453
  0
LINE
  8
0
  6
CONTINUOUS
 62
     7
 10
63.134697
 20
53.467453
 11
63.134697
 21
45.467453
  0
LINE
  8
0
  6
CONTINUOUS
 62
     7
 10
116.13468
 20
45.467453
 11
63.134697
 21
45.467453
  0
LINE
  8
0
  6
CONTINUOUS
 62
     7
 10
116.13468
 20
53.467453
 11
116.13468
 21
45.467453
  0
LINE
  8
0
  6
CONTINUOUS
 62
     7
 10
114.63468
 20
58.467453
 11
114.63468
 21
56.065536
  0
LINE
  8
0
  6
CONTINUOUS
 62
     7
 10
120.63468
 20
64.467453
 11
124.7613
 21
64.467453
  0
LINE
  8
0
  6
CONTINUOUS
 62
     7
 10
256.38831
 20
152.96745
 11
268.38831
 21
152.96745
  0
LINE
  8
0
  6
CONTINUOUS
 62
     7
 10
268.38831
 20
61.967453
 11
268.38831
 21
152.96745
  0
LINE
  8
0
  6
CONTINUOUS
 62
     7
 10
256.38831
 20
61.967453
 11
256.38831
 21
152.96745
  0
LINE
  8
0
  6
CONTINUOUS
 62
     7
 10
175.2617
 20
150.46745
 11
251.51489
 21
150.46745
  0
LINE
  8
0
  6
CONTINUOUS
 62
     7
 10
170.38831
 20
61.967453
 11
170.38831
 21
152.96745
  0
LINE
  8
0
  6
CONTINUOUS
 62
     7
 10
170.38831
 20
152.96745
 11
158.38831
 21
152.96745
  0
LINE
  8
0
  6
CONTINUOUS
 62
     7
 10
158.38831
 20
61.967453
 11
158.38831
 21
152.96745
  0
LINE
  8
0
  6
CENTER
 62
     7
 10
213.38831
 20
40.434143
 11
213.38831
 21
157.21973
  0
LINE
  8
0
  6
CENTER
 62
     7
 10
272.12311
 20
107.46745
 11
150.38831
 21
107.46745
  0
LINE
  8
0
  6
CONTINUOUS
 62
     7
 10
170.38831
 20
61.967453
 11
158.38831
 21
61.967453
  0
LINE
  8
0
  6
CONTINUOUS
 62
     7
 10
179.38829
 20
64.467453
 11
175.2617
 21
64.467453
  0
LINE
  8
0
  6
CONTINUOUS
 62
     7
 10
185.38829
 20
58.467453
 11
185.38829
 21
57.931564
  0
LINE
  8
0
  6
CONTINUOUS
 62
     7
 10
183.38829
 20
54.467453
 11
183.38829
 21
45.467453
  0
LINE
  8
0
  6
CONTINUOUS
 62
     7
 10
243.38828
 20
53.931564
 11
183.38829
 21
53.931564
  0
LINE
  8
0
  6
CONTINUOUS
 62
     7
 10
243.38828
 20
45.467453
 11
183.38829
 21
45.467453
  0
LINE
  8
0
  6
CONTINUOUS
 62
     7
 10
243.38828
 20
54.467453
 11
243.38828
 21
45.467453
  0
LINE
  8
0
  6
CONTINUOUS
 62
     7
 10
241.38828
 20
58.467453
 11
241.38828
 21
57.931564
  0
LINE
  8
0
  6
CONTINUOUS
 62
     7
 10
247.38828
 20
64.467453
 11
251.51489
 21
64.467453
  0
LINE
  8
0
  6
CONTINUOUS
 62
     7
 10
256.38831
 20
61.967453
 11
268.38831
 21
61.967453
  0
LINE
  8
0
  6
CONTINUOUS
 62
     7
 10
-152.78232
 20
-121.95513
 11
-152.78232
 21
-30.955133
  0
LINE
  8
0
  6
CONTINUOUS
 62
     7
 10
-140.78232
 20
-121.95513
 11
-140.78232
 21
-30.955133
  0
LINE
  8
0
  6
CONTINUOUS
 62
     7
 10
-152.78232
 20
-30.955133
 11
-140.78232
 21
-30.955133
  0
LINE
  8
0
  6
CONTINUOUS
 62
     7
 10
-243.90892
 20
-33.455135
 11
-157.65573
 21
-33.455135
  0
LINE
  8
0
  6
CENTER
 62
     7
 10
-200.78232
 20
-146.47958
 11
-200.78232
 21
-26.70286
  0
LINE
  8
0
  6
CONTINUOUS
 62
     7
 10
-248.78232
 20
-121.95513
 11
-248.78232
 21
-30.955133
  0
LINE
  8
0
  6
CONTINUOUS
 62
     7
 10
-248.78232
 20
-30.955133
 11
-260.78232
 21
-30.955133
  0
LINE
  8
0
  6
CONTINUOUS
 62
     7
 10
-260.78232
 20
-121.95513
 11
-260.78232
 21
-30.955133
  0
LINE
  8
0
  6
CONTINUOUS
 62
     7
 10
-248.78232
 20
-121.95513
 11
-260.78232
 21
-121.95513
  0
LINE
  8
0
  6
CONTINUOUS
 62
     7
 10
-241.28233
 20
-119.45513
 11
-243.90892
 21
-119.45513
  0
LINE
  8
0
  6
CONTINUOUS
 62
     7
 10
-235.28233
 20
-125.45513
 11
-235.28233
 21
-126.99102
  0
LINE
  8
0
  6
CONTINUOUS
 62
     7
 10
-164.28235
 20
-130.99103
 11
-237.28233
 21
-130.99103
  0
LINE
  8
0
  6
CONTINUOUS
 62
     7
 10
-237.28233
 20
-130.45514
 11
-237.28233
 21
-141.45514
  0
LINE
  8
0
  6
CONTINUOUS
 62
     7
 10
-164.28235
 20
-141.45514
 11
-237.28233
 21
-141.45514
  0
LINE
  8
0
  6
CONTINUOUS
 62
     7
 10
-164.28235
 20
-130.45514
 11
-164.28235
 21
-141.45514
  0
LINE
  8
0
  6
CONTINUOUS
 62
     7
 10
-166.28235
 20
-125.45513
 11
-166.28235
 21
-126.99102
  0
LINE
  8
0
  6
CONTINUOUS
 62
     7
 10
-160.28235
 20
-119.45513
 11
-157.65573
 21
-119.45513
  0
LINE
  8
0
  6
CONTINUOUS
 62
     7
 10
-152.78232
 20
-121.95513
 11
-140.78232
 21
-121.95513
  0
LINE
  8
0
  6
CENTER
 62
     7
 10
-135.78232
 20
-76.455132
 11
-270.78232
 21
-76.455132
  0
LINE
  8
0
  6
CONTINUOUS
 62
     7
 10
-7.8935533
 20
-128.27562
 11
-7.8935533
 21
-23.27562
  0
LINE
  8
0
  6
CONTINUOUS
 62
     7
 10
-7.8935533
 20
-23.27562
 11
5.1064467
 21
-23.27562
  0
LINE
  8
0
  6
CONTINUOUS
 62
     7
 10
5.1064467
 20
-128.27562
 11
5.1064467
 21
-23.27562
  0
LINE
  8
0
  6
CONTINUOUS
 62
     7
 10
-56.752121
 20
-26.27562
 11
-15.034972
 21
-26.27562
  0
LINE
  8
0
  6
CONTINUOUS
 62
     7
 10
-63.893555
 20
-128.27562
 11
-63.893555
 21
-23.27562
  0
LINE
  8
0
  6
CONTINUOUS
 62
     7
 10
-63.893555
 20
-23.27562
 11
-76.893555
 21
-23.27562
  0
LINE
  8
0
  6
CONTINUOUS
 62
     7
 10
-76.893555
 20
-128.27562
 11
-76.893555
 21
-23.27562
  0
LINE
  8
0
  6
CONTINUOUS
 62
     7
 10
-63.893555
 20
-128.27562
 11
-76.893555
 21
-128.27562
  0
LINE
  8
0
  6
CONTINUOUS
 62
     7
 10
-54.39357
 20
-125.27562
 11
-56.752121
 21
-125.27562
  0
LINE
  8
0
  6
CONTINUOUS
 62
     7
 10
-49.39357
 20
-130.27562
 11
-49.39357
 21
-131.17754
  0
LINE
  8
0
  6
CONTINUOUS
 62
     7
 10
-50.89357
 20
-133.77562
 11
-50.89357
 21
-139.77562
  0
LINE
  8
0
  6
CONTINUOUS
 62
     7
 10
-20.893583
 20
-133.77562
 11
-50.89357
 21
-133.77562
  0
LINE
  8
0
  6
CONTINUOUS
 62
     7
 10
-20.893583
 20
-139.77562
 11
-50.89357
 21
-139.77562
  0
LINE
  8
0
  6
CONTINUOUS
 62
     7
 10
-20.893583
 20
-133.77562
 11
-20.893583
 21
-139.77562
  0
LINE
  8
0
  6
CONTINUOUS
 62
     7
 10
-22.393583
 20
-130.27562
 11
-22.393583
 21
-131.17754
  0
LINE
  8
0
  6
CONTINUOUS
 62
     7
 10
-17.393583
 20
-125.27562
 11
-15.034972
 21
-125.27562
  0
LINE
  8
0
  6
CONTINUOUS
 62
     7
 10
-7.8935533
 20
-128.27562
 11
5.1064467
 21
-128.27562
  0
LINE
  8
0
  6
CENTER
 62
     7
 10
12.308717
 20
-75.77562
 11
-87.293549
 21
-75.77562
  0
LINE
  8
0
  6
CENTER
 62
     7
 10
-35.893555
 20
-145.80006
 11
-35.893555
 21
-21.659256
  0
LINE
  8
0
  6
CONTINUOUS
 62
     7
 10
120.48127
 20
-128.94456
 11
120.48127
 21
-23.944559
  0
LINE
  8
0
  6
CONTINUOUS
 62
     7
 10
107.48127
 20
-23.944559
 11
120.48127
 21
-23.944559
  0
LINE
  8
0
  6
CONTINUOUS
 62
     7
 10
107.48127
 20
-128.94456
 11
107.48127
 21
-23.944559
  0
LINE
  8
0
  6
CONTINUOUS
 62
     7
 10
48.622704
 20
-26.944559
 11
100.33985
 21
-26.944559
  0
LINE
  8
0
  6
CENTER
 62
     7
 10
74.48127
 20
-146.46901
 11
74.48127
 21
-22.328196
  0
LINE
  8
0
  6
CONTINUOUS
 62
     7
 10
41.48127
 20
-128.94456
 11
28.481268
 21
-128.94456
  0
LINE
  8
0
  6
CONTINUOUS
 62
     7
 10
41.48127
 20
-23.944559
 11
28.481268
 21
-23.944559
  0
LINE
  8
0
  6
CONTINUOUS
 62
     7
 10
28.481268
 20
-128.94456
 11
28.481268
 21
-23.944559
  0
LINE
  8
0
  6
CENTER
 62
     7
 10
128.52802
 20
-76.444557
 11
18.081274
 21
-76.444557
  0
LINE
  8
0
  6
CONTINUOUS
 62
     7
 10
41.48127
 20
-128.94456
 11
41.48127
 21
-23.944559
  0
LINE
  8
0
  6
CONTINUOUS
 62
     7
 10
51.981255
 20
-125.94456
 11
48.622704
 21
-125.94456
  0
LINE
  8
0
  6
CONTINUOUS
 62
     7
 10
57.981255
 20
-131.94456
 11
57.981255
 21
-133.84648
  0
LINE
  8
0
  6
CONTINUOUS
 62
     7
 10
56.481255
 20
-136.44456
 11
56.481255
 21
-142.44456
  0
LINE
  8
0
  6
CONTINUOUS
 62
     7
 10
92.481239
 20
-136.44456
 11
56.481255
 21
-136.44456
  0
LINE
  8
0
  6
CONTINUOUS
 62
     7
 10
92.481239
 20
-142.44456
 11
56.481255
 21
-142.44456
  0
LINE
  8
0
  6
CONTINUOUS
 62
     7
 10
92.481239
 20
-136.44456
 11
92.481239
 21
-142.44456
  0
LINE
  8
0
  6
CONTINUOUS
 62
     7
 10
90.981239
 20
-131.94456
 11
90.981239
 21
-133.84648
  0
LINE
  8
0
  6
CONTINUOUS
 62
     7
 10
96.981239
 20
-125.94456
 11
100.33985
 21
-125.94456
  0
LINE
  8
0
  6
CONTINUOUS
 62
     7
 10
107.48127
 20
-128.94456
 11
120.48127
 21
-128.94456
  0
LINE
  8
0
  6
CONTINUOUS
 62
     7
 10
227.87654
 20
-23.944559
 11
240.87654
 21
-23.944559
  0
LINE
  8
0
  6
CONTINUOUS
 62
     7
 10
227.87654
 20
-128.94456
 11
227.87654
 21
-23.944559
  0
LINE
  8
0
  6
CONTINUOUS
 62
     7
 10
240.87654
 20
-128.94456
 11
240.87654
 21
-23.944559
  0
LINE
  8
0
  6
CONTINUOUS
 62
     7
 10
161.01797
 20
-26.944559
 11
220.73512
 21
-26.944559
  0
LINE
  8
0
  6
CENTER
 62
     7
 10
190.87654
 20
-149.61839
 11
190.87654
 21
-22.328196
  0
LINE
  8
0
  6
CENTER
 62
     7
 10
248.10582
 20
-76.444557
 11
130.47655
 21
-76.444557
  0
LINE
  8
0
  6
CONTINUOUS
 62
     7
 10
153.87654
 20
-128.94456
 11
153.87654
 21
-23.944559
  0
LINE
  8
0
  6
CONTINUOUS
 62
     7
 10
140.87654
 20
-128.94456
 11
140.87654
 21
-23.944559
  0
LINE
  8
0
  6
CONTINUOUS
 62
     7
 10
153.87654
 20
-23.944559
 11
140.87654
 21
-23.944559
  0
LINE
  8
0
  6
CONTINUOUS
 62
     7
 10
227.87654
 20
-128.94456
 11
240.87654
 21
-128.94456
  0
LINE
  8
0
  6
CONTINUOUS
 62
     7
 10
219.37651
 20
-125.94456
 11
220.73512
 21
-125.94456
  0
LINE
  8
0
  6
CONTINUOUS
 62
     7
 10
211.37651
 20
-133.94456
 11
211.37651
 21
-134.84648
  0
LINE
  8
0
  6
CONTINUOUS
 62
     7
 10
212.87651
 20
-137.44456
 11
212.87651
 21
-144.44456
  0
LINE
  8
0
  6
CONTINUOUS
 62
     7
 10
212.87651
 20
-144.44456
 11
168.87653
 21
-144.44456
  0
LINE
  8
0
  6
CONTINUOUS
 62
     7
 10
212.87651
 20
-137.44456
 11
168.87653
 21
-137.44456
  0
LINE
  8
0
  6
CONTINUOUS
 62
     7
 10
168.87653
 20
-137.44456
 11
168.87653
 21
-144.44456
  0
LINE
  8
0
  6
CONTINUOUS
 62
     7
 10
170.37653
 20
-133.94456
 11
170.37653
 21
-134.84648
  0
LINE
  8
0
  6
CONTINUOUS
 62
     7
 10
162.37653
 20
-125.94456
 11
161.01797
 21
-125.94456
  0
LINE
  8
0
  6
CONTINUOUS
 62
     7
 10
153.87654
 20
-128.94456
 11
140.87654
 21
-128.94456
  0
LINE
  8
0
  6
CONTINUOUS
 62
     7
 10
-287
 20
200
 11
-287
 21
-200
  0
LINE
  8
0
  6
CONTINUOUS
 62
     7
 10
-287
 20
-200
 11
287
 21
-200
  0
LINE
  8
0
  6
CONTINUOUS
 62
     7
 10
287
 20
200
 11
287
 21
-200
  0
LINE
  8
0
  6
CONTINUOUS
 62
     7
 10
-287
 20
200
 11
287
 21
200
  0
LINE
  8
0
  6
CONTINUOUS
 62
     7
 10
901
 20
200
 11
901
 21
-200
  0
LINE
  8
0
  6
CONTINUOUS
 62
     7
 10
327
 20
200
 11
901
 21
200
  0
LINE
  8
0
  6
CONTINUOUS
 62
     7
 10
327
 20
200
 11
327
 21
-200
  0
LINE
  8
0
  6
CONTINUOUS
 62
     7
 10
327
 20
-200
 11
901
 21
-200
  0
LINE
  8
0
  6
CONTINUOUS
 62
     7
 10
287
 20
-240
 11
287
 21
-640
  0
LINE
  8
0
  6
CONTINUOUS
 62
     7
 10
-287
 20
-240
 11
287
 21
-240
  0
LINE
  8
0
  6
CONTINUOUS
 62
     7
 10
-287
 20
-240
 11
-287
 21
-640
  0
LINE
  8
0
  6
CONTINUOUS
 62
     7
 10
-287
 20
-640
 11
287
 21
-640
  0
LINE
  8
0
  6
CONTINUOUS
 62
     7
 10
448.41568
 20
52.725525
 11
448.41568
 21
157.72552
  0
LINE
  8
0
  6
CONTINUOUS
 62
     7
 10
435.41568
 20
157.72552
 11
448.41568
 21
157.72552
  0
LINE
  8
0
  6
CONTINUOUS
 62
     7
 10
435.41568
 20
52.725525
 11
435.41568
 21
157.72552
  0
LINE
  8
0
  6
CONTINUOUS
 62
     7
 10
358.5571
 20
154.72552
 11
428.27426
 21
154.72552
  0
LINE
  8
0
  6
CENTER
 62
     7
 10
453.81567
 20
105.22552
 11
328.01569
 21
105.22552
  0
LINE
  8
0
  6
CENTER
 62
     7
 10
393.41568
 20
31.07057
 11
393.41568
 21
159.34189
  0
LINE
  8
0
  6
CONTINUOUS
 62
     7
 10
351.41568
 20
52.725525
 11
351.41568
 21
157.72552
  0
LINE
  8
0
  6
CONTINUOUS
 62
     7
 10
351.41568
 20
157.72552
 11
338.41568
 21
157.72552
  0
LINE
  8
0
  6
CONTINUOUS
 62
     7
 10
338.41568
 20
52.725525
 11
338.41568
 21
157.72552
  0
LINE
  8
0
  6
CONTINUOUS
 62
     7
 10
351.41568
 20
52.725525
 11
338.41568
 21
52.725525
  0
LINE
  8
0
  6
CONTINUOUS
 62
     7
 10
359.91565
 20
55.725525
 11
358.5571
 21
55.725525
  0
LINE
  8
0
  6
CONTINUOUS
 62
     7
 10
368.41565
 20
47.225525
 11
368.41565
 21
45.823608
  0
LINE
  8
0
  6
CONTINUOUS
 62
     7
 10
366.91565
 20
43.225525
 11
366.91565
 21
35.225525
  0
LINE
  8
0
  6
CONTINUOUS
 62
     7
 10
419.91565
 20
43.225525
 11
366.91565
 21
43.225525
  0
LINE
  8
0
  6
CONTINUOUS
 62
     7
 10
419.91565
 20
35.225525
 11
366.91565
 21
35.225525
  0
LINE
  8
0
  6
CONTINUOUS
 62
     7
 10
419.91565
 20
43.225525
 11
419.91565
 21
35.225525
  0
LINE
  8
0
  6
CONTINUOUS
 62
     7
 10
418.41565
 20
47.225525
 11
418.41565
 21
45.823608
  0
LINE
  8
0
  6
CONTINUOUS
 62
     7
 10
426.91565
 20
55.725525
 11
428.27426
 21
55.725525
  0
LINE
  8
0
  6
CONTINUOUS
 62
     7
 10
435.41568
 20
52.725525
 11
448.41568
 21
52.725525
  0
LINE
  8
0
  6
CENTER
 62
     7
 10
588.76257
 20
104.43903
 11
455.57407
 21
104.43903
  0
LINE
  8
0
  6
CENTER
 62
     7
 10
523.97406
 20
27.839037
 11
523.97406
 21
158.55539
  0
LINE
  8
0
  6
CONTINUOUS
 62
     7
 10
486.11551
 20
153.93903
 11
561.83264
 21
153.93903
  0
LINE
  8
0
  6
CONTINUOUS
 62
     7
 10
568.97406
 20
51.939026
 11
568.97406
 21
156.93903
  0
LINE
  8
0
  6
CONTINUOUS
 62
     7
 10
568.97406
 20
156.93903
 11
581.97406
 21
156.93903
  0
LINE
  8
0
  6
CONTINUOUS
 62
     7
 10
581.97406
 20
51.939026
 11
581.97406
 21
156.93903
  0
LINE
  8
0
  6
CONTINUOUS
 62
     7
 10
478.97406
 20
51.939026
 11
478.97406
 21
156.93903
  0
LINE
  8
0
  6
CONTINUOUS
 62
     7
 10
478.97406
 20
156.93903
 11
465.97406
 21
156.93903
  0
LINE
  8
0
  6
CONTINUOUS
 62
     7
 10
465.97406
 20
51.939026
 11
465.97406
 21
156.93903
  0
LINE
  8
0
  6
CONTINUOUS
 62
     7
 10
478.97406
 20
51.939026
 11
465.97406
 21
51.939026
  0
LINE
  8
0
  6
CONTINUOUS
 62
     7
 10
486.97406
 20
54.939026
 11
486.11551
 21
54.939026
  0
LINE
  8
0
  6
CONTINUOUS
 62
     7
 10
495.97406
 20
45.939026
 11
495.97406
 21
44.903137
  0
LINE
  8
0
  6
CONTINUOUS
 62
     7
 10
493.97406
 20
41.439026
 11
493.97406
 21
32.439026
  0
LINE
  8
0
  6
CONTINUOUS
 62
     7
 10
553.97406
 20
41.439026
 11
493.97406
 21
41.439026
  0
LINE
  8
0
  6
CONTINUOUS
 62
     7
 10
553.97406
 20
32.439026
 11
493.97406
 21
32.439026
  0
LINE
  8
0
  6
CONTINUOUS
 62
     7
 10
553.97406
 20
41.439026
 11
553.97406
 21
32.439026
  0
LINE
  8
0
  6
CONTINUOUS
 62
     7
 10
551.97406
 20
45.939026
 11
551.97406
 21
44.903137
  0
LINE
  8
0
  6
CONTINUOUS
 62
     7
 10
560.97406
 20
54.939026
 11
561.83264
 21
54.939026
  0
LINE
  8
0
  6
CONTINUOUS
 62
     7
 10
568.97406
 20
51.939026
 11
581.97406
 21
51.939026
  0
LINE
  8
0
  6
CONTINUOUS
 62
     7
 10
724.79065
 20
51.939026
 11
724.79065
 21
156.93903
  0
LINE
  8
0
  6
CONTINUOUS
 62
     7
 10
711.79065
 20
156.93903
 11
724.79065
 21
156.93903
  0
LINE
  8
0
  6
CONTINUOUS
 62
     7
 10
711.79065
 20
51.939026
 11
711.79065
 21
156.93903
  0
LINE
  8
0
  6
CONTINUOUS
 62
     7
 10
620.93213
 20
153.93903
 11
704.64923
 21
153.93903
  0
LINE
  8
0
  6
CENTER
 62
     7
 10
662.79065
 20
27.839037
 11
662.79065
 21
158.55539
  0
LINE
  8
0
  6
CONTINUOUS
 62
     7
 10
613.79065
 20
51.939026
 11
613.79065
 21
156.93903
  0
LINE
  8
0
  6
CONTINUOUS
 62
     7
 10
613.79065
 20
156.93903
 11
600.79065
 21
156.93903
  0
LINE
  8
0
  6
CONTINUOUS
 62
     7
 10
600.79065
 20
51.939026
 11
600.79065
 21
156.93903
  0
LINE
  8
0
  6
CONTINUOUS
 62
     7
 10
613.79065
 20
51.939026
 11
600.79065
 21
51.939026
  0
LINE
  8
0
  6
CONTINUOUS
 62
     7
 10
623.29065
 20
54.939026
 11
620.93213
 21
54.939026
  0
LINE
  8
0
  6
CONTINUOUS
 62
     7
 10
628.29065
 20
49.939026
 11
628.29065
 21
46.903137
  0
LINE
  8
0
  6
CONTINUOUS
 62
     7
 10
626.29065
 20
43.439026
 11
626.29065
 21
32.439026
  0
LINE
  8
0
  6
CONTINUOUS
 62
     7
 10
699.29065
 20
43.439026
 11
626.29065
 21
43.439026
  0
LINE
  8
0
  6
CONTINUOUS
 62
     7
 10
699.29065
 20
32.439026
 11
626.29065
 21
32.439026
  0
LINE
  8
0
  6
CONTINUOUS
 62
     7
 10
699.29065
 20
43.439026
 11
699.29065
 21
32.439026
  0
LINE
  8
0
  6
CONTINUOUS
 62
     7
 10
697.29065
 20
49.939026
 11
697.29065
 21
46.903137
  0
LINE
  8
0
  6
CONTINUOUS
 62
     7
 10
702.29065
 20
54.939026
 11
704.64923
 21
54.939026
  0
LINE
  8
0
  6
CONTINUOUS
 62
     7
 10
711.79065
 20
51.939026
 11
724.79065
 21
51.939026
  0
LINE
  8
0
  6
CENTER
 62
     7
 10
730.28583
 20
104.43903
 11
590.39069
 21
104.43903
  0
LINE
  8
0
  6
CONTINUOUS
 62
     7
 10
886.97772
 20
51.939026
 11
886.97772
 21
156.93903
  0
LINE
  8
0
  6
CONTINUOUS
 62
     7
 10
873.97772
 20
156.93903
 11
886.97772
 21
156.93903
  0
LINE
  8
0
  6
CONTINUOUS
 62
     7
 10
873.97772
 20
51.939026
 11
873.97772
 21
156.93903
  0
LINE
  8
0
  6
CONTINUOUS
 62
     7
 10
873.97772
 20
51.939026
 11
886.97772
 21
51.939026
  0
LINE
  8
0
  6
CONTINUOUS
 62
     7
 10
865.97766
 20
54.939026
 11
866.8363
 21
54.939026
  0
LINE
  8
0
  6
CONTINUOUS
 62
     7
 10
857.97766
 20
46.939026
 11
857.97766
 21
46.312439
  0
LINE
  8
0
  6
CONTINUOUS
 62
     7
 10
860.47766
 20
41.439026
 11
860.47766
 21
29.439028
  0
LINE
  8
0
  6
CONTINUOUS
 62
     7
 10
860.47766
 20
41.439026
 11
769.47772
 21
41.439026
  0
LINE
  8
0
  6
CONTINUOUS
 62
     7
 10
860.47766
 20
29.439028
 11
769.47772
 21
29.439028
  0
LINE
  8
0
  6
CENTER
 62
     7
 10
814.97772
 20
25.1924
 11
814.97772
 21
158.55539
  0
LINE
  8
0
  6
CONTINUOUS
 62
     7
 10
769.47772
 20
41.439026
 11
769.47772
 21
29.439028
  0
LINE
  8
0
  6
CONTINUOUS
 62
     7
 10
771.97772
 20
46.939026
 11
771.97772
 21
46.312439
  0
LINE
  8
0
  6
CONTINUOUS
 62
     7
 10
763.97772
 20
54.939026
 11
763.11914
 21
54.939026
  0
LINE
  8
0
  6
CONTINUOUS
 62
     7
 10
755.97772
 20
51.939026
 11
742.97772
 21
51.939026
  0
LINE
  8
0
  6
CONTINUOUS
 62
     7
 10
742.97772
 20
51.939026
 11
742.97772
 21
156.93903
  0
LINE
  8
0
  6
CONTINUOUS
 62
     7
 10
755.97772
 20
156.93903
 11
742.97772
 21
156.93903
  0
LINE
  8
0
  6
CONTINUOUS
 62
     7
 10
755.97772
 20
51.939026
 11
755.97772
 21
156.93903
  0
LINE
  8
0
  6
CONTINUOUS
 62
     7
 10
763.11914
 20
153.93903
 11
866.8363
 21
153.93903
  0
LINE
  8
0
  6
CENTER
 62
     7
 10
892.84778
 20
104.43903
 11
732.5777
 21
104.43903
  0
LINE
  8
0
  6
CONTINUOUS
 62
     7
 10
448.13464
 20
-150.8201
 11
448.13464
 21
-17.820089
  0
LINE
  8
0
  6
CONTINUOUS
 62
     7
 10
432.13464
 20
-17.820097
 11
448.13464
 21
-17.820097
  0
LINE
  8
0
  6
CONTINUOUS
 62
     7
 10
432.13464
 20
-150.8201
 11
432.13464
 21
-17.820089
  0
LINE
  8
0
  6
CONTINUOUS
 62
     7
 10
371.27609
 20
-20.820093
 11
424.99323
 21
-20.820093
  0
LINE
  8
0
  6
CONTINUOUS
 62
     7
 10
364.13464
 20
-17.820097
 11
348.13464
 21
-17.820097
  0
LINE
  8
0
  6
CONTINUOUS
 62
     7
 10
364.13464
 20
-150.8201
 11
364.13464
 21
-17.820097
  0
LINE
  8
0
  6
CONTINUOUS
 62
     7
 10
348.13464
 20
-150.8201
 11
348.13464
 21
-17.820097
  0
LINE
  8
0
  6
CONTINUOUS
 62
     7
 10
364.13464
 20
-150.8201
 11
348.13464
 21
-150.8201
  0
LINE
  8
0
  6
CONTINUOUS
 62
     7
 10
378.63461
 20
-147.8201
 11
371.27609
 21
-147.8201
  0
LINE
  8
0
  6
CENTER
 62
     7
 10
398.13464
 20
-167.72008
 11
398.13464
 21
-15.795668
  0
LINE
  8
0
  6
CENTER
 62
     7
 10
458.99866
 20
-84.320099
 11
336.93466
 21
-84.320099
  0
LINE
  8
0
  6
CONTINUOUS
 62
     7
 10
384.63461
 20
-153.8201
 11
384.63461
 21
-154.72202
  0
LINE
  8
0
  6
CONTINUOUS
 62
     7
 10
383.13461
 20
-157.3201
 11
383.13461
 21
-163.3201
  0
LINE
  8
0
  6
CONTINUOUS
 62
     7
 10
413.13461
 20
-163.3201
 11
383.13461
 21
-163.3201
  0
LINE
  8
0
  6
CONTINUOUS
 62
     7
 10
413.13461
 20
-157.3201
 11
383.13461
 21
-157.3201
  0
LINE
  8
0
  6
CONTINUOUS
 62
     7
 10
413.13461
 20
-157.3201
 11
413.13461
 21
-163.3201
  0
LINE
  8
0
  6
CONTINUOUS
 62
     7
 10
411.63461
 20
-153.8201
 11
411.63461
 21
-154.72202
  0
LINE
  8
0
  6
CONTINUOUS
 62
     7
 10
417.63461
 20
-147.8201
 11
424.99323
 21
-147.8201
  0
LINE
  8
0
  6
CONTINUOUS
 62
     7
 10
432.13464
 20
-150.8201
 11
448.13464
 21
-150.8201
  0
LINE
  8
0
  6
CENTER
 62
     7
 10
587.98407
 20
-85.10659
 11
461.92004
 21
-85.10659
  0
LINE
  8
0
  6
CENTER
 62
     7
 10
527.12006
 20
-168.50658
 11
527.12006
 21
-16.582165
  0
LINE
  8
0
  6
CONTINUOUS
 62
     7
 10
496.26147
 20
-21.606594
 11
557.97864
 21
-21.606594
  0
LINE
  8
0
  6
CONTINUOUS
 62
     7
 10
565.12006
 20
-151.6066
 11
565.12006
 21
-18.606594
  0
LINE
  8
0
  6
CONTINUOUS
 62
     7
 10
565.12006
 20
-18.606594
 11
581.12006
 21
-18.606594
  0
LINE
  8
0
  6
CONTINUOUS
 62
     7
 10
581.12006
 20
-151.6066
 11
581.12006
 21
-18.606594
  0
LINE
  8
0
  6
CONTINUOUS
 62
     7
 10
489.12006
 20
-151.6066
 11
489.12006
 21
-18.606594
  0
LINE
  8
0
  6
CONTINUOUS
 62
     7
 10
489.12006
 20
-18.606594
 11
473.12006
 21
-18.606594
  0
LINE
  8
0
  6
CONTINUOUS
 62
     7
 10
473.12006
 20
-151.6066
 11
473.12006
 21
-18.606594
  0
LINE
  8
0
  6
CONTINUOUS
 62
     7
 10
489.12006
 20
-151.6066
 11
473.12006
 21
-151.6066
  0
LINE
  8
0
  6
CONTINUOUS
 62
     7
 10
503.62003
 20
-148.6066
 11
496.26147
 21
-148.6066
  0
LINE
  8
0
  6
CONTINUOUS
 62
     7
 10
510.62003
 20
-155.6066
 11
510.62003
 21
-156.50851
  0
LINE
  8
0
  6
CONTINUOUS
 62
     7
 10
545.12
 20
-159.1066
 11
509.12003
 21
-159.1066
  0
LINE
  8
0
  6
CONTINUOUS
 62
     7
 10
509.12003
 20
-159.1066
 11
509.12003
 21
-165.1066
  0
LINE
  8
0
  6
CONTINUOUS
 62
     7
 10
545.12
 20
-165.1066
 11
509.12003
 21
-165.1066
  0
LINE
  8
0
  6
CONTINUOUS
 62
     7
 10
545.12
 20
-159.1066
 11
545.12
 21
-165.1066
  0
LINE
  8
0
  6
CONTINUOUS
 62
     7
 10
543.62
 20
-155.6066
 11
543.62
 21
-156.50851
  0
LINE
  8
0
  6
CONTINUOUS
 62
     7
 10
550.62
 20
-148.6066
 11
557.97864
 21
-148.6066
  0
LINE
  8
0
  6
CONTINUOUS
 62
     7
 10
565.12006
 20
-151.6066
 11
581.12006
 21
-151.6066
  0
LINE
  8
0
  6
CONTINUOUS
 62
     7
 10
704.3974
 20
-19.393089
 11
720.3974
 21
-19.393089
  0
LINE
  8
0
  6
CONTINUOUS
 62
     7
 10
720.3974
 20
-152.3931
 11
720.3974
 21
-19.393089
  0
LINE
  8
0
  6
CONTINUOUS
 62
     7
 10
704.3974
 20
-152.3931
 11
704.3974
 21
-19.393089
  0
LINE
  8
0
  6
CONTINUOUS
 62
     7
 10
627.53888
 20
-22.393089
 11
697.25598
 21
-22.393089
  0
LINE
  8
0
  6
CONTINUOUS
 62
     7
 10
620.3974
 20
-152.3931
 11
620.3974
 21
-19.393089
  0
LINE
  8
0
  6
CONTINUOUS
 62
     7
 10
620.3974
 20
-19.393089
 11
604.3974
 21
-19.393089
  0
LINE
  8
0
  6
CONTINUOUS
 62
     7
 10
604.3974
 20
-152.3931
 11
604.3974
 21
-19.393089
  0
LINE
  8
0
  6
CENTER
 62
     7
 10
662.3974
 20
-173.94231
 11
662.3974
 21
-17.36866
  0
LINE
  8
0
  6
CENTER
 62
     7
 10
729.79156
 20
-85.893089
 11
593.19745
 21
-85.893089
  0
LINE
  8
0
  6
CONTINUOUS
 62
     7
 10
620.3974
 20
-152.3931
 11
604.3974
 21
-152.3931
  0
LINE
  8
0
  6
CONTINUOUS
 62
     7
 10
633.8974
 20
-149.3931
 11
627.53888
 21
-149.3931
  0
LINE
  8
0
  6
CONTINUOUS
 62
     7
 10
641.8974
 20
-157.3931
 11
641.8974
 21
-158.29501
  0
LINE
  8
0
  6
CONTINUOUS
 62
     7
 10
640.3974
 20
-160.8931
 11
640.3974
 21
-167.8931
  0
LINE
  8
0
  6
CONTINUOUS
 62
     7
 10
684.3974
 20
-160.8931
 11
640.3974
 21
-160.8931
  0
LINE
  8
0
  6
CONTINUOUS
 62
     7
 10
684.3974
 20
-167.8931
 11
640.3974
 21
-167.8931
  0
LINE
  8
0
  6
CONTINUOUS
 62
     7
 10
684.3974
 20
-160.8931
 11
684.3974
 21
-167.8931
  0
LINE
  8
0
  6
CONTINUOUS
 62
     7
 10
682.8974
 20
-157.3931
 11
682.8974
 21
-158.29501
  0
LINE
  8
0
  6
CONTINUOUS
 62
     7
 10
690.8974
 20
-149.3931
 11
697.25598
 21
-149.3931
  0
LINE
  8
0
  6
CONTINUOUS
 62
     7
 10
704.3974
 20
-152.3931
 11
720.3974
 21
-152.3931
  0
LINE
  8
0
  6
CONTINUOUS
 62
     7
 10
848.9668
 20
-19.393089
 11
864.9668
 21
-19.393089
  0
LINE
  8
0
  6
CONTINUOUS
 62
     7
 10
848.9668
 20
-152.3931
 11
848.9668
 21
-19.393082
  0
LINE
  8
0
  6
CONTINUOUS
 62
     7
 10
864.9668
 20
-152.3931
 11
864.9668
 21
-19.393082
  0
LINE
  8
0
  6
CONTINUOUS
 62
     7
 10
766.10822
 20
-22.393085
 11
841.82538
 21
-22.393085
  0
LINE
  8
0
  6
CENTER
 62
     7
 10
803.9668
 20
-176.71054
 11
803.9668
 21
-17.36866
  0
LINE
  8
0
  6
CONTINUOUS
 62
     7
 10
742.9668
 20
-152.3931
 11
742.9668
 21
-19.393089
  0
LINE
  8
0
  6
CONTINUOUS
 62
     7
 10
758.9668
 20
-19.393089
 11
742.9668
 21
-19.393089
  0
LINE
  8
0
  6
CONTINUOUS
 62
     7
 10
758.9668
 20
-152.3931
 11
742.9668
 21
-152.3931
  0
LINE
  8
0
  6
CONTINUOUS
 62
     7
 10
758.9668
 20
-152.3931
 11
758.9668
 21
-19.393089
  0
LINE
  8
0
  6
CONTINUOUS
 62
     7
 10
770.96674
 20
-149.3931
 11
766.10822
 21
-149.3931
  0
LINE
  8
0
  6
CONTINUOUS
 62
     7
 10
778.9668
 20
-157.3931
 11
778.9668
 21
-161.29501
  0
LINE
  8
0
  6
CONTINUOUS
 62
     7
 10
777.46674
 20
-163.8931
 11
777.46674
 21
-171.8931
  0
LINE
  8
0
  6
CONTINUOUS
 62
     7
 10
830.46674
 20
-171.8931
 11
777.46674
 21
-171.8931
  0
LINE
  8
0
  6
CONTINUOUS
 62
     7
 10
830.46674
 20
-163.8931
 11
777.46674
 21
-163.8931
  0
LINE
  8
0
  6
CONTINUOUS
 62
     7
 10
830.46674
 20
-163.8931
 11
830.46674
 21
-171.8931
  0
LINE
  8
0
  6
CONTINUOUS
 62
     7
 10
828.96674
 20
-157.3931
 11
828.96674
 21
-161.29501
  0
LINE
  8
0
  6
CONTINUOUS
 62
     7
 10
836.96674
 20
-149.3931
 11
841.82538
 21
-149.3931
  0
LINE
  8
0
  6
CONTINUOUS
 62
     7
 10
848.9668
 20
-152.3931
 11
864.9668
 21
-152.3931
  0
LINE
  8
0
  6
CENTER
 62
     7
 10
874.74695
 20
-85.893089
 11
731.76678
 21
-85.893089
  0
LINE
  8
0
  6
CONTINUOUS
 62
     7
 10
-119.29965
 20
-403.28543
 11
-119.29965
 21
-270.28543
  0
LINE
  8
0
  6
CONTINUOUS
 62
     7
 10
-135.29965
 20
-270.28543
 11
-119.29965
 21
-270.28543
  0
LINE
  8
0
  6
CONTINUOUS
 62
     7
 10
-135.29965
 20
-403.28543
 11
-135.29965
 21
-270.28543
  0
LINE
  8
0
  6
CONTINUOUS
 62
     7
 10
-222.15822
 20
-273.28543
 11
-142.44107
 21
-273.28543
  0
LINE
  8
0
  6
CENTER
 62
     7
 10
-182.29965
 20
-427.60287
 11
-182.29965
 21
-268.26099
  0
LINE
  8
0
  6
CONTINUOUS
 62
     7
 10
-229.29965
 20
-403.28543
 11
-229.29965
 21
-270.28543
  0
LINE
  8
0
  6
CONTINUOUS
 62
     7
 10
-229.29965
 20
-270.28543
 11
-245.29965
 21
-270.28543
  0
LINE
  8
0
  6
CONTINUOUS
 62
     7
 10
-245.29965
 20
-403.28543
 11
-245.29965
 21
-270.28543
  0
LINE
  8
0
  6
CENTER
 62
     7
 10
-111.5195
 20
-336.78543
 11
-256.49966
 21
-336.78543
  0
LINE
  8
0
  6
CONTINUOUS
 62
     7
 10
-229.29965
 20
-403.28543
 11
-245.29965
 21
-403.28543
  0
LINE
  8
0
  6
CONTINUOUS
 62
     7
 10
-135.29965
 20
-403.28543
 11
-119.29965
 21
-403.28543
  0
LINE
  8
0
  6
CONTINUOUS
 62
     7
 10
-146.29968
 20
-400.28543
 11
-142.44107
 21
-400.28543
  0
LINE
  8
0
  6
CONTINUOUS
 62
     7
 10
-154.29968
 20
-408.28543
 11
-154.29968
 21
-411.32132
  0
LINE
  8
0
  6
CONTINUOUS
 62
     7
 10
-152.29968
 20
-414.78543
 11
-212.29967
 21
-414.78543
  0
LINE
  8
0
  6
CONTINUOUS
 62
     7
 10
-152.29968
 20
-414.78543
 11
-152.29968
 21
-423.78543
  0
LINE
  8
0
  6
CONTINUOUS
 62
     7
 10
-152.29968
 20
-423.78543
 11
-212.29967
 21
-423.78543
  0
LINE
  8
0
  6
CONTINUOUS
 62
     7
 10
-212.29967
 20
-414.78543
 11
-212.29967
 21
-423.78543
  0
LINE
  8
0
  6
CONTINUOUS
 62
     7
 10
-210.29967
 20
-408.28543
 11
-210.29967
 21
-411.32132
  0
LINE
  8
0
  6
CONTINUOUS
 62
     7
 10
-218.29967
 20
-400.28543
 11
-222.15822
 21
-400.28543
  0
LINE
  8
0
  6
CONTINUOUS
 62
     7
 10
28.392864
 20
-404.07193
 11
44.392864
 21
-404.07193
  0
LINE
  8
0
  6
CENTER
 62
     7
 10
54.782146
 20
-337.57193
 11
-101.60714
 21
-337.57193
  0
LINE
  8
0
  6
CENTER
 62
     7
 10
-24.607136
 20
-428.38937
 11
-24.607136
 21
-269.04749
  0
LINE
  8
0
  6
CONTINUOUS
 62
     7
 10
-67.10717
 20
-401.07193
 11
-70.465706
 21
-401.07193
  0
LINE
  8
0
  6
CONTINUOUS
 62
     7
 10
-77.60714
 20
-404.07193
 11
-93.60714
 21
-404.07193
  0
LINE
  8
0
  6
CONTINUOUS
 62
     7
 10
-59.107166
 20
-409.07193
 11
-59.107166
 21
-410.10782
  0
LINE
  8
0
  6
CONTINUOUS
 62
     7
 10
-61.107166
 20
-413.57193
 11
-61.107166
 21
-424.57193
  0
LINE
  8
0
  6
CONTINUOUS
 62
     7
 10
11.892833
 20
-413.57193
 11
11.892833
 21
-424.57193
  0
LINE
  8
0
  6
CONTINUOUS
 62
     7
 10
9.8928328
 20
-409.07193
 11
9.8928328
 21
-410.10782
  0
LINE
  8
0
  6
CONTINUOUS
 62
     7
 10
17.892834
 20
-401.07193
 11
21.251446
 21
-401.07193
  0
LINE
  8
0
  6
CONTINUOUS
 62
     7
 10
28.392864
 20
-271.07193
 11
44.392864
 21
-271.07193
  0
LINE
  8
0
  6
CONTINUOUS
 62
     7
 10
-70.465706
 20
-274.07193
 11
21.251446
 21
-274.07193
  0
LINE
  8
0
  6
CONTINUOUS
 62
     7
 10
-77.60714
 20
-271.07193
 11
-93.60714
 21
-271.07193
  0
LINE
  8
0
  6
CONTINUOUS
 62
     7
 10
-93.60714
 20
-271.07193
 11
-93.60714
 21
-404.07193
  0
LINE
  8
0
  6
CONTINUOUS
 62
     7
 10
-77.60714
 20
-271.07193
 11
-77.60714
 21
-404.07193
  0
LINE
  8
0
  6
CONTINUOUS
 62
     7
 10
28.392864
 20
-271.07193
 11
28.392864
 21
-404.07193
  0
LINE
  8
0
  6
CONTINUOUS
 62
     7
 10
44.392864
 20
-271.07193
 11
44.392864
 21
-404.07193
  0
LINE
  8
0
  6
CONTINUOUS
 62
     7
 10
-61.107166
 20
-413.57193
 11
11.892833
 21
-413.57193
  0
LINE
  8
0
  6
CONTINUOUS
 62
     7
 10
-61.107166
 20
-424.57193
 11
11.892833
 21
-424.57193
  0
LINE
  8
0
  6
CONTINUOUS
 62
     7
 10
211.99506
 20
-403.28543
 11
211.99506
 21
-270.28543
  0
LINE
  8
0
  6
CONTINUOUS
 62
     7
 10
227.99506
 20
-403.28543
 11
227.99506
 21
-270.28543
  0
LINE
  8
0
  6
CONTINUOUS
 62
     7
 10
211.99506
 20
-270.28543
 11
227.99506
 21
-270.28543
  0
LINE
  8
0
  6
CONTINUOUS
 62
     7
 10
95.13649
 20
-273.28543
 11
204.85364
 21
-273.28543
  0
LINE
  8
0
  6
CONTINUOUS
 62
     7
 10
87.995056
 20
-403.28543
 11
87.995056
 21
-270.28543
  0
LINE
  8
0
  6
CONTINUOUS
 62
     7
 10
87.995056
 20
-270.28543
 11
71.995056
 21
-270.28543
  0
LINE
  8
0
  6
CONTINUOUS
 62
     7
 10
71.995056
 20
-403.28543
 11
71.995056
 21
-270.28543
  0
LINE
  8
0
  6
CENTER
 62
     7
 10
234.49567
 20
-336.78543
 11
60.795055
 21
-336.78543
  0
LINE
  8
0
  6
CENTER
 62
     7
 10
149.99506
 20
-433.26752
 11
149.99506
 21
-268.26099
  0
LINE
  8
0
  6
CONTINUOUS
 62
     7
 10
211.99506
 20
-403.28543
 11
227.99506
 21
-403.28543
  0
LINE
  8
0
  6
CONTINUOUS
 62
     7
 10
201.99503
 20
-400.28543
 11
204.85364
 21
-400.28543
  0
LINE
  8
0
  6
CONTINUOUS
 62
     7
 10
195.49503
 20
-414.78543
 11
195.49503
 21
-426.78543
  0
LINE
  8
0
  6
CONTINUOUS
 62
     7
 10
192.99503
 20
-409.28543
 11
192.99503
 21
-409.91202
  0
LINE
  8
0
  6
CONTINUOUS
 62
     7
 10
195.49503
 20
-414.78543
 11
104.49503
 21
-414.78543
  0
LINE
  8
0
  6
CONTINUOUS
 62
     7
 10
195.49503
 20
-426.78543
 11
104.49503
 21
-426.78543
  0
LINE
  8
0
  6
CONTINUOUS
 62
     7
 10
104.49503
 20
-414.78543
 11
104.49503
 21
-426.78543
  0
LINE
  8
0
  6
CONTINUOUS
 62
     7
 10
106.99503
 20
-409.28543
 11
106.99503
 21
-409.91202
  0
LINE
  8
0
  6
CONTINUOUS
 62
     7
 10
97.995026
 20
-400.28543
 11
95.13649
 21
-400.28543
  0
LINE
  8
0
  6
CONTINUOUS
 62
     7
 10
87.995056
 20
-403.28543
 11
71.995056
 21
-403.28543
  0
LINE
  8
0
  6
CONTINUOUS
 62
     7
 10
-107.82794
 20
-457.47156
 11
-91.827942
 21
-457.47156
  0
LINE
  8
0
  6
CONTINUOUS
 62
     7
 10
-91.827942
 20
-590.47156
 11
-91.827942
 21
-457.47156
  0
LINE
  8
0
  6
CONTINUOUS
 62
     7
 10
-107.82794
 20
-590.47156
 11
-107.82794
 21
-457.47156
  0
LINE
  8
0
  6
CONTINUOUS
 62
     7
 10
-234.68651
 20
-460.47156
 11
-114.96936
 21
-460.47156
  0
LINE
  8
0
  6
CONTINUOUS
 62
     7
 10
-241.82794
 20
-590.47156
 11
-241.82794
 21
-457.47156
  0
LINE
  8
0
  6
CONTINUOUS
 62
     7
 10
-241.82794
 20
-457.47156
 11
-257.82794
 21
-457.47156
  0
LINE
  8
0
  6
CONTINUOUS
 62
     7
 10
-257.82794
 20
-590.47156
 11
-257.82794
 21
-457.47156
  0
LINE
  8
0
  6
CENTER
 62
     7
 10
-174.82794
 20
-619.58472
 11
-174.82794
 21
-455.44714
  0
LINE
  8
0
  6
CENTER
 62
     7
 10
-84.829559
 20
-523.97156
 11
-269.02792
 21
-523.97156
  0
LINE
  8
0
  6
CONTINUOUS
 62
     7
 10
-241.82794
 20
-590.47156
 11
-257.82794
 21
-590.47156
  0
LINE
  8
0
  6
CONTINUOUS
 62
     7
 10
-233.32797
 20
-587.47156
 11
-234.68651
 21
-587.47156
  0
LINE
  8
0
  6
CONTINUOUS
 62
     7
 10
-227.32797
 20
-601.97156
 11
-227.32797
 21
-614.97156
  0
LINE
  8
0
  6
CONTINUOUS
 62
     7
 10
-122.32797
 20
-601.97156
 11
-227.32797
 21
-601.97156
  0
LINE
  8
0
  6
CONTINUOUS
 62
     7
 10
-122.32797
 20
-614.97156
 11
-227.32797
 21
-614.97156
  0
LINE
  8
0
  6
CONTINUOUS
 62
     7
 10
-122.32797
 20
-601.97156
 11
-122.32797
 21
-614.97156
  0
LINE
  8
0
  6
CONTINUOUS
 62
     7
 10
-116.32797
 20
-587.47156
 11
-114.96936
 21
-587.47156
  0
LINE
  8
0
  6
CONTINUOUS
 62
     7
 10
-107.82794
 20
-590.47156
 11
-91.827942
 21
-590.47156
  0
LINE
  8
0
  6
CONTINUOUS
 62
     7
 10
77.436661
 20
-609.19055
 11
77.436661
 21
-448.19052
  0
LINE
  8
0
  6
CONTINUOUS
 62
     7
 10
59.436661
 20
-448.19052
 11
77.436661
 21
-448.19052
  0
LINE
  8
0
  6
CONTINUOUS
 62
     7
 10
59.436661
 20
-609.19055
 11
59.436661
 21
-448.19052
  0
LINE
  8
0
  6
CONTINUOUS
 62
     7
 10
-12.964006
 20
-451.69052
 11
51.837326
 21
-451.69052
  0
LINE
  8
0
  6
CONTINUOUS
 62
     7
 10
-20.563341
 20
-609.19055
 11
-20.563341
 21
-448.19052
  0
LINE
  8
0
  6
CONTINUOUS
 62
     7
 10
-20.563341
 20
-448.19052
 11
-38.563339
 21
-448.19052
  0
LINE
  8
0
  6
CONTINUOUS
 62
     7
 10
-38.563339
 20
-609.19055
 11
-38.563339
 21
-448.19052
  0
LINE
  8
0
  6
CENTER
 62
     7
 10
19.436659
 20
-629.47821
 11
19.436659
 21
-446.92883
  0
LINE
  8
0
  6
CENTER
 62
     7
 10
84.119095
 20
-528.69055
 11
-49.763336
 21
-528.69055
  0
LINE
  8
0
  6
CONTINUOUS
 62
     7
 10
-20.563341
 20
-609.19055
 11
-38.563339
 21
-609.19055
  0
LINE
  8
0
  6
CONTINUOUS
 62
     7
 10
-9.0633717
 20
-605.69055
 11
-12.964006
 21
-605.69055
  0
LINE
  8
0
  6
CONTINUOUS
 62
     7
 10
-1.0633714
 20
-613.69055
 11
-1.0633714
 21
-617.09247
  0
LINE
  8
0
  6
CONTINUOUS
 62
     7
 10
-2.5633714
 20
-619.69055
 11
-2.5633714
 21
-626.69055
  0
LINE
  8
0
  6
CONTINUOUS
 62
     7
 10
41.43663
 20
-619.69055
 11
-2.5633714
 21
-619.69055
  0
LINE
  8
0
  6
CONTINUOUS
 62
     7
 10
41.43663
 20
-626.69055
 11
-2.5633714
 21
-626.69055
  0
LINE
  8
0
  6
CONTINUOUS
 62
     7
 10
41.43663
 20
-619.69055
 11
41.43663
 21
-626.69055
  0
LINE
  8
0
  6
CONTINUOUS
 62
     7
 10
39.93663
 20
-613.69055
 11
39.93663
 21
-617.09247
  0
LINE
  8
0
  6
CONTINUOUS
 62
     7
 10
47.93663
 20
-605.69055
 11
51.837326
 21
-605.69055
  0
LINE
  8
0
  6
CONTINUOUS
 62
     7
 10
59.436661
 20
-609.19055
 11
77.436661
 21
-609.19055
  0
LINE
  8
0
  6
CONTINUOUS
 62
     7
 10
239.52243
 20
-607.61755
 11
239.52243
 21
-446.61752
  0
LINE
  8
0
  6
CONTINUOUS
 62
     7
 10
221.52243
 20
-446.61752
 11
239.52243
 21
-446.61752
  0
LINE
  8
0
  6
CONTINUOUS
 62
     7
 10
221.52243
 20
-607.61755
 11
221.52243
 21
-446.61752
  0
LINE
  8
0
  6
CONTINUOUS
 62
     7
 10
141.12177
 20
-450.11752
 11
213.9231
 21
-450.11752
  0
LINE
  8
0
  6
CONTINUOUS
 62
     7
 10
133.52243
 20
-607.61755
 11
133.52243
 21
-446.61752
  0
LINE
  8
0
  6
CONTINUOUS
 62
     7
 10
133.52243
 20
-446.61752
 11
115.52242
 21
-446.61752
  0
LINE
  8
0
  6
CONTINUOUS
 62
     7
 10
115.52242
 20
-607.61755
 11
115.52242
 21
-446.61752
  0
LINE
  8
0
  6
CENTER
 62
     7
 10
177.52243
 20
-632.12567
 11
177.52243
 21
-445.35587
  0
LINE
  8
0
  6
CENTER
 62
     7
 10
247.04199
 20
-527.11755
 11
107.52242
 21
-527.11755
  0
LINE
  8
0
  6
CONTINUOUS
 62
     7
 10
133.52243
 20
-607.61755
 11
115.52242
 21
-607.61755
  0
LINE
  8
0
  6
CONTINUOUS
 62
     7
 10
144.5224
 20
-604.11755
 11
141.12177
 21
-604.11755
  0
LINE
  8
0
  6
CONTINUOUS
 62
     7
 10
152.5224
 20
-612.11755
 11
152.5224
 21
-616.51947
  0
LINE
  8
0
  6
CONTINUOUS
 62
     7
 10
151.0224
 20
-619.11755
 11
151.0224
 21
-627.11755
  0
LINE
  8
0
  6
CONTINUOUS
 62
     7
 10
204.0224
 20
-619.11755
 11
151.0224
 21
-619.11755
  0
LINE
  8
0
  6
CONTINUOUS
 62
     7
 10
204.0224
 20
-627.11755
 11
151.0224
 21
-627.11755
  0
LINE
  8
0
  6
CONTINUOUS
 62
     7
 10
204.0224
 20
-619.11755
 11
204.0224
 21
-627.11755
  0
LINE
  8
0
  6
CONTINUOUS
 62
     7
 10
202.5224
 20
-612.11755
 11
202.5224
 21
-616.51947
  0
LINE
  8
0
  6
CONTINUOUS
 62
     7
 10
210.5224
 20
-604.11755
 11
213.9231
 21
-604.11755
  0
LINE
  8
0
  6
CONTINUOUS
 62
     7
 10
221.52243
 20
-607.61755
 11
239.52243
 21
-607.61755
  0
LINE
  8
0
  6
CONTINUOUS
 62
     7
 10
470.14212
 20
-420.00504
 11
470.14212
 21
-259.00504
  0
LINE
  8
0
  6
CONTINUOUS
 62
     7
 10
452.14212
 20
-259.00504
 11
470.14212
 21
-259.00504
  0
LINE
  8
0
  6
CONTINUOUS
 62
     7
 10
452.14212
 20
-420.00504
 11
452.14212
 21
-259.00504
  0
LINE
  8
0
  6
CONTINUOUS
 62
     7
 10
363.74146
 20
-262.50504
 11
444.54279
 21
-262.50504
  0
LINE
  8
0
  6
CENTER
 62
     7
 10
404.14212
 20
-444.51318
 11
404.14212
 21
-257.74335
  0
LINE
  8
0
  6
CONTINUOUS
 62
     7
 10
356.14212
 20
-420.00504
 11
356.14212
 21
-259.00504
  0
LINE
  8
0
  6
CONTINUOUS
 62
     7
 10
356.14212
 20
-259.00504
 11
338.14212
 21
-259.00504
  0
LINE
  8
0
  6
CONTINUOUS
 62
     7
 10
338.14212
 20
-420.00504
 11
338.14212
 21
-259.00504
  0
LINE
  8
0
  6
CENTER
 62
     7
 10
478.49881
 20
-339.50504
 11
326.94211
 21
-339.50504
  0
LINE
  8
0
  6
CONTINUOUS
 62
     7
 10
452.14212
 20
-420.00504
 11
470.14212
 21
-420.00504
  0
LINE
  8
0
  6
CONTINUOUS
 62
     7
 10
440.14209
 20
-416.50504
 11
444.54279
 21
-416.50504
  0
LINE
  8
0
  6
CONTINUOUS
 62
     7
 10
432.14209
 20
-424.50504
 11
432.14209
 21
-427.04092
  0
LINE
  8
0
  6
CONTINUOUS
 62
     7
 10
434.14209
 20
-430.50504
 11
434.14209
 21
-439.50504
  0
LINE
  8
0
  6
CONTINUOUS
 62
     7
 10
434.14209
 20
-430.50504
 11
374.14209
 21
-430.50504
  0
LINE
  8
0
  6
CONTINUOUS
 62
     7
 10
434.14209
 20
-439.50504
 11
374.14209
 21
-439.50504
  0
LINE
  8
0
  6
CONTINUOUS
 62
     7
 10
374.14209
 20
-430.50504
 11
374.14209
 21
-439.50504
  0
LINE
  8
0
  6
CONTINUOUS
 62
     7
 10
376.14209
 20
-424.50504
 11
376.14209
 21
-427.04092
  0
LINE
  8
0
  6
CONTINUOUS
 62
     7
 10
368.14209
 20
-416.50504
 11
363.74146
 21
-416.50504
  0
LINE
  8
0
  6
CONTINUOUS
 62
     7
 10
356.14212
 20
-420.00504
 11
338.14212
 21
-420.00504
  0
LINE
  8
0
  6
CONTINUOUS
 62
     7
 10
660.74072
 20
-420.00504
 11
660.74072
 21
-259.00504
  0
LINE
  8
0
  6
CONTINUOUS
 62
     7
 10
642.74072
 20
-259.00504
 11
660.74072
 21
-259.00504
  0
LINE
  8
0
  6
CONTINUOUS
 62
     7
 10
642.74072
 20
-420.00504
 11
642.74072
 21
-259.00504
  0
LINE
  8
0
  6
CENTER
 62
     7
 10
588.74072
 20
-446.8757
 11
588.74072
 21
-257.74335
  0
LINE
  8
0
  6
CONTINUOUS
 62
     7
 10
542.34003
 20
-262.50504
 11
635.14136
 21
-262.50504
  0
LINE
  8
0
  6
CONTINUOUS
 62
     7
 10
534.74072
 20
-420.00504
 11
534.74072
 21
-259.00504
  0
LINE
  8
0
  6
CONTINUOUS
 62
     7
 10
534.74072
 20
-259.00504
 11
516.74072
 21
-259.00504
  0
LINE
  8
0
  6
CONTINUOUS
 62
     7
 10
516.74072
 20
-420.00504
 11
516.74072
 21
-259.00504
  0
LINE
  8
0
  6
CENTER
 62
     7
 10
670.83679
 20
-339.50504
 11
505.54071
 21
-339.50504
  0
LINE
  8
0
  6
CONTINUOUS
 62
     7
 10
534.74072
 20
-420.00504
 11
516.74072
 21
-420.00504
  0
LINE
  8
0
  6
CONTINUOUS
 62
     7
 10
544.24066
 20
-416.50504
 11
542.34003
 21
-416.50504
  0
LINE
  8
0
  6
CONTINUOUS
 62
     7
 10
554.24066
 20
-426.50504
 11
554.24066
 21
-428.04092
  0
LINE
  8
0
  6
CONTINUOUS
 62
     7
 10
552.24066
 20
-431.50504
 11
552.24066
 21
-442.50504
  0
LINE
  8
0
  6
CONTINUOUS
 62
     7
 10
625.24066
 20
-431.50504
 11
552.24066
 21
-431.50504
  0
LINE
  8
0
  6
CONTINUOUS
 62
     7
 10
625.24066
 20
-442.50504
 11
552.24066
 21
-442.50504
  0
LINE
  8
0
  6
CONTINUOUS
 62
     7
 10
625.24066
 20
-431.50504
 11
625.24066
 21
-442.50504
  0
LINE
  8
0
  6
CONTINUOUS
 62
     7
 10
623.24066
 20
-426.50504
 11
623.24066
 21
-428.04092
  0
LINE
  8
0
  6
CONTINUOUS
 62
     7
 10
633.24066
 20
-416.50504
 11
635.14136
 21
-416.50504
  0
LINE
  8
0
  6
CONTINUOUS
 62
     7
 10
642.74072
 20
-420.00504
 11
660.74072
 21
-420.00504
  0
LINE
  8
0
  6
CONTINUOUS
 62
     7
 10
870.98346
 20
-420.76163
 11
870.98346
 21
-259.76163
  0
LINE
  8
0
  6
CONTINUOUS
 62
     7
 10
852.98346
 20
-259.76163
 11
870.98346
 21
-259.76163
  0
LINE
  8
0
  6
CONTINUOUS
 62
     7
 10
852.98346
 20
-420.76163
 11
852.98346
 21
-259.76163
  0
LINE
  8
0
  6
CONTINUOUS
 62
     7
 10
734.58282
 20
-263.26163
 11
845.38416
 21
-263.26163
  0
LINE
  8
0
  6
CENTER
 62
     7
 10
789.98346
 20
-450.48898
 11
789.98346
 21
-258.49988
  0
LINE
  8
0
  6
CENTER
 62
     7
 10
879.82874
 20
-340.26157
 11
700.98346
 21
-340.26157
  0
LINE
  8
0
  6
CONTINUOUS
 62
     7
 10
852.98346
 20
-420.76163
 11
870.98346
 21
-420.76163
  0
LINE
  8
0
  6
CONTINUOUS
 62
     7
 10
840.98346
 20
-417.26163
 11
845.38416
 21
-417.26163
  0
LINE
  8
0
  6
CONTINUOUS
 62
     7
 10
832.98346
 20
-425.26163
 11
832.98346
 21
-428.38815
  0
LINE
  8
0
  6
CONTINUOUS
 62
     7
 10
835.48346
 20
-433.26157
 11
835.48346
 21
-445.26157
  0
LINE
  8
0
  6
CONTINUOUS
 62
     7
 10
835.48346
 20
-445.26157
 11
744.48352
 21
-445.26157
  0
LINE
  8
0
  6
CONTINUOUS
 62
     7
 10
835.48346
 20
-433.26157
 11
744.48352
 21
-433.26157
  0
LINE
  8
0
  6
CONTINUOUS
 62
     7
 10
708.98346
 20
-420.76163
 11
708.98346
 21
-259.76163
  0
LINE
  8
0
  6
CONTINUOUS
 62
     7
 10
726.98346
 20
-259.76163
 11
708.98346
 21
-259.76163
  0
LINE
  8
0
  6
CONTINUOUS
 62
     7
 10
726.98346
 20
-420.76163
 11
726.98346
 21
-259.76163
  0
LINE
  8
0
  6
CONTINUOUS
 62
     7
 10
726.98346
 20
-420.76163
 11
708.98346
 21
-420.76163
  0
LINE
  8
0
  6
CONTINUOUS
 62
     7
 10
738.98352
 20
-417.26163
 11
734.58282
 21
-417.26163
  0
LINE
  8
0
  6
CONTINUOUS
 62
     7
 10
746.98352
 20
-425.26163
 11
746.98352
 21
-428.38815
  0
LINE
  8
0
  6
CONTINUOUS
 62
     7
 10
744.48352
 20
-433.26157
 11
744.48352
 21
-445.26157
  0
LINE
  8
0
  6
CONTINUOUS
 62
     7
 10
397.93591
 20
-613.68231
 11
397.93591
 21
-452.68231
  0
LINE
  8
0
  6
CONTINUOUS
 62
     7
 10
397.93591
 20
-452.68231
 11
379.93591
 21
-452.68231
  0
LINE
  8
0
  6
CONTINUOUS
 62
     7
 10
379.93591
 20
-613.68231
 11
379.93591
 21
-452.68231
  0
LINE
  8
0
  6
CONTINUOUS
 62
     7
 10
466.93591
 20
-456.18231
 11
405.53525
 21
-456.18231
  0
LINE
  8
0
  6
CENTER
 62
     7
 10
466.93591
 20
-644.84161
 11
466.93591
 21
-451.42056
  0
LINE
  8
0
  6
CENTER
 62
     7
 10
562.10205
 20
-533.18225
 11
371.93591
 21
-533.18225
  0
LINE
  8
0
  6
CONTINUOUS
 62
     7
 10
397.93591
 20
-613.68231
 11
379.93591
 21
-613.68231
  0
LINE
  8
0
  6
CONTINUOUS
 62
     7
 10
409.43594
 20
-610.18231
 11
405.53525
 21
-610.18231
  0
LINE
  8
0
  6
CONTINUOUS
 62
     7
 10
417.43594
 20
-618.18231
 11
417.43594
 21
-620.04083
  0
LINE
  8
0
  6
CONTINUOUS
 62
     7
 10
414.43594
 20
-627.18225
 11
414.43594
 21
-640.18225
  0
LINE
  8
0
  6
CONTINUOUS
 62
     7
 10
414.43594
 20
-627.18225
 11
466.93591
 21
-627.18225
  0
LINE
  8
0
  6
CONTINUOUS
 62
     7
 10
414.43594
 20
-640.18225
 11
466.93591
 21
-640.18225
  0
LINE
  8
0
  6
CONTINUOUS
 62
     7
 10
535.93591
 20
-613.68231
 11
535.93591
 21
-452.68231
  0
LINE
  8
0
  6
CONTINUOUS
 62
     7
 10
535.93591
 20
-452.68231
 11
553.93591
 21
-452.68231
  0
LINE
  8
0
  6
CONTINUOUS
 62
     7
 10
553.93591
 20
-613.68231
 11
553.93591
 21
-452.68231
  0
LINE
  8
0
  6
CONTINUOUS
 62
     7
 10
466.93591
 20
-456.18231
 11
528.33655
 21
-456.18231
  0
LINE
  8
0
  6
CONTINUOUS
 62
     7
 10
535.93591
 20
-613.68231
 11
553.93591
 21
-613.68231
  0
LINE
  8
0
  6
CONTINUOUS
 62
     7
 10
524.43585
 20
-610.18231
 11
528.33655
 21
-610.18231
  0
LINE
  8
0
  6
CONTINUOUS
 62
     7
 10
516.43585
 20
-618.18231
 11
516.43585
 21
-620.04083
  0
LINE
  8
0
  6
CONTINUOUS
 62
     7
 10
519.43585
 20
-627.18225
 11
519.43585
 21
-640.18225
  0
LINE
  8
0
  6
CONTINUOUS
 62
     7
 10
519.43585
 20
-627.18225
 11
466.93591
 21
-627.18225
  0
LINE
  8
0
  6
CONTINUOUS
 62
     7
 10
519.43585
 20
-640.18225
 11
466.93591
 21
-640.18225
  0
LINE
  8
0
  6
CONTINUOUS
 62
     7
 10
798.44073
 20
-609.14301
 11
798.44073
 21
-448.14301
  0
LINE
  8
0
  6
CONTINUOUS
 62
     7
 10
780.44073
 20
-448.14301
 11
798.44073
 21
-448.14301
  0
LINE
  8
0
  6
CONTINUOUS
 62
     7
 10
780.44073
 20
-609.14301
 11
780.44073
 21
-448.14301
  0
LINE
  8
0
  6
CONTINUOUS
 62
     7
 10
698.44073
 20
-451.64301
 11
772.84137
 21
-451.64301
  0
LINE
  8
0
  6
CENTER
 62
     7
 10
807.63452
 20
-528.64294
 11
590.44073
 21
-528.64294
  0
LINE
  8
0
  6
CENTER
 62
     7
 10
698.44073
 20
-645.87128
 11
698.44073
 21
-446.88126
  0
LINE
  8
0
  6
CONTINUOUS
 62
     7
 10
780.44073
 20
-609.14301
 11
798.44073
 21
-609.14301
  0
LINE
  8
0
  6
CONTINUOUS
 62
     7
 10
769.94067
 20
-605.64301
 11
772.84137
 21
-605.64301
  0
LINE
  8
0
  6
CONTINUOUS
 62
     7
 10
761.94067
 20
-613.64301
 11
761.94067
 21
-616.50153
  0
LINE
  8
0
  6
CONTINUOUS
 62
     7
 10
764.94067
 20
-623.64294
 11
764.94067
 21
-639.64294
  0
LINE
  8
0
  6
CONTINUOUS
 62
     7
 10
764.94067
 20
-623.64294
 11
698.44073
 21
-623.64294
  0
LINE
  8
0
  6
CONTINUOUS
 62
     7
 10
764.94067
 20
-639.64294
 11
698.44073
 21
-639.64294
  0
LINE
  8
0
  6
CONTINUOUS
 62
     7
 10
598.44073
 20
-609.14301
 11
598.44073
 21
-448.14301
  0
LINE
  8
0
  6
CONTINUOUS
 62
     7
 10
616.44073
 20
-448.14301
 11
598.44073
 21
-448.14301
  0
LINE
  8
0
  6
CONTINUOUS
 62
     7
 10
616.44073
 20
-609.14301
 11
616.44073
 21
-448.14301
  0
LINE
  8
0
  6
CONTINUOUS
 62
     7
 10
698.44073
 20
-451.64301
 11
624.04004
 21
-451.64301
  0
LINE
  8
0
  6
CONTINUOUS
 62
     7
 10
616.44073
 20
-609.14301
 11
598.44073
 21
-609.14301
  0
LINE
  8
0
  6
CONTINUOUS
 62
     7
 10
626.94073
 20
-605.64301
 11
624.04004
 21
-605.64301
  0
LINE
  8
0
  6
CONTINUOUS
 62
     7
 10
634.94073
 20
-613.64301
 11
634.94073
 21
-616.50153
  0
LINE
  8
0
  6
CONTINUOUS
 62
     7
 10
631.94073
 20
-623.64294
 11
631.94073
 21
-639.64294
  0
LINE
  8
0
  6
CONTINUOUS
 62
     7
 10
631.94073
 20
-623.64294
 11
698.44073
 21
-623.64294
  0
LINE
  8
0
  6
CONTINUOUS
 62
     7
 10
631.94073
 20
-639.64294
 11
698.44073
 21
-639.64294
  0
LINE
  8
0
  6
CONTINUOUS
 62
     7
 10
906
 20
-235
 11
906
 21
-645
  0
LINE
  8
0
  6
CONTINUOUS
 62
     7
 10
322
 20
-235
 11
906
 21
-235
  0
LINE
  8
0
  6
CONTINUOUS
 62
     7
 10
322
 20
-235
 11
322
 21
-645
  0
LINE
  8
0
  6
CONTINUOUS
 62
     7
 10
322
 20
-645
 11
906
 21
-645
  0
LINE
  8
0
  6
CONTINUOUS
 62
     7
 10
287
 20
-690
 11
287
 21
-1090
  0
LINE
  8
0
  6
CONTINUOUS
 62
     7
 10
-287
 20
-690
 11
287
 21
-690
  0
LINE
  8
0
  6
CONTINUOUS
 62
     7
 10
-287
 20
-690
 11
-287
 21
-1090
  0
LINE
  8
0
  6
CONTINUOUS
 62
     7
 10
-287
 20
-1090
 11
287
 21
-1090
  0
LINE
  8
0
  6
CONTINUOUS
 62
     7
 10
-160.40694
 20
-946.25354
 11
-160.40694
 21
-757.25354
  0
LINE
  8
0
  6
CONTINUOUS
 62
     7
 10
-140.40694
 20
-946.25354
 11
-140.40694
 21
-757.25354
  0
LINE
  8
0
  6
CONTINUOUS
 62
     7
 10
-160.40694
 20
-757.25354
 11
-140.40694
 21
-757.25354
  0
LINE
  8
0
  6
CONTINUOUS
 62
     7
 10
-240.8076
 20
-760.75354
 11
-168.0063
 21
-760.75354
  0
LINE
  8
0
  6
CENTER
 62
     7
 10
-204.40694
 20
-968.98193
 11
-204.40694
 21
-754.75354
  0
LINE
  8
0
  6
CONTINUOUS
 62
     7
 10
-248.40694
 20
-946.25354
 11
-248.40694
 21
-757.25354
  0
LINE
  8
0
  6
CONTINUOUS
 62
     7
 10
-248.40694
 20
-757.25354
 11
-268.40692
 21
-757.25354
  0
LINE
  8
0
  6
CONTINUOUS
 62
     7
 10
-268.40692
 20
-946.25354
 11
-268.40692
 21
-757.25354
  0
LINE
  8
0
  6
CENTER
 62
     7
 10
-129.96205
 20
-851.75354
 11
-276.40692
 21
-851.75354
  0
LINE
  8
0
  6
CONTINUOUS
 62
     7
 10
-248.40694
 20
-946.25354
 11
-268.40692
 21
-946.25354
  0
LINE
  8
0
  6
CONTINUOUS
 62
     7
 10
-233.90694
 20
-942.75354
 11
-240.8076
 21
-942.75354
  0
LINE
  8
0
  6
CONTINUOUS
 62
     7
 10
-160.40694
 20
-946.25354
 11
-140.40694
 21
-946.25354
  0
LINE
  8
0
  6
CONTINUOUS
 62
     7
 10
-174.90694
 20
-942.75354
 11
-168.0063
 21
-942.75354
  0
LINE
  8
0
  6
CONTINUOUS
 62
     7
 10
-183.90694
 20
-951.75354
 11
-183.90694
 21
-952.15552
  0
LINE
  8
0
  6
CONTINUOUS
 62
     7
 10
-182.40694
 20
-954.7536
 11
-182.40694
 21
-961.7536
  0
LINE
  8
0
  6
CONTINUOUS
 62
     7
 10
-182.40694
 20
-954.7536
 11
-226.40697
 21
-954.7536
  0
LINE
  8
0
  6
CONTINUOUS
 62
     7
 10
-182.40694
 20
-961.7536
 11
-226.40697
 21
-961.7536
  0
LINE
  8
0
  6
CONTINUOUS
 62
     7
 10
-226.40697
 20
-954.7536
 11
-226.40697
 21
-961.7536
  0
LINE
  8
0
  6
CONTINUOUS
 62
     7
 10
-224.90694
 20
-951.75354
 11
-224.90694
 21
-952.15552
  0
LINE
  8
0
  6
CONTINUOUS
 62
     7
 10
28.455524
 20
-756.48236
 11
48.455524
 21
-756.48236
  0
LINE
  8
0
  6
CONTINUOUS
 62
     7
 10
48.455524
 20
-945.48236
 11
48.455524
 21
-756.48236
  0
LINE
  8
0
  6
CONTINUOUS
 62
     7
 10
28.455524
 20
-945.48236
 11
28.455524
 21
-756.48236
  0
LINE
  8
0
  6
CONTINUOUS
 62
     7
 10
-57.945141
 20
-759.98236
 11
20.856159
 21
-759.98236
  0
LINE
  8
0
  6
CENTER
 62
     7
 10
-18.544476
 20
-968.21069
 11
-18.544476
 21
-753.98236
  0
LINE
  8
0
  6
CONTINUOUS
 62
     7
 10
-65.544472
 20
-945.48236
 11
-65.544472
 21
-756.48236
  0
LINE
  8
0
  6
CONTINUOUS
 62
     7
 10
-65.544472
 20
-756.48236
 11
-85.544472
 21
-756.48236
  0
LINE
  8
0
  6
CONTINUOUS
 62
     7
 10
-85.544472
 20
-945.48236
 11
-85.544472
 21
-756.48236
  0
LINE
  8
0
  6
CENTER
 62
     7
 10
55.90041
 20
-850.98236
 11
-93.544472
 21
-850.98236
  0
LINE
  8
0
  6
CONTINUOUS
 62
     7
 10
28.455524
 20
-945.48236
 11
48.455524
 21
-945.48236
  0
LINE
  8
0
  6
CONTINUOUS
 62
     7
 10
16.455463
 20
-941.98236
 11
20.856159
 21
-941.98236
  0
LINE
  8
0
  6
CONTINUOUS
 62
     7
 10
6.4554639
 20
-951.98236
 11
6.4554639
 21
-953.38428
  0
LINE
  8
0
  6
CONTINUOUS
 62
     7
 10
7.9554639
 20
-955.98236
 11
7.9554639
 21
-963.98236
  0
LINE
  8
0
  6
CONTINUOUS
 62
     7
 10
7.9554639
 20
-955.98236
 11
-45.044506
 21
-955.98236
  0
LINE
  8
0
  6
CONTINUOUS
 62
     7
 10
7.9554639
 20
-963.98236
 11
-45.044506
 21
-963.98236
  0
LINE
  8
0
  6
CONTINUOUS
 62
     7
 10
-45.044506
 20
-955.98236
 11
-45.044506
 21
-963.98236
  0
LINE
  8
0
  6
CONTINUOUS
 62
     7
 10
-43.544506
 20
-951.98236
 11
-43.544506
 21
-953.38428
  0
LINE
  8
0
  6
CONTINUOUS
 62
     7
 10
-53.544506
 20
-941.98236
 11
-57.945141
 21
-941.98236
  0
LINE
  8
0
  6
CONTINUOUS
 62
     7
 10
-65.544472
 20
-945.48236
 11
-85.544472
 21
-945.48236
  0
LINE
  8
0
  6
CONTINUOUS
 62
     7
 10
221.17406
 20
-945.48236
 11
221.17406
 21
-756.48236
  0
LINE
  8
0
  6
CONTINUOUS
 62
     7
 10
241.17406
 20
-945.48236
 11
241.17406
 21
-756.48236
  0
LINE
  8
0
  6
CONTINUOUS
 62
     7
 10
221.17406
 20
-756.48236
 11
241.17406
 21
-756.48236
  0
LINE
  8
0
  6
CONTINUOUS
 62
     7
 10
128.77339
 20
-759.98236
 11
213.57469
 21
-759.98236
  0
LINE
  8
0
  6
CENTER
 62
     7
 10
171.17406
 20
-975.69244
 11
171.17406
 21
-753.98236
  0
LINE
  8
0
  6
CONTINUOUS
 62
     7
 10
121.17405
 20
-945.48236
 11
121.17405
 21
-756.48236
  0
LINE
  8
0
  6
CONTINUOUS
 62
     7
 10
121.17405
 20
-756.48236
 11
101.17405
 21
-756.48236
  0
LINE
  8
0
  6
CONTINUOUS
 62
     7
 10
101.17405
 20
-945.48236
 11
101.17405
 21
-756.48236
  0
LINE
  8
0
  6
CENTER
 62
     7
 10
250.21654
 20
-850.98236
 11
93.174049
 21
-850.98236
  0
LINE
  8
0
  6
CONTINUOUS
 62
     7
 10
121.17405
 20
-945.48236
 11
101.17405
 21
-945.48236
  0
LINE
  8
0
  6
CONTINUOUS
 62
     7
 10
133.17403
 20
-941.98236
 11
128.77339
 21
-941.98236
  0
LINE
  8
0
  6
CONTINUOUS
 62
     7
 10
143.17403
 20
-951.98236
 11
143.17403
 21
-954.51825
  0
LINE
  8
0
  6
CONTINUOUS
 62
     7
 10
141.17403
 20
-957.98236
 11
141.17403
 21
-966.98236
  0
LINE
  8
0
  6
CONTINUOUS
 62
     7
 10
201.174
 20
-957.98236
 11
141.17403
 21
-957.98236
  0
LINE
  8
0
  6
CONTINUOUS
 62
     7
 10
201.174
 20
-966.98236
 11
141.17403
 21
-966.98236
  0
LINE
  8
0
  6
CONTINUOUS
 62
     7
 10
201.174
 20
-957.98236
 11
201.174
 21
-966.98236
  0
LINE
  8
0
  6
CONTINUOUS
 62
     7
 10
199.174
 20
-951.98236
 11
199.174
 21
-954.51825
  0
LINE
  8
0
  6
CONTINUOUS
 62
     7
 10
209.174
 20
-941.98236
 11
213.57469
 21
-941.98236
  0
LINE
  8
0
  6
CONTINUOUS
 62
     7
 10
221.17406
 20
-945.48236
 11
241.17406
 21
-945.48236
  0
LINE
  8
0
  6
CONTINUOUS
 62
     7
 10
-287
 20
-1530
 11
287
 21
-1530
  0
LINE
  8
0
  6
CONTINUOUS
 62
     7
 10
-287
 20
-1130
 11
-287
 21
-1530
  0
LINE
  8
0
  6
CONTINUOUS
 62
     7
 10
-287
 20
-1130
 11
287
 21
-1130
  0
LINE
  8
0
  6
CONTINUOUS
 62
     7
 10
287
 20
-1130
 11
287
 21
-1530
  0
LINE
  8
0
  6
CONTINUOUS
 62
     7
 10
481.29675
 20
-960.8175
 11
481.29675
 21
-771.8175
  0
LINE
  8
0
  6
CONTINUOUS
 62
     7
 10
461.29675
 20
-771.8175
 11
481.29675
 21
-771.8175
  0
LINE
  8
0
  6
CONTINUOUS
 62
     7
 10
461.29675
 20
-960.8175
 11
461.29675
 21
-771.8175
  0
LINE
  8
0
  6
CONTINUOUS
 62
     7
 10
358.89609
 20
-775.3175
 11
453.69739
 21
-775.3175
  0
LINE
  8
0
  6
CENTER
 62
     7
 10
406.29675
 20
-989.88666
 11
406.29675
 21
-769.3175
  0
LINE
  8
0
  6
CONTINUOUS
 62
     7
 10
351.29675
 20
-960.8175
 11
351.29675
 21
-771.8175
  0
LINE
  8
0
  6
CONTINUOUS
 62
     7
 10
351.29675
 20
-771.8175
 11
331.29675
 21
-771.8175
  0
LINE
  8
0
  6
CONTINUOUS
 62
     7
 10
331.29675
 20
-960.8175
 11
331.29675
 21
-771.8175
  0
LINE
  8
0
  6
CENTER
 62
     7
 10
491.44073
 20
-866.3175
 11
323.29675
 21
-866.3175
  0
LINE
  8
0
  6
CONTINUOUS
 62
     7
 10
351.29675
 20
-960.8175
 11
331.29675
 21
-960.8175
  0
LINE
  8
0
  6
CONTINUOUS
 62
     7
 10
364.79672
 20
-957.3175
 11
358.89609
 21
-957.3175
  0
LINE
  8
0
  6
CONTINUOUS
 62
     7
 10
371.79672
 20
-964.3175
 11
371.79672
 21
-966.85345
  0
LINE
  8
0
  6
CONTINUOUS
 62
     7
 10
369.79672
 20
-970.31757
 11
369.79672
 21
-981.31757
  0
LINE
  8
0
  6
CONTINUOUS
 62
     7
 10
442.79669
 20
-970.31757
 11
369.79672
 21
-970.31757
  0
LINE
  8
0
  6
CONTINUOUS
 62
     7
 10
442.79669
 20
-981.31757
 11
369.79672
 21
-981.31757
  0
LINE
  8
0
  6
CONTINUOUS
 62
     7
 10
442.79669
 20
-970.31757
 11
442.79669
 21
-981.31757
  0
LINE
  8
0
  6
CONTINUOUS
 62
     7
 10
440.79669
 20
-964.3175
 11
440.79669
 21
-966.85345
  0
LINE
  8
0
  6
CONTINUOUS
 62
     7
 10
447.79669
 20
-957.3175
 11
453.69739
 21
-957.3175
  0
LINE
  8
0
  6
CONTINUOUS
 62
     7
 10
461.29675
 20
-960.8175
 11
481.29675
 21
-960.8175
  0
LINE
  8
0
  6
CONTINUOUS
 62
     7
 10
674.42731
 20
-960.08032
 11
674.42731
 21
-771.08032
  0
LINE
  8
0
  6
CONTINUOUS
 62
     7
 10
654.42731
 20
-771.08032
 11
674.42731
 21
-771.08032
  0
LINE
  8
0
  6
CONTINUOUS
 62
     7
 10
654.42731
 20
-960.08032
 11
654.42731
 21
-771.08032
  0
LINE
  8
0
  6
CONTINUOUS
 62
     7
 10
532.02661
 20
-774.58032
 11
646.82794
 21
-774.58032
  0
LINE
  8
0
  6
CENTER
 62
     7
 10
589.42731
 20
-989.14948
 11
589.42731
 21
-768.58032
  0
LINE
  8
0
  6
CONTINUOUS
 62
     7
 10
524.42731
 20
-960.08032
 11
524.42731
 21
-771.08032
  0
LINE
  8
0
  6
CONTINUOUS
 62
     7
 10
524.42731
 20
-771.08032
 11
504.42728
 21
-771.08032
  0
LINE
  8
0
  6
CONTINUOUS
 62
     7
 10
504.42728
 20
-960.08032
 11
504.42728
 21
-771.08032
  0
LINE
  8
0
  6
CENTER
 62
     7
 10
690.03967
 20
-865.58032
 11
496.42728
 21
-865.58032
  0
LINE
  8
0
  6
CONTINUOUS
 62
     7
 10
524.42731
 20
-960.08032
 11
504.42728
 21
-960.08032
  0
LINE
  8
0
  6
CONTINUOUS
 62
     7
 10
538.42725
 20
-956.58032
 11
532.02661
 21
-956.58032
  0
LINE
  8
0
  6
CONTINUOUS
 62
     7
 10
546.42725
 20
-964.58032
 11
546.42725
 21
-966.70697
  0
LINE
  8
0
  6
CONTINUOUS
 62
     7
 10
543.92725
 20
-971.58038
 11
543.92725
 21
-983.58038
  0
LINE
  8
0
  6
CONTINUOUS
 62
     7
 10
634.92725
 20
-971.58038
 11
543.92725
 21
-971.58038
  0
LINE
  8
0
  6
CONTINUOUS
 62
     7
 10
634.92725
 20
-983.58038
 11
543.92725
 21
-983.58038
  0
LINE
  8
0
  6
CONTINUOUS
 62
     7
 10
634.92725
 20
-971.58038
 11
634.92725
 21
-983.58038
  0
LINE
  8
0
  6
CONTINUOUS
 62
     7
 10
632.42725
 20
-964.58032
 11
632.42725
 21
-966.70697
  0
LINE
  8
0
  6
CONTINUOUS
 62
     7
 10
640.42725
 20
-956.58032
 11
646.82794
 21
-956.58032
  0
LINE
  8
0
  6
CONTINUOUS
 62
     7
 10
654.42731
 20
-960.08032
 11
674.42731
 21
-960.08032
  0
LINE
  8
0
  6
CONTINUOUS
 62
     7
 10
877.82672
 20
-770.3432
 11
897.82672
 21
-770.3432
  0
LINE
  8
0
  6
CONTINUOUS
 62
     7
 10
897.82672
 20
-959.3432
 11
897.82672
 21
-770.3432
  0
LINE
  8
0
  6
CONTINUOUS
 62
     7
 10
877.82672
 20
-959.3432
 11
877.82672
 21
-770.3432
  0
LINE
  8
0
  6
CONTINUOUS
 62
     7
 10
741.42603
 20
-773.8432
 11
870.22736
 21
-773.8432
  0
LINE
  8
0
  6
CENTER
 62
     7
 10
805.82672
 20
-994.21545
 11
805.82672
 21
-767.8432
  0
LINE
  8
0
  6
CENTER
 62
     7
 10
906.43909
 20
-864.8432
 11
703.30969
 21
-864.8432
  0
LINE
  8
0
  6
CONTINUOUS
 62
     7
 10
733.82672
 20
-959.3432
 11
733.82672
 21
-770.3432
  0
LINE
  8
0
  6
CONTINUOUS
 62
     7
 10
733.82672
 20
-770.3432
 11
713.82672
 21
-770.3432
  0
LINE
  8
0
  6
CONTINUOUS
 62
     7
 10
713.82672
 20
-959.3432
 11
713.82672
 21
-770.3432
  0
LINE
  8
0
  6
CONTINUOUS
 62
     7
 10
733.82672
 20
-959.3432
 11
713.82672
 21
-959.3432
  0
LINE
  8
0
  6
CONTINUOUS
 62
     7
 10
748.32666
 20
-955.8432
 11
741.42603
 21
-955.8432
  0
LINE
  8
0
  6
CONTINUOUS
 62
     7
 10
756.32666
 20
-963.8432
 11
756.32666
 21
-964.70178
  0
LINE
  8
0
  6
CONTINUOUS
 62
     7
 10
753.32666
 20
-971.8432
 11
753.32666
 21
-984.8432
  0
LINE
  8
0
  6
CONTINUOUS
 62
     7
 10
858.32666
 20
-971.8432
 11
753.32666
 21
-971.8432
  0
LINE
  8
0
  6
CONTINUOUS
 62
     7
 10
858.32666
 20
-984.8432
 11
753.32666
 21
-984.8432
  0
LINE
  8
0
  6
CONTINUOUS
 62
     7
 10
858.32666
 20
-971.8432
 11
858.32666
 21
-984.8432
  0
LINE
  8
0
  6
CONTINUOUS
 62
     7
 10
855.32666
 20
-963.8432
 11
855.32666
 21
-964.70178
  0
LINE
  8
0
  6
CONTINUOUS
 62
     7
 10
863.32666
 20
-955.8432
 11
870.22736
 21
-955.8432
  0
LINE
  8
0
  6
CONTINUOUS
 62
     7
 10
877.82672
 20
-959.3432
 11
897.82672
 21
-959.3432
  0
LINE
  8
0
  6
CONTINUOUS
 62
     7
 10
906
 20
-685
 11
906
 21
-1095
  0
LINE
  8
0
  6
CONTINUOUS
 62
     7
 10
322
 20
-685
 11
906
 21
-685
  0
LINE
  8
0
  6
CONTINUOUS
 62
     7
 10
322
 20
-685
 11
322
 21
-1095
  0
LINE
  8
0
  6
CONTINUOUS
 62
     7
 10
322
 20
-1095
 11
906
 21
-1095
  0
LINE
  8
0
  6
CONTINUOUS
 62
     7
 10
-43.241249
 20
-1386.609
 11
-43.241249
 21
-1197.609
  0
LINE
  8
0
  6
CONTINUOUS
 62
     7
 10
-63.241249
 20
-1386.609
 11
-63.241249
 21
-1197.609
  0
LINE
  8
0
  6
CONTINUOUS
 62
     7
 10
-63.241249
 20
-1386.609
 11
-43.241249
 21
-1386.609
  0
LINE
  8
0
  6
CENTER
 62
     7
 10
-33.470558
 20
-1292.109
 11
-257.75824
 21
-1292.109
  0
LINE
  8
0
  6
CENTER
 62
     7
 10
-145.24124
 20
-1430.1802
 11
-145.24124
 21
-1195.109
  0
LINE
  8
0
  6
CONTINUOUS
 62
     7
 10
-78.74131
 20
-1417.1091
 11
-211.74127
 21
-1417.1091
  0
LINE
  8
0
  6
CONTINUOUS
 62
     7
 10
-78.74131
 20
-1401.1091
 11
-211.74127
 21
-1401.1091
  0
LINE
  8
0
  6
CONTINUOUS
 62
     7
 10
-78.74131
 20
-1401.1091
 11
-78.74131
 21
-1417.1091
  0
LINE
  8
0
  6
CONTINUOUS
 62
     7
 10
-81.74131
 20
-1390.109
 11
-81.74131
 21
-1393.9677
  0
LINE
  8
0
  6
CONTINUOUS
 62
     7
 10
-74.74131
 20
-1383.109
 11
-70.840614
 21
-1383.109
  0
LINE
  8
0
  6
CONTINUOUS
 62
     7
 10
-211.74127
 20
-1401.1091
 11
-211.74127
 21
-1417.1091
  0
LINE
  8
0
  6
CONTINUOUS
 62
     7
 10
-208.74127
 20
-1390.109
 11
-208.74127
 21
-1393.9677
  0
LINE
  8
0
  6
CONTINUOUS
 62
     7
 10
-215.74127
 20
-1383.109
 11
-219.64191
 21
-1383.109
  0
LINE
  8
0
  6
CONTINUOUS
 62
     7
 10
-227.24124
 20
-1386.609
 11
-247.24124
 21
-1386.609
  0
LINE
  8
0
  6
CONTINUOUS
 62
     7
 10
-227.24124
 20
-1386.609
 11
-227.24124
 21
-1197.609
  0
LINE
  8
0
  6
CONTINUOUS
 62
     7
 10
-247.24124
 20
-1386.609
 11
-247.24124
 21
-1197.609
  0
LINE
  8
0
  6
CONTINUOUS
 62
     7
 10
-63.241249
 20
-1197.609
 11
-43.241249
 21
-1197.609
  0
LINE
  8
0
  6
CONTINUOUS
 62
     7
 10
-219.64191
 20
-1201.109
 11
-70.840614
 21
-1201.109
  0
LINE
  8
0
  6
CONTINUOUS
 62
     7
 10
-227.24124
 20
-1197.609
 11
-247.24124
 21
-1197.609
  0
LINE
  8
0
  6
CONTINUOUS
 62
     7
 10
226.51633
 20
-1196.8452
 11
246.51633
 21
-1196.8452
  0
LINE
  8
0
  6
CONTINUOUS
 62
     7
 10
246.51633
 20
-1385.8452
 11
246.51633
 21
-1196.8452
  0
LINE
  8
0
  6
CONTINUOUS
 62
     7
 10
226.51633
 20
-1385.8452
 11
226.51633
 21
-1196.8452
  0
LINE
  8
0
  6
CONTINUOUS
 62
     7
 10
42.115662
 20
-1200.3452
 11
218.91696
 21
-1200.3452
  0
LINE
  8
0
  6
CONTINUOUS
 62
     7
 10
34.516327
 20
-1385.8452
 11
34.516327
 21
-1196.8452
  0
LINE
  8
0
  6
CONTINUOUS
 62
     7
 10
34.516327
 20
-1196.8452
 11
14.516327
 21
-1196.8452
  0
LINE
  8
0
  6
CONTINUOUS
 62
     7
 10
14.516327
 20
-1385.8452
 11
14.516327
 21
-1196.8452
  0
LINE
  8
0
  6
CENTER
 62
     7
 10
257.20517
 20
-1291.3452
 11
3.9993284
 21
-1291.3452
  0
LINE
  8
0
  6
CENTER
 62
     7
 10
130.51633
 20
-1429.4163
 11
130.51633
 21
-1194.3452
  0
LINE
  8
0
  6
CONTINUOUS
 62
     7
 10
34.516327
 20
-1385.8452
 11
14.516327
 21
-1385.8452
  0
LINE
  8
0
  6
CONTINUOUS
 62
     7
 10
211.01627
 20
-1401.3452
 11
50.016296
 21
-1401.3452
  0
LINE
  8
0
  6
CONTINUOUS
 62
     7
 10
50.016296
 20
-1401.3452
 11
50.016296
 21
-1419.3452
  0
LINE
  8
0
  6
CONTINUOUS
 62
     7
 10
211.01627
 20
-1419.3452
 11
50.016296
 21
-1419.3452
  0
LINE
  8
0
  6
CONTINUOUS
 62
     7
 10
226.51633
 20
-1385.8452
 11
246.51633
 21
-1385.8452
  0
LINE
  8
0
  6
CONTINUOUS
 62
     7
 10
211.01627
 20
-1401.3452
 11
211.01627
 21
-1419.3452
  0
LINE
  8
0
  6
CONTINUOUS
 62
     7
 10
-230.70567
 20
114.29852
 11
-230.70567
 21
112.24419
  0
LINE
  8
0
  6
CONTINUOUS
 62
     7
 10
-232.20567
 20
114.29852
 11
-232.20567
 21
112.24419
  0
LINE
  8
0
  6
CONTINUOUS
 62
     7
 10
-232.20567
 20
101.35284
 11
-232.20567
 21
99.298515
  0
LINE
  8
0
  6
CONTINUOUS
 62
     7
 10
-230.70567
 20
101.35284
 11
-230.70567
 21
99.298515
  0
LINE
  8
0
  6
CONTINUOUS
 62
     7
 10
-232.20567
 20
110.73873
 11
-232.20567
 21
106.79852
  0
LINE
  8
0
  6
CONTINUOUS
 62
     7
 10
-230.70567
 20
110.73873
 11
-230.70567
 21
106.79852
  0
LINE
  8
0
  6
CONTINUOUS
 62
     7
 10
-131.7028
 20
114.29852
 11
-131.7028
 21
112.24419
  0
LINE
  8
0
  6
CONTINUOUS
 62
     7
 10
-133.2028
 20
114.29852
 11
-133.2028
 21
112.24419
  0
LINE
  8
0
  6
CONTINUOUS
 62
     7
 10
-133.2028
 20
101.35284
 11
-133.2028
 21
99.298515
  0
LINE
  8
0
  6
CONTINUOUS
 62
     7
 10
-131.7028
 20
101.35284
 11
-131.7028
 21
99.298515
  0
LINE
  8
0
  6
CONTINUOUS
 62
     7
 10
-133.2028
 20
110.73873
 11
-133.2028
 21
106.79852
  0
LINE
  8
0
  6
CONTINUOUS
 62
     7
 10
-131.7028
 20
110.73873
 11
-131.7028
 21
106.79852
  0
LINE
  8
0
  6
CONTINUOUS
 62
     7
 10
-24.672676
 20
113.62958
 11
-24.672676
 21
111.57524
  0
LINE
  8
0
  6
CONTINUOUS
 62
     7
 10
-26.172676
 20
113.62958
 11
-26.172676
 21
111.57524
  0
LINE
  8
0
  6
CONTINUOUS
 62
     7
 10
-26.172676
 20
100.68391
 11
-26.172676
 21
98.629578
  0
LINE
  8
0
  6
CONTINUOUS
 62
     7
 10
-24.672676
 20
100.68391
 11
-24.672676
 21
98.629578
  0
LINE
  8
0
  6
CONTINUOUS
 62
     7
 10
-26.172676
 20
110.06979
 11
-26.172676
 21
106.12958
  0
LINE
  8
0
  6
CONTINUOUS
 62
     7
 10
-24.672676
 20
110.06979
 11
-24.672676
 21
106.12958
  0
LINE
  8
0
  6
CONTINUOUS
 62
     7
 10
90.384712
 20
114.96745
 11
90.384712
 21
112.91312
  0
LINE
  8
0
  6
CONTINUOUS
 62
     7
 10
88.884712
 20
114.96745
 11
88.884712
 21
112.91312
  0
LINE
  8
0
  6
CONTINUOUS
 62
     7
 10
88.884712
 20
102.02179
 11
88.884712
 21
99.967453
  0
LINE
  8
0
  6
CONTINUOUS
 62
     7
 10
90.384712
 20
102.02179
 11
90.384712
 21
99.967453
  0
LINE
  8
0
  6
CONTINUOUS
 62
     7
 10
88.884712
 20
111.40767
 11
88.884712
 21
107.46745
  0
LINE
  8
0
  6
CONTINUOUS
 62
     7
 10
90.384712
 20
111.40767
 11
90.384712
 21
107.46745
  0
LINE
  8
0
  6
CONTINUOUS
 62
     7
 10
214.13831
 20
114.96745
 11
214.13831
 21
112.91312
  0
LINE
  8
0
  6
CONTINUOUS
 62
     7
 10
212.63831
 20
114.96745
 11
212.63831
 21
112.91312
  0
LINE
  8
0
  6
CONTINUOUS
 62
     7
 10
212.63831
 20
102.02179
 11
212.63831
 21
99.967453
  0
LINE
  8
0
  6
CONTINUOUS
 62
     7
 10
214.13831
 20
102.02179
 11
214.13831
 21
99.967453
  0
LINE
  8
0
  6
CONTINUOUS
 62
     7
 10
212.63831
 20
111.40767
 11
212.63831
 21
107.46745
  0
LINE
  8
0
  6
CONTINUOUS
 62
     7
 10
214.13831
 20
111.40767
 11
214.13831
 21
107.46745
  0
LINE
  8
0
  6
CONTINUOUS
 62
     7
 10
-200.03232
 20
-68.955132
 11
-200.03232
 21
-71.00946
  0
LINE
  8
0
  6
CONTINUOUS
 62
     7
 10
-201.53232
 20
-68.955132
 11
-201.53232
 21
-71.00946
  0
LINE
  8
0
  6
CONTINUOUS
 62
     7
 10
-201.53232
 20
-81.900803
 11
-201.53232
 21
-83.955132
  0
LINE
  8
0
  6
CONTINUOUS
 62
     7
 10
-200.03232
 20
-81.900803
 11
-200.03232
 21
-83.955132
  0
LINE
  8
0
  6
CONTINUOUS
 62
     7
 10
-201.53232
 20
-72.514915
 11
-201.53232
 21
-76.455132
  0
LINE
  8
0
  6
CONTINUOUS
 62
     7
 10
-200.03232
 20
-72.514915
 11
-200.03232
 21
-76.455132
  0
LINE
  8
0
  6
CONTINUOUS
 62
     7
 10
-34.993553
 20
-66.77562
 11
-34.993553
 21
-69.240822
  0
LINE
  8
0
  6
CONTINUOUS
 62
     7
 10
-36.793556
 20
-66.77562
 11
-36.793556
 21
-69.240822
  0
LINE
  8
0
  6
CONTINUOUS
 62
     7
 10
-36.793556
 20
-82.310417
 11
-36.793556
 21
-84.77562
  0
LINE
  8
0
  6
CONTINUOUS
 62
     7
 10
-34.993553
 20
-82.310417
 11
-34.993553
 21
-84.77562
  0
LINE
  8
0
  6
CONTINUOUS
 62
     7
 10
-36.793556
 20
-71.047363
 11
-36.793556
 21
-75.77562
  0
LINE
  8
0
  6
CONTINUOUS
 62
     7
 10
-34.993553
 20
-71.047363
 11
-34.993553
 21
-75.77562
  0
LINE
  8
0
  6
CONTINUOUS
 62
     7
 10
75.381271
 20
-67.444557
 11
75.381271
 21
-69.90976
  0
LINE
  8
0
  6
CONTINUOUS
 62
     7
 10
73.581268
 20
-67.444557
 11
73.581268
 21
-69.90976
  0
LINE
  8
0
  6
CONTINUOUS
 62
     7
 10
73.581268
 20
-82.979355
 11
73.581268
 21
-85.444557
  0
LINE
  8
0
  6
CONTINUOUS
 62
     7
 10
75.381271
 20
-82.979355
 11
75.381271
 21
-85.444557
  0
LINE
  8
0
  6
CONTINUOUS
 62
     7
 10
73.581268
 20
-71.716301
 11
73.581268
 21
-76.444557
  0
LINE
  8
0
  6
CONTINUOUS
 62
     7
 10
75.381271
 20
-71.716301
 11
75.381271
 21
-76.444557
  0
LINE
  8
0
  6
CONTINUOUS
 62
     7
 10
191.77654
 20
-67.444557
 11
191.77654
 21
-69.90976
  0
LINE
  8
0
  6
CONTINUOUS
 62
     7
 10
189.97655
 20
-67.444557
 11
189.97655
 21
-69.90976
  0
LINE
  8
0
  6
CONTINUOUS
 62
     7
 10
189.97655
 20
-82.979355
 11
189.97655
 21
-85.444557
  0
LINE
  8
0
  6
CONTINUOUS
 62
     7
 10
191.77654
 20
-82.979355
 11
191.77654
 21
-85.444557
  0
LINE
  8
0
  6
CONTINUOUS
 62
     7
 10
189.97655
 20
-71.716301
 11
189.97655
 21
-76.444557
  0
LINE
  8
0
  6
CONTINUOUS
 62
     7
 10
191.77654
 20
-71.716301
 11
191.77654
 21
-76.444557
  0
LINE
  8
0
  6
CONTINUOUS
 62
     7
 10
394.31567
 20
114.22552
 11
394.31567
 21
111.76032
  0
LINE
  8
0
  6
CONTINUOUS
 62
     7
 10
392.51569
 20
114.22552
 11
392.51569
 21
111.76032
  0
LINE
  8
0
  6
CONTINUOUS
 62
     7
 10
392.51569
 20
98.690727
 11
392.51569
 21
96.225525
  0
LINE
  8
0
  6
CONTINUOUS
 62
     7
 10
394.31567
 20
98.690727
 11
394.31567
 21
96.225525
  0
LINE
  8
0
  6
CONTINUOUS
 62
     7
 10
392.51569
 20
109.95378
 11
392.51569
 21
105.22552
  0
LINE
  8
0
  6
CONTINUOUS
 62
     7
 10
394.31567
 20
109.95378
 11
394.31567
 21
105.22552
  0
LINE
  8
0
  6
CONTINUOUS
 62
     7
 10
524.87408
 20
113.43903
 11
524.87408
 21
110.97382
  0
LINE
  8
0
  6
CONTINUOUS
 62
     7
 10
523.07404
 20
113.43903
 11
523.07404
 21
110.97382
  0
LINE
  8
0
  6
CONTINUOUS
 62
     7
 10
523.07404
 20
97.904228
 11
523.07404
 21
95.439026
  0
LINE
  8
0
  6
CONTINUOUS
 62
     7
 10
524.87408
 20
97.904228
 11
524.87408
 21
95.439026
  0
LINE
  8
0
  6
CONTINUOUS
 62
     7
 10
523.07404
 20
109.16728
 11
523.07404
 21
104.43903
  0
LINE
  8
0
  6
CONTINUOUS
 62
     7
 10
524.87408
 20
109.16728
 11
524.87408
 21
104.43903
  0
LINE
  8
0
  6
CONTINUOUS
 62
     7
 10
663.69067
 20
113.43903
 11
663.69067
 21
110.97382
  0
LINE
  8
0
  6
CONTINUOUS
 62
     7
 10
661.89063
 20
113.43903
 11
661.89063
 21
110.97382
  0
LINE
  8
0
  6
CONTINUOUS
 62
     7
 10
661.89063
 20
97.904228
 11
661.89063
 21
95.439026
  0
LINE
  8
0
  6
CONTINUOUS
 62
     7
 10
663.69067
 20
97.904228
 11
663.69067
 21
95.439026
  0
LINE
  8
0
  6
CONTINUOUS
 62
     7
 10
661.89063
 20
109.16728
 11
661.89063
 21
104.43903
  0
LINE
  8
0
  6
CONTINUOUS
 62
     7
 10
663.69067
 20
109.16728
 11
663.69067
 21
104.43903
  0
LINE
  8
0
  6
CONTINUOUS
 62
     7
 10
815.87775
 20
113.43903
 11
815.87775
 21
110.97382
  0
LINE
  8
0
  6
CONTINUOUS
 62
     7
 10
814.0777
 20
113.43903
 11
814.0777
 21
110.97382
  0
LINE
  8
0
  6
CONTINUOUS
 62
     7
 10
814.0777
 20
97.904228
 11
814.0777
 21
95.439026
  0
LINE
  8
0
  6
CONTINUOUS
 62
     7
 10
815.87775
 20
97.904228
 11
815.87775
 21
95.439026
  0
LINE
  8
0
  6
CONTINUOUS
 62
     7
 10
814.0777
 20
109.16728
 11
814.0777
 21
104.43903
  0
LINE
  8
0
  6
CONTINUOUS
 62
     7
 10
815.87775
 20
109.16728
 11
815.87775
 21
104.43903
  0
LINE
  8
0
  6
CONTINUOUS
 62
     7
 10
399.03464
 20
-75.320099
 11
399.03464
 21
-77.785301
  0
LINE
  8
0
  6
CONTINUOUS
 62
     7
 10
397.23465
 20
-75.320099
 11
397.23465
 21
-77.785301
  0
LINE
  8
0
  6
CONTINUOUS
 62
     7
 10
397.23465
 20
-90.854897
 11
397.23465
 21
-93.320099
  0
LINE
  8
0
  6
CONTINUOUS
 62
     7
 10
399.03464
 20
-90.854897
 11
399.03464
 21
-93.320099
  0
LINE
  8
0
  6
CONTINUOUS
 62
     7
 10
397.23465
 20
-79.591843
 11
397.23465
 21
-84.320099
  0
LINE
  8
0
  6
CONTINUOUS
 62
     7
 10
399.03464
 20
-79.591843
 11
399.03464
 21
-84.320099
  0
LINE
  8
0
  6
CONTINUOUS
 62
     7
 10
528.02008
 20
-76.10659
 11
528.02008
 21
-78.571793
  0
LINE
  8
0
  6
CONTINUOUS
 62
     7
 10
526.22003
 20
-76.10659
 11
526.22003
 21
-78.571793
  0
LINE
  8
0
  6
CONTINUOUS
 62
     7
 10
526.22003
 20
-91.641388
 11
526.22003
 21
-94.10659
  0
LINE
  8
0
  6
CONTINUOUS
 62
     7
 10
528.02008
 20
-91.641388
 11
528.02008
 21
-94.10659
  0
LINE
  8
0
  6
CONTINUOUS
 62
     7
 10
526.22003
 20
-80.378334
 11
526.22003
 21
-85.10659
  0
LINE
  8
0
  6
CONTINUOUS
 62
     7
 10
528.02008
 20
-80.378334
 11
528.02008
 21
-85.10659
  0
LINE
  8
0
  6
CONTINUOUS
 62
     7
 10
663.29742
 20
-76.893089
 11
663.29742
 21
-79.358292
  0
LINE
  8
0
  6
CONTINUOUS
 62
     7
 10
661.49738
 20
-76.893089
 11
661.49738
 21
-79.358292
  0
LINE
  8
0
  6
CONTINUOUS
 62
     7
 10
661.49738
 20
-92.427887
 11
661.49738
 21
-94.893089
  0
LINE
  8
0
  6
CONTINUOUS
 62
     7
 10
663.29742
 20
-92.427887
 11
663.29742
 21
-94.893089
  0
LINE
  8
0
  6
CONTINUOUS
 62
     7
 10
661.49738
 20
-81.164833
 11
661.49738
 21
-85.893089
  0
LINE
  8
0
  6
CONTINUOUS
 62
     7
 10
663.29742
 20
-81.164833
 11
663.29742
 21
-85.893089
  0
LINE
  8
0
  6
CONTINUOUS
 62
     7
 10
804.86682
 20
-76.893089
 11
804.86682
 21
-79.358292
  0
LINE
  8
0
  6
CONTINUOUS
 62
     7
 10
803.06677
 20
-76.893089
 11
803.06677
 21
-79.358292
  0
LINE
  8
0
  6
CONTINUOUS
 62
     7
 10
803.06677
 20
-92.427887
 11
803.06677
 21
-94.893089
  0
LINE
  8
0
  6
CONTINUOUS
 62
     7
 10
804.86682
 20
-92.427887
 11
804.86682
 21
-94.893089
  0
LINE
  8
0
  6
CONTINUOUS
 62
     7
 10
803.06677
 20
-81.164833
 11
803.06677
 21
-85.893089
  0
LINE
  8
0
  6
CONTINUOUS
 62
     7
 10
804.86682
 20
-81.164833
 11
804.86682
 21
-85.893089
  0
LINE
  8
0
  6
CONTINUOUS
 62
     7
 10
-181.39966
 20
-327.78543
 11
-181.39966
 21
-330.25064
  0
LINE
  8
0
  6
CONTINUOUS
 62
     7
 10
-183.19965
 20
-327.78543
 11
-183.19965
 21
-330.25064
  0
LINE
  8
0
  6
CONTINUOUS
 62
     7
 10
-183.19965
 20
-343.32022
 11
-183.19965
 21
-345.78543
  0
LINE
  8
0
  6
CONTINUOUS
 62
     7
 10
-181.39966
 20
-343.32022
 11
-181.39966
 21
-345.78543
  0
LINE
  8
0
  6
CONTINUOUS
 62
     7
 10
-183.19965
 20
-332.05716
 11
-183.19965
 21
-336.78543
  0
LINE
  8
0
  6
CONTINUOUS
 62
     7
 10
-181.39966
 20
-332.05716
 11
-181.39966
 21
-336.78543
  0
LINE
  8
0
  6
CONTINUOUS
 62
     7
 10
-23.707136
 20
-328.57193
 11
-23.707136
 21
-331.03714
  0
LINE
  8
0
  6
CONTINUOUS
 62
     7
 10
-25.507135
 20
-328.57193
 11
-25.507135
 21
-331.03714
  0
LINE
  8
0
  6
CONTINUOUS
 62
     7
 10
-25.507135
 20
-344.10672
 11
-25.507135
 21
-346.57193
  0
LINE
  8
0
  6
CONTINUOUS
 62
     7
 10
-23.707136
 20
-344.10672
 11
-23.707136
 21
-346.57193
  0
LINE
  8
0
  6
CONTINUOUS
 62
     7
 10
-25.507135
 20
-332.84366
 11
-25.507135
 21
-337.57193
  0
LINE
  8
0
  6
CONTINUOUS
 62
     7
 10
-23.707136
 20
-332.84366
 11
-23.707136
 21
-337.57193
  0
LINE
  8
0
  6
CONTINUOUS
 62
     7
 10
150.89505
 20
-327.78543
 11
150.89505
 21
-330.25064
  0
LINE
  8
0
  6
CONTINUOUS
 62
     7
 10
149.09506
 20
-327.78543
 11
149.09506
 21
-330.25064
  0
LINE
  8
0
  6
CONTINUOUS
 62
     7
 10
149.09506
 20
-343.32022
 11
149.09506
 21
-345.78543
  0
LINE
  8
0
  6
CONTINUOUS
 62
     7
 10
150.89505
 20
-343.32022
 11
150.89505
 21
-345.78543
  0
LINE
  8
0
  6
CONTINUOUS
 62
     7
 10
149.09506
 20
-332.05716
 11
149.09506
 21
-336.78543
  0
LINE
  8
0
  6
CONTINUOUS
 62
     7
 10
150.89505
 20
-332.05716
 11
150.89505
 21
-336.78543
  0
LINE
  8
0
  6
CONTINUOUS
 62
     7
 10
-173.92795
 20
-514.97156
 11
-173.92795
 21
-517.43677
  0
LINE
  8
0
  6
CONTINUOUS
 62
     7
 10
-175.72794
 20
-514.97156
 11
-175.72794
 21
-517.43677
  0
LINE
  8
0
  6
CONTINUOUS
 62
     7
 10
-175.72794
 20
-530.50635
 11
-175.72794
 21
-532.97156
  0
LINE
  8
0
  6
CONTINUOUS
 62
     7
 10
-173.92795
 20
-530.50635
 11
-173.92795
 21
-532.97156
  0
LINE
  8
0
  6
CONTINUOUS
 62
     7
 10
-175.72794
 20
-519.24329
 11
-175.72794
 21
-523.97156
  0
LINE
  8
0
  6
CONTINUOUS
 62
     7
 10
-173.92795
 20
-519.24329
 11
-173.92795
 21
-523.97156
  0
LINE
  8
0
  6
CONTINUOUS
 62
     7
 10
20.63666
 20
-516.69055
 11
20.63666
 21
-519.97748
  0
LINE
  8
0
  6
CONTINUOUS
 62
     7
 10
18.236658
 20
-516.69055
 11
18.236658
 21
-519.97748
  0
LINE
  8
0
  6
CONTINUOUS
 62
     7
 10
18.236658
 20
-537.40363
 11
18.236658
 21
-540.69055
  0
LINE
  8
0
  6
CONTINUOUS
 62
     7
 10
20.63666
 20
-537.40363
 11
20.63666
 21
-540.69055
  0
LINE
  8
0
  6
CONTINUOUS
 62
     7
 10
18.236658
 20
-522.38623
 11
18.236658
 21
-528.69055
  0
LINE
  8
0
  6
CONTINUOUS
 62
     7
 10
20.63666
 20
-522.38623
 11
20.63666
 21
-528.69055
  0
LINE
  8
0
  6
CONTINUOUS
 62
     7
 10
178.72243
 20
-515.11755
 11
178.72243
 21
-518.40448
  0
LINE
  8
0
  6
CONTINUOUS
 62
     7
 10
176.32243
 20
-515.11755
 11
176.32243
 21
-518.40448
  0
LINE
  8
0
  6
CONTINUOUS
 62
     7
 10
176.32243
 20
-535.83063
 11
176.32243
 21
-539.11755
  0
LINE
  8
0
  6
CONTINUOUS
 62
     7
 10
178.72243
 20
-535.83063
 11
178.72243
 21
-539.11755
  0
LINE
  8
0
  6
CONTINUOUS
 62
     7
 10
176.32243
 20
-520.81323
 11
176.32243
 21
-527.11755
  0
LINE
  8
0
  6
CONTINUOUS
 62
     7
 10
178.72243
 20
-520.81323
 11
178.72243
 21
-527.11755
  0
LINE
  8
0
  6
CONTINUOUS
 62
     7
 10
699.64069
 20
-516.64294
 11
699.64069
 21
-519.92987
  0
LINE
  8
0
  6
CONTINUOUS
 62
     7
 10
697.24072
 20
-516.64294
 11
697.24072
 21
-519.92987
  0
LINE
  8
0
  6
CONTINUOUS
 62
     7
 10
697.24072
 20
-537.35602
 11
697.24072
 21
-540.64294
  0
LINE
  8
0
  6
CONTINUOUS
 62
     7
 10
699.64069
 20
-537.35602
 11
699.64069
 21
-540.64294
  0
LINE
  8
0
  6
CONTINUOUS
 62
     7
 10
697.24072
 20
-522.33862
 11
697.24072
 21
-528.64294
  0
LINE
  8
0
  6
CONTINUOUS
 62
     7
 10
699.64069
 20
-522.33862
 11
699.64069
 21
-528.64294
  0
LINE
  8
0
  6
CONTINUOUS
 62
     7
 10
468.13589
 20
-521.18225
 11
468.13589
 21
-524.46918
  0
LINE
  8
0
  6
CONTINUOUS
 62
     7
 10
465.7359
 20
-521.18225
 11
465.7359
 21
-524.46918
  0
LINE
  8
0
  6
CONTINUOUS
 62
     7
 10
465.7359
 20
-541.89532
 11
465.7359
 21
-545.18225
  0
LINE
  8
0
  6
CONTINUOUS
 62
     7
 10
468.13589
 20
-541.89532
 11
468.13589
 21
-545.18225
  0
LINE
  8
0
  6
CONTINUOUS
 62
     7
 10
465.7359
 20
-526.87793
 11
465.7359
 21
-533.18225
  0
LINE
  8
0
  6
CONTINUOUS
 62
     7
 10
468.13589
 20
-526.87793
 11
468.13589
 21
-533.18225
  0
LINE
  8
0
  6
CONTINUOUS
 62
     7
 10
791.18347
 20
-328.26157
 11
791.18347
 21
-331.54852
  0
LINE
  8
0
  6
CONTINUOUS
 62
     7
 10
788.78345
 20
-328.26157
 11
788.78345
 21
-331.54852
  0
LINE
  8
0
  6
CONTINUOUS
 62
     7
 10
788.78345
 20
-348.97464
 11
788.78345
 21
-352.26157
  0
LINE
  8
0
  6
CONTINUOUS
 62
     7
 10
791.18347
 20
-348.97464
 11
791.18347
 21
-352.26157
  0
LINE
  8
0
  6
CONTINUOUS
 62
     7
 10
788.78345
 20
-333.95724
 11
788.78345
 21
-340.26157
  0
LINE
  8
0
  6
CONTINUOUS
 62
     7
 10
791.18347
 20
-333.95724
 11
791.18347
 21
-340.26157
  0
LINE
  8
0
  6
CONTINUOUS
 62
     7
 10
589.94073
 20
-327.50504
 11
589.94073
 21
-330.79196
  0
LINE
  8
0
  6
CONTINUOUS
 62
     7
 10
587.54071
 20
-327.50504
 11
587.54071
 21
-330.79196
  0
LINE
  8
0
  6
CONTINUOUS
 62
     7
 10
587.54071
 20
-348.21811
 11
587.54071
 21
-351.50504
  0
LINE
  8
0
  6
CONTINUOUS
 62
     7
 10
589.94073
 20
-348.21811
 11
589.94073
 21
-351.50504
  0
LINE
  8
0
  6
CONTINUOUS
 62
     7
 10
587.54071
 20
-333.20068
 11
587.54071
 21
-339.50504
  0
LINE
  8
0
  6
CONTINUOUS
 62
     7
 10
589.94073
 20
-333.20068
 11
589.94073
 21
-339.50504
  0
LINE
  8
0
  6
CONTINUOUS
 62
     7
 10
405.3421
 20
-327.50504
 11
405.3421
 21
-330.79196
  0
LINE
  8
0
  6
CONTINUOUS
 62
     7
 10
402.94211
 20
-327.50504
 11
402.94211
 21
-330.79196
  0
LINE
  8
0
  6
CONTINUOUS
 62
     7
 10
402.94211
 20
-348.21811
 11
402.94211
 21
-351.50504
  0
LINE
  8
0
  6
CONTINUOUS
 62
     7
 10
405.3421
 20
-348.21811
 11
405.3421
 21
-351.50504
  0
LINE
  8
0
  6
CONTINUOUS
 62
     7
 10
402.94211
 20
-333.20068
 11
402.94211
 21
-339.50504
  0
LINE
  8
0
  6
CONTINUOUS
 62
     7
 10
405.3421
 20
-333.20068
 11
405.3421
 21
-339.50504
  0
LINE
  8
0
  6
CONTINUOUS
 62
     7
 10
172.37405
 20
-838.98236
 11
172.37405
 21
-842.26929
  0
LINE
  8
0
  6
CONTINUOUS
 62
     7
 10
169.97404
 20
-838.98236
 11
169.97404
 21
-842.26929
  0
LINE
  8
0
  6
CONTINUOUS
 62
     7
 10
169.97404
 20
-859.69543
 11
169.97404
 21
-862.98236
  0
LINE
  8
0
  6
CONTINUOUS
 62
     7
 10
172.37405
 20
-859.69543
 11
172.37405
 21
-862.98236
  0
LINE
  8
0
  6
CONTINUOUS
 62
     7
 10
169.97404
 20
-844.67798
 11
169.97404
 21
-850.98236
  0
LINE
  8
0
  6
CONTINUOUS
 62
     7
 10
172.37405
 20
-844.67798
 11
172.37405
 21
-850.98236
  0
LINE
  8
0
  6
CONTINUOUS
 62
     7
 10
-17.344475
 20
-838.98236
 11
-17.344475
 21
-842.26929
  0
LINE
  8
0
  6
CONTINUOUS
 62
     7
 10
-19.744474
 20
-838.98236
 11
-19.744474
 21
-842.26929
  0
LINE
  8
0
  6
CONTINUOUS
 62
     7
 10
-19.744474
 20
-859.69543
 11
-19.744474
 21
-862.98236
  0
LINE
  8
0
  6
CONTINUOUS
 62
     7
 10
-17.344475
 20
-859.69543
 11
-17.344475
 21
-862.98236
  0
LINE
  8
0
  6
CONTINUOUS
 62
     7
 10
-19.744474
 20
-844.67798
 11
-19.744474
 21
-850.98236
  0
LINE
  8
0
  6
CONTINUOUS
 62
     7
 10
-17.344475
 20
-844.67798
 11
-17.344475
 21
-850.98236
  0
LINE
  8
0
  6
CONTINUOUS
 62
     7
 10
-203.20694
 20
-839.75354
 11
-203.20694
 21
-843.04047
  0
LINE
  8
0
  6
CONTINUOUS
 62
     7
 10
-205.60693
 20
-839.75354
 11
-205.60693
 21
-843.04047
  0
LINE
  8
0
  6
CONTINUOUS
 62
     7
 10
-205.60693
 20
-860.46661
 11
-205.60693
 21
-863.75354
  0
LINE
  8
0
  6
CONTINUOUS
 62
     7
 10
-203.20694
 20
-860.46661
 11
-203.20694
 21
-863.75354
  0
LINE
  8
0
  6
CONTINUOUS
 62
     7
 10
-205.60693
 20
-845.44922
 11
-205.60693
 21
-851.75354
  0
LINE
  8
0
  6
CONTINUOUS
 62
     7
 10
-203.20694
 20
-845.44922
 11
-203.20694
 21
-851.75354
  0
LINE
  8
0
  6
CONTINUOUS
 62
     7
 10
807.02673
 20
-852.8432
 11
807.02673
 21
-856.13013
  0
LINE
  8
0
  6
CONTINUOUS
 62
     7
 10
804.62671
 20
-852.8432
 11
804.62671
 21
-856.13013
  0
LINE
  8
0
  6
CONTINUOUS
 62
     7
 10
804.62671
 20
-873.55627
 11
804.62671
 21
-876.8432
  0
LINE
  8
0
  6
CONTINUOUS
 62
     7
 10
807.02673
 20
-873.55627
 11
807.02673
 21
-876.8432
  0
LINE
  8
0
  6
CONTINUOUS
 62
     7
 10
804.62671
 20
-858.53882
 11
804.62671
 21
-864.8432
  0
LINE
  8
0
  6
CONTINUOUS
 62
     7
 10
807.02673
 20
-858.53882
 11
807.02673
 21
-864.8432
  0
LINE
  8
0
  6
CONTINUOUS
 62
     7
 10
590.62726
 20
-853.58032
 11
590.62726
 21
-856.86725
  0
LINE
  8
0
  6
CONTINUOUS
 62
     7
 10
588.22729
 20
-853.58032
 11
588.22729
 21
-856.86725
  0
LINE
  8
0
  6
CONTINUOUS
 62
     7
 10
588.22729
 20
-874.2934
 11
588.22729
 21
-877.58032
  0
LINE
  8
0
  6
CONTINUOUS
 62
     7
 10
590.62726
 20
-874.2934
 11
590.62726
 21
-877.58032
  0
LINE
  8
0
  6
CONTINUOUS
 62
     7
 10
588.22729
 20
-859.276
 11
588.22729
 21
-865.58032
  0
LINE
  8
0
  6
CONTINUOUS
 62
     7
 10
590.62726
 20
-859.276
 11
590.62726
 21
-865.58032
  0
LINE
  8
0
  6
CONTINUOUS
 62
     7
 10
407.49677
 20
-854.3175
 11
407.49677
 21
-857.60443
  0
LINE
  8
0
  6
CONTINUOUS
 62
     7
 10
405.09677
 20
-854.3175
 11
405.09677
 21
-857.60443
  0
LINE
  8
0
  6
CONTINUOUS
 62
     7
 10
405.09677
 20
-875.03058
 11
405.09677
 21
-878.3175
  0
LINE
  8
0
  6
CONTINUOUS
 62
     7
 10
407.49677
 20
-875.03058
 11
407.49677
 21
-878.3175
  0
LINE
  8
0
  6
CONTINUOUS
 62
     7
 10
405.09677
 20
-860.01318
 11
405.09677
 21
-866.3175
  0
LINE
  8
0
  6
CONTINUOUS
 62
     7
 10
407.49677
 20
-860.01318
 11
407.49677
 21
-866.3175
  0
LINE
  8
0
  6
CONTINUOUS
 62
     7
 10
-144.04124
 20
-1280.109
 11
-144.04124
 21
-1283.396
  0
LINE
  8
0
  6
CONTINUOUS
 62
     7
 10
-146.44125
 20
-1280.109
 11
-146.44125
 21
-1283.396
  0
LINE
  8
0
  6
CONTINUOUS
 62
     7
 10
-146.44125
 20
-1300.8221
 11
-146.44125
 21
-1304.109
  0
LINE
  8
0
  6
CONTINUOUS
 62
     7
 10
-144.04124
 20
-1300.8221
 11
-144.04124
 21
-1304.109
  0
LINE
  8
0
  6
CONTINUOUS
 62
     7
 10
-146.44125
 20
-1285.8047
 11
-146.44125
 21
-1292.109
  0
LINE
  8
0
  6
CONTINUOUS
 62
     7
 10
-144.04124
 20
-1285.8047
 11
-144.04124
 21
-1292.109
  0
LINE
  8
0
  6
CONTINUOUS
 62
     7
 10
131.71632
 20
-1279.3452
 11
131.71632
 21
-1282.6321
  0
LINE
  8
0
  6
CONTINUOUS
 62
     7
 10
129.31633
 20
-1279.3452
 11
129.31633
 21
-1282.6321
  0
LINE
  8
0
  6
CONTINUOUS
 62
     7
 10
129.31633
 20
-1300.0582
 11
129.31633
 21
-1303.3452
  0
LINE
  8
0
  6
CONTINUOUS
 62
     7
 10
131.71632
 20
-1300.0582
 11
131.71632
 21
-1303.3452
  0
LINE
  8
0
  6
CONTINUOUS
 62
     7
 10
129.31633
 20
-1285.0408
 11
129.31633
 21
-1291.3452
  0
LINE
  8
0
  6
CONTINUOUS
 62
     7
 10
131.71632
 20
-1285.0408
 11
131.71632
 21
-1291.3452
  0
LINE
  8
0
  6
CONTINUOUS
 62
     7
 10
-351.32571
 20
190.95847
 11
-351.32571
 21
-209.04153
  0
LINE
  8
0
  6
CONTINUOUS
 62
     7
 10
-925.32574
 20
190.95847
 11
-351.32571
 21
190.95847
  0
LINE
  8
0
  6
CONTINUOUS
 62
     7
 10
-925.32574
 20
190.95847
 11
-925.32574
 21
-209.04153
  0
LINE
  8
0
  6
CONTINUOUS
 62
     7
 10
-925.32574
 20
-209.04153
 11
-351.32571
 21
-209.04153
  0
LINE
  8
0
  6
CONTINUOUS
 62
     7
 10
-877.54095
 20
146.65091
 11
-877.54095
 21
105.84712
  0
LINE
  8
0
  6
CENTER
 62
     7
 10
-880.54095
 20
126.24902
 11
-828.04095
 21
126.24902
  0
LINE
  8
0
  6
CENTER
 62
     7
 10
-861.04095
 20
158.24901
 11
-861.04095
 21
94.249039
  0
LINE
  8
0
  6
CONTINUOUS
 62
     7
 10
-844.54095
 20
143.24902
 11
-844.54095
 21
146.65092
  0
LINE
  8
0
  6
CONTINUOUS
 62
     7
 10
-841.04095
 20
112.74902
 11
-839.63904
 21
112.74902
  0
LINE
  8
0
  6
CONTINUOUS
 62
     7
 10
-844.54095
 20
109.24902
 11
-844.54095
 21
105.84711
  0
LINE
  8
0
  6
CONTINUOUS
 62
     7
 10
-879.04095
 20
97.249039
 11
-843.04095
 21
97.249039
  0
LINE
  8
0
  6
CONTINUOUS
 62
     7
 10
-879.04095
 20
155.24901
 11
-843.04095
 21
155.24901
  0
LINE
  8
0
  6
CONTINUOUS
 62
     7
 10
-831.04095
 20
126.24902
 11
-831.04095
 21
111.24902
  0
LINE
  8
0
  6
CENTER
 62
     7
 10
-770.08197
 20
159.75787
 11
-770.08197
 21
89.757904
  0
LINE
  8
0
  6
CENTER
 62
     7
 10
-793.58197
 20
124.75789
 11
-734.08197
 21
124.75789
  0
LINE
  8
0
  6
CONTINUOUS
 62
     7
 10
-790.58197
 20
147.15981
 11
-790.58197
 21
102.35598
  0
LINE
  8
0
  6
CONTINUOUS
 62
     7
 10
-749.58197
 20
107.75789
 11
-749.58197
 21
102.35597
  0
LINE
  8
0
  6
CONTINUOUS
 62
     7
 10
-746.08197
 20
111.25789
 11
-745.68005
 21
111.25789
  0
LINE
  8
0
  6
CONTINUOUS
 62
     7
 10
-746.08197
 20
138.25789
 11
-745.68005
 21
138.25789
  0
LINE
  8
0
  6
CONTINUOUS
 62
     7
 10
-749.58197
 20
141.75789
 11
-749.58197
 21
147.15981
  0
LINE
  8
0
  6
CONTINUOUS
 62
     7
 10
-792.08197
 20
92.757904
 11
-748.08197
 21
92.757904
  0
LINE
  8
0
  6
CONTINUOUS
 62
     7
 10
-792.08197
 20
156.75787
 11
-748.08197
 21
156.75787
  0
LINE
  8
0
  6
CONTINUOUS
 62
     7
 10
-737.08197
 20
139.75789
 11
-737.08197
 21
109.75789
  0
LINE
  8
0
  6
CONTINUOUS
 62
     7
 10
-680.98389
 20
142.44972
 11
-680.98389
 21
93.645889
  0
LINE
  8
0
  6
CONTINUOUS
 62
     7
 10
-639.98389
 20
98.047798
 11
-639.98389
 21
93.645889
  0
LINE
  8
0
  6
CENTER
 62
     7
 10
-660.48389
 20
155.04779
 11
-660.48389
 21
81.047813
  0
LINE
  8
0
  6
CONTINUOUS
 62
     7
 10
-636.48389
 20
101.5478
 11
-634.08197
 21
101.5478
  0
LINE
  8
0
  6
CONTINUOUS
 62
     7
 10
-636.48389
 20
134.54781
 11
-634.08197
 21
134.54781
  0
LINE
  8
0
  6
CONTINUOUS
 62
     7
 10
-639.98389
 20
138.04781
 11
-639.98389
 21
142.44972
  0
LINE
  8
0
  6
CENTER
 62
     7
 10
-683.98389
 20
118.04781
 11
-622.48389
 21
118.04781
  0
LINE
  8
0
  6
CONTINUOUS
 62
     7
 10
-682.48389
 20
152.04779
 11
-638.48389
 21
152.04779
  0
LINE
  8
0
  6
CONTINUOUS
 62
     7
 10
-682.48389
 20
84.047813
 11
-638.48389
 21
84.047813
  0
LINE
  8
0
  6
CONTINUOUS
 62
     7
 10
-625.48389
 20
136.04781
 11
-625.48389
 21
100.04781
  0
LINE
  8
0
  6
CONTINUOUS
 62
     7
 10
-568.43018
 20
142.19528
 11
-568.43018
 21
95.391457
  0
LINE
  8
0
  6
CENTER
 62
     7
 10
-571.43018
 20
118.79337
 11
-502.43015
 21
118.79337
  0
LINE
  8
0
  6
CENTER
 62
     7
 10
-543.43018
 20
155.79335
 11
-543.43018
 21
81.793381
  0
LINE
  8
0
  6
CONTINUOUS
 62
     7
 10
-518.43018
 20
136.29337
 11
-518.43018
 21
142.19528
  0
LINE
  8
0
  6
CONTINUOUS
 62
     7
 10
-514.43018
 20
132.29337
 11
-514.02826
 21
132.29337
  0
LINE
  8
0
  6
CONTINUOUS
 62
     7
 10
-514.43018
 20
105.29337
 11
-514.02826
 21
105.29337
  0
LINE
  8
0
  6
CONTINUOUS
 62
     7
 10
-518.43018
 20
101.29337
 11
-518.43018
 21
95.391449
  0
LINE
  8
0
  6
CONTINUOUS
 62
     7
 10
-569.93018
 20
84.793381
 11
-516.93018
 21
84.793381
  0
LINE
  8
0
  6
CONTINUOUS
 62
     7
 10
-569.93018
 20
152.79335
 11
-516.93018
 21
152.79335
  0
LINE
  8
0
  6
CONTINUOUS
 62
     7
 10
-505.43015
 20
133.79337
 11
-505.43015
 21
103.79337
  0
LINE
  8
0
  6
CONTINUOUS
 62
     7
 10
-905.41486
 20
38.613285
 11
-905.41486
 21
-16.190531
  0
LINE
  8
0
  6
CONTINUOUS
 62
     7
 10
-855.41479
 20
-9.2886219
 11
-855.41479
 21
-16.19054
  0
LINE
  8
0
  6
CONTINUOUS
 62
     7
 10
-851.41479
 20
-5.2886219
 11
-849.01288
 21
-5.2886219
  0
LINE
  8
0
  6
CONTINUOUS
 62
     7
 10
-851.41479
 20
27.71138
 11
-849.01288
 21
27.71138
  0
LINE
  8
0
  6
CONTINUOUS
 62
     7
 10
-855.41479
 20
31.71138
 11
-855.41479
 21
38.613297
  0
LINE
  8
0
  6
CENTER
 62
     7
 10
-880.41479
 20
52.211365
 11
-880.41479
 21
-29.788607
  0
LINE
  8
0
  6
CENTER
 62
     7
 10
-908.41486
 20
11.211378
 11
-837.41479
 21
11.211378
  0
LINE
  8
0
  6
CONTINUOUS
 62
     7
 10
-906.91479
 20
49.211365
 11
-853.91479
 21
49.211365
  0
LINE
  8
0
  6
CONTINUOUS
 62
     7
 10
-906.91479
 20
-26.788607
 11
-853.91479
 21
-26.788607
  0
LINE
  8
0
  6
CONTINUOUS
 62
     7
 10
-840.41479
 20
29.211378
 11
-840.41479
 21
-6.7886224
  0
LINE
  8
0
  6
CONTINUOUS
 62
     7
 10
-823.78046
 20
38.869469
 11
-823.78046
 21
-19.934349
  0
LINE
  8
0
  6
CONTINUOUS
 62
     7
 10
-773.78046
 20
-15.032439
 11
-773.78046
 21
-19.934359
  0
LINE
  8
0
  6
CONTINUOUS
 62
     7
 10
-769.78046
 20
-11.032439
 11
-766.37854
 21
-11.032439
  0
LINE
  8
0
  6
CONTINUOUS
 62
     7
 10
-769.78046
 20
29.96756
 11
-766.37854
 21
29.96756
  0
LINE
  8
0
  6
CONTINUOUS
 62
     7
 10
-773.78046
 20
33.96756
 11
-773.78046
 21
38.869476
  0
LINE
  8
0
  6
CENTER
 62
     7
 10
-826.78046
 20
9.4675598
 11
-753.78046
 21
9.4675598
  0
LINE
  8
0
  6
CENTER
 62
     7
 10
-798.78046
 20
52.467545
 11
-798.78046
 21
-33.532425
  0
LINE
  8
0
  6
CONTINUOUS
 62
     7
 10
-825.28046
 20
49.467545
 11
-772.28046
 21
49.467545
  0
LINE
  8
0
  6
CONTINUOUS
 62
     7
 10
-825.28046
 20
-30.532425
 11
-772.28046
 21
-30.532425
  0
LINE
  8
0
  6
CONTINUOUS
 62
     7
 10
-756.78046
 20
31.46756
 11
-756.78046
 21
-12.53244
  0
LINE
  8
0
  6
CONTINUOUS
 62
     7
 10
-737.75208
 20
36.65361
 11
-737.75208
 21
-8.4181242
  0
LINE
  8
0
  6
CONTINUOUS
 62
     7
 10
-681.75214
 20
-3.3822589
 11
-681.75214
 21
-8.4181528
  0
LINE
  8
0
  6
CONTINUOUS
 62
     7
 10
-677.75214
 20
0.61774117
 11
-676.35022
 21
0.61774117
  0
LINE
  8
0
  6
CONTINUOUS
 62
     7
 10
-677.75214
 20
27.617741
 11
-676.35022
 21
27.617741
  0
LINE
  8
0
  6
CONTINUOUS
 62
     7
 10
-681.75214
 20
31.617741
 11
-681.75214
 21
36.653637
  0
LINE
  8
0
  6
CENTER
 62
     7
 10
-740.75208
 20
14.117743
 11
-664.75214
 21
14.117743
  0
LINE
  8
0
  6
CENTER
 62
     7
 10
-709.75214
 20
52.117725
 11
-709.75214
 21
-23.882244
  0
LINE
  8
0
  6
CONTINUOUS
 62
     7
 10
-739.75214
 20
-20.882244
 11
-679.75214
 21
-20.882244
  0
LINE
  8
0
  6
CONTINUOUS
 62
     7
 10
-739.75214
 20
49.117725
 11
-679.75214
 21
49.117725
  0
LINE
  8
0
  6
CONTINUOUS
 62
     7
 10
-667.75214
 20
29.117743
 11
-667.75214
 21
-0.88225788
  0
LINE
  8
0
  6
CONTINUOUS
 62
     7
 10
-647.97992
 20
36.747242
 11
-647.97992
 21
-14.324488
  0
LINE
  8
0
  6
CENTER
 62
     7
 10
-619.97998
 20
52.211365
 11
-619.97998
 21
-29.788607
  0
LINE
  8
0
  6
CONTINUOUS
 62
     7
 10
-591.97992
 20
-10.288622
 11
-591.97992
 21
-14.324518
  0
LINE
  8
0
  6
CONTINUOUS
 62
     7
 10
-586.97992
 20
-5.2886219
 11
-585.57806
 21
-5.2886219
  0
LINE
  8
0
  6
CONTINUOUS
 62
     7
 10
-586.97992
 20
27.71138
 11
-585.57806
 21
27.71138
  0
LINE
  8
0
  6
CONTINUOUS
 62
     7
 10
-591.97992
 20
32.71138
 11
-591.97992
 21
36.747272
  0
LINE
  8
0
  6
CENTER
 62
     7
 10
-650.97992
 20
11.211378
 11
-573.97998
 21
11.211378
  0
LINE
  8
0
  6
CONTINUOUS
 62
     7
 10
-649.97998
 20
49.211365
 11
-589.97998
 21
49.211365
  0
LINE
  8
0
  6
CONTINUOUS
 62
     7
 10
-649.97998
 20
-26.788607
 11
-589.97998
 21
-26.788607
  0
LINE
  8
0
  6
CONTINUOUS
 62
     7
 10
-576.97998
 20
29.211378
 11
-576.97998
 21
-6.7886224
  0
LINE
  8
0
  6
CONTINUOUS
 62
     7
 10
-557.23248
 20
36.840881
 11
-557.23248
 21
-20.23085
  0
LINE
  8
0
  6
CONTINUOUS
 62
     7
 10
-501.23248
 20
-17.194984
 11
-501.23248
 21
-20.230886
  0
LINE
  8
0
  6
CONTINUOUS
 62
     7
 10
-496.23248
 20
-12.194984
 11
-493.8306
 21
-12.194984
  0
LINE
  8
0
  6
CONTINUOUS
 62
     7
 10
-496.23248
 20
28.805016
 11
-493.8306
 21
28.805016
  0
LINE
  8
0
  6
CONTINUOUS
 62
     7
 10
-501.23248
 20
33.805016
 11
-501.23248
 21
36.840916
  0
LINE
  8
0
  6
CENTER
 62
     7
 10
-560.23248
 20
8.3050156
 11
-481.23251
 21
8.3050156
  0
LINE
  8
0
  6
CENTER
 62
     7
 10
-529.23254
 20
52.305
 11
-529.23254
 21
-35.694969
  0
LINE
  8
0
  6
CONTINUOUS
 62
     7
 10
-559.23254
 20
-32.694969
 11
-499.23251
 21
-32.694969
  0
LINE
  8
0
  6
CONTINUOUS
 62
     7
 10
-559.23254
 20
49.305
 11
-499.23251
 21
49.305
  0
LINE
  8
0
  6
CONTINUOUS
 62
     7
 10
-484.23251
 20
30.305016
 11
-484.23251
 21
-13.694984
  0
LINE
  8
0
  6
CONTINUOUS
 62
     7
 10
-459.79068
 20
36.771973
 11
-459.79068
 21
-28.299759
  0
LINE
  8
0
  6
CONTINUOUS
 62
     7
 10
-403.79071
 20
-25.763893
 11
-403.79071
 21
-28.299786
  0
LINE
  8
0
  6
CONTINUOUS
 62
     7
 10
-398.79071
 20
-20.763893
 11
-394.38879
 21
-20.763893
  0
LINE
  8
0
  6
CONTINUOUS
 62
     7
 10
-398.79071
 20
29.236107
 11
-394.38879
 21
29.236107
  0
LINE
  8
0
  6
CONTINUOUS
 62
     7
 10
-403.79071
 20
34.236107
 11
-403.79071
 21
36.771999
  0
LINE
  8
0
  6
CENTER
 62
     7
 10
-431.79071
 20
52.236092
 11
-431.79071
 21
-43.763878
  0
LINE
  8
0
  6
CENTER
 62
     7
 10
-462.79068
 20
4.2361064
 11
-380.79071
 21
4.2361064
  0
LINE
  8
0
  6
CONTINUOUS
 62
     7
 10
-461.79071
 20
49.236092
 11
-401.79071
 21
49.236092
  0
LINE
  8
0
  6
CONTINUOUS
 62
     7
 10
-461.79071
 20
-40.763878
 11
-401.79071
 21
-40.763878
  0
LINE
  8
0
  6
CONTINUOUS
 62
     7
 10
-383.79071
 20
30.736107
 11
-383.79071
 21
-22.263893
  0
LINE
  8
0
  6
CONTINUOUS
 62
     7
 10
-900.61444
 20
-101.85181
 11
-900.61444
 21
-148.92357
  0
LINE
  8
0
  6
CONTINUOUS
 62
     7
 10
-831.61444
 20
-143.8877
 11
-831.61444
 21
-148.92358
  0
LINE
  8
0
  6
CONTINUOUS
 62
     7
 10
-826.71252
 20
-138.8877
 11
-826.61444
 21
-138.8877
  0
LINE
  8
0
  6
CONTINUOUS
 62
     7
 10
-826.71252
 20
-111.88769
 11
-826.61444
 21
-111.88769
  0
LINE
  8
0
  6
CONTINUOUS
 62
     7
 10
-831.61444
 20
-106.88769
 11
-831.61444
 21
-101.8518
  0
LINE
  8
0
  6
CENTER
 62
     7
 10
-866.11444
 20
-84.387703
 11
-866.11444
 21
-166.38768
  0
LINE
  8
0
  6
CENTER
 62
     7
 10
-903.61444
 20
-125.38769
 11
-815.11444
 21
-125.38769
  0
LINE
  8
0
  6
CONTINUOUS
 62
     7
 10
-902.61444
 20
-87.387703
 11
-829.61444
 21
-87.387703
  0
LINE
  8
0
  6
CONTINUOUS
 62
     7
 10
-902.61444
 20
-163.38768
 11
-829.61444
 21
-163.38768
  0
LINE
  8
0
  6
CONTINUOUS
 62
     7
 10
-818.11444
 20
-110.38769
 11
-818.11444
 21
-140.3877
  0
LINE
  8
0
  6
CONTINUOUS
 62
     7
 10
-800.05426
 20
-101.75819
 11
-800.05426
 21
-154.82991
  0
LINE
  8
0
  6
CONTINUOUS
 62
     7
 10
-731.05426
 20
-150.79405
 11
-731.05426
 21
-154.82994
  0
LINE
  8
0
  6
CONTINUOUS
 62
     7
 10
-725.1524
 20
-144.79405
 11
-725.05426
 21
-144.79405
  0
LINE
  8
0
  6
CONTINUOUS
 62
     7
 10
-725.1524
 20
-111.79405
 11
-725.05426
 21
-111.79405
  0
LINE
  8
0
  6
CONTINUOUS
 62
     7
 10
-731.05426
 20
-105.79405
 11
-731.05426
 21
-101.75816
  0
LINE
  8
0
  6
CENTER
 62
     7
 10
-765.55432
 20
-84.294067
 11
-765.55432
 21
-172.29404
  0
LINE
  8
0
  6
CENTER
 62
     7
 10
-803.05426
 20
-128.29405
 11
-713.55432
 21
-128.29405
  0
LINE
  8
0
  6
CONTINUOUS
 62
     7
 10
-716.55432
 20
-110.29405
 11
-716.55432
 21
-146.29405
  0
LINE
  8
0
  6
CONTINUOUS
 62
     7
 10
-802.05432
 20
-169.29404
 11
-729.05432
 21
-169.29404
  0
LINE
  8
0
  6
CONTINUOUS
 62
     7
 10
-802.05432
 20
-87.294067
 11
-729.05432
 21
-87.294067
  0
LINE
  8
0
  6
CONTINUOUS
 62
     7
 10
-694.2627
 20
-101.66454
 11
-694.2627
 21
-160.7363
  0
LINE
  8
0
  6
CONTINUOUS
 62
     7
 10
-625.2627
 20
-157.70042
 11
-625.2627
 21
-160.7363
  0
LINE
  8
0
  6
CONTINUOUS
 62
     7
 10
-619.2627
 20
-151.70042
 11
-618.36078
 21
-151.70042
  0
LINE
  8
0
  6
CONTINUOUS
 62
     7
 10
-619.2627
 20
-110.70042
 11
-618.36078
 21
-110.70042
  0
LINE
  8
0
  6
CONTINUOUS
 62
     7
 10
-625.2627
 20
-104.70042
 11
-625.2627
 21
-101.66453
  0
LINE
  8
0
  6
CENTER
 62
     7
 10
-659.7627
 20
-84.200424
 11
-659.7627
 21
-178.20041
  0
LINE
  8
0
  6
CENTER
 62
     7
 10
-697.2627
 20
-131.20042
 11
-605.7627
 21
-131.20042
  0
LINE
  8
0
  6
CONTINUOUS
 62
     7
 10
-696.2627
 20
-87.200424
 11
-623.2627
 21
-87.200424
  0
LINE
  8
0
  6
CONTINUOUS
 62
     7
 10
-696.2627
 20
-175.20041
 11
-623.2627
 21
-175.20041
  0
LINE
  8
0
  6
CONTINUOUS
 62
     7
 10
-608.7627
 20
-109.20042
 11
-608.7627
 21
-153.20042
  0
LINE
  8
0
  6
CENTER
 62
     7
 10
-549.32086
 20
-84.269302
 11
-549.32086
 21
-186.26935
  0
LINE
  8
0
  6
CONTINUOUS
 62
     7
 10
-583.82086
 20
-168.80524
 11
-583.82086
 21
-101.73341
  0
LINE
  8
0
  6
CENTER
 62
     7
 10
-492.32086
 20
-135.26933
 11
-586.82086
 21
-135.26933
  0
LINE
  8
0
  6
CONTINUOUS
 62
     7
 10
-514.82086
 20
-166.26933
 11
-514.82086
 21
-168.80524
  0
LINE
  8
0
  6
CONTINUOUS
 62
     7
 10
-508.82089
 20
-160.26933
 11
-505.91895
 21
-160.26933
  0
LINE
  8
0
  6
CONTINUOUS
 62
     7
 10
-508.82089
 20
-110.26933
 11
-505.91895
 21
-110.26933
  0
LINE
  8
0
  6
CONTINUOUS
 62
     7
 10
-514.82086
 20
-104.26933
 11
-514.82086
 21
-101.73341
  0
LINE
  8
0
  6
CONTINUOUS
 62
     7
 10
-512.82086
 20
-87.269302
 11
-585.82086
 21
-87.269302
  0
LINE
  8
0
  6
CONTINUOUS
 62
     7
 10
-512.82086
 20
-183.26935
 11
-585.82086
 21
-183.26935
  0
LINE
  8
0
  6
CONTINUOUS
 62
     7
 10
-495.32086
 20
-108.76933
 11
-495.32086
 21
-161.76933
  0
LINE
  8
0
  6
CONTINUOUS
 62
     7
 10
-470.76337
 20
-176.87411
 11
-470.76337
 21
-101.80235
  0
LINE
  8
0
  6
CONTINUOUS
 62
     7
 10
-401.76337
 20
-173.33826
 11
-401.76337
 21
-176.87411
  0
LINE
  8
0
  6
CONTINUOUS
 62
     7
 10
-395.76337
 20
-167.33826
 11
-393.72745
 21
-167.33826
  0
LINE
  8
0
  6
CONTINUOUS
 62
     7
 10
-395.76337
 20
-111.33829
 11
-393.72745
 21
-111.33829
  0
LINE
  8
0
  6
CONTINUOUS
 62
     7
 10
-401.76337
 20
-105.33829
 11
-401.76337
 21
-101.80235
  0
LINE
  8
0
  6
CENTER
 62
     7
 10
-436.26337
 20
-84.338234
 11
-436.26337
 21
-194.33823
  0
LINE
  8
0
  6
CENTER
 62
     7
 10
-378.26334
 20
-139.33824
 11
-473.76337
 21
-139.33824
  0
LINE
  8
0
  6
CONTINUOUS
 62
     7
 10
-399.76337
 20
-87.338234
 11
-472.76337
 21
-87.338234
  0
LINE
  8
0
  6
CONTINUOUS
 62
     7
 10
-399.76337
 20
-191.33823
 11
-472.76337
 21
-191.33823
  0
LINE
  8
0
  6
CONTINUOUS
 62
     7
 10
-381.26334
 20
-109.33823
 11
-381.26334
 21
-169.33824
  0
LINE
  8
0
  6
CONTINUOUS
 62
     7
 10
-865.54095
 20
126.69901
 11
-864.30835
 21
126.69901
  0
LINE
  8
0
  6
CONTINUOUS
 62
     7
 10
-865.54095
 20
125.79902
 11
-864.30835
 21
125.79902
  0
LINE
  8
0
  6
CONTINUOUS
 62
     7
 10
-857.77356
 20
125.79902
 11
-856.54095
 21
125.79902
  0
LINE
  8
0
  6
CONTINUOUS
 62
     7
 10
-857.77356
 20
126.69901
 11
-856.54095
 21
126.69901
  0
LINE
  8
0
  6
CONTINUOUS
 62
     7
 10
-863.40509
 20
125.79902
 11
-861.04095
 21
125.79902
  0
LINE
  8
0
  6
CONTINUOUS
 62
     7
 10
-863.40509
 20
126.69901
 11
-861.04095
 21
126.69901
  0
LINE
  8
0
  6
CONTINUOUS
 62
     7
 10
-776.08197
 20
125.35789
 11
-774.43854
 21
125.35789
  0
LINE
  8
0
  6
CONTINUOUS
 62
     7
 10
-776.08197
 20
124.15788
 11
-774.43854
 21
124.15788
  0
LINE
  8
0
  6
CONTINUOUS
 62
     7
 10
-765.72546
 20
124.15788
 11
-764.08197
 21
124.15788
  0
LINE
  8
0
  6
CONTINUOUS
 62
     7
 10
-765.72546
 20
125.35789
 11
-764.08197
 21
125.35789
  0
LINE
  8
0
  6
CONTINUOUS
 62
     7
 10
-773.23419
 20
124.15788
 11
-770.08197
 21
124.15788
  0
LINE
  8
0
  6
CONTINUOUS
 62
     7
 10
-773.23419
 20
125.35789
 11
-770.08197
 21
125.35789
  0
LINE
  8
0
  6
CONTINUOUS
 62
     7
 10
-666.48389
 20
118.6478
 11
-664.84045
 21
118.6478
  0
LINE
  8
0
  6
CONTINUOUS
 62
     7
 10
-666.48389
 20
117.44781
 11
-664.84045
 21
117.44781
  0
LINE
  8
0
  6
CONTINUOUS
 62
     7
 10
-656.12738
 20
117.44781
 11
-654.48389
 21
117.44781
  0
LINE
  8
0
  6
CONTINUOUS
 62
     7
 10
-656.12738
 20
118.6478
 11
-654.48389
 21
118.6478
  0
LINE
  8
0
  6
CONTINUOUS
 62
     7
 10
-663.63611
 20
117.44781
 11
-660.48389
 21
117.44781
  0
LINE
  8
0
  6
CONTINUOUS
 62
     7
 10
-663.63611
 20
118.6478
 11
-660.48389
 21
118.6478
  0
LINE
  8
0
  6
CONTINUOUS
 62
     7
 10
-549.43018
 20
119.39336
 11
-547.78668
 21
119.39336
  0
LINE
  8
0
  6
CONTINUOUS
 62
     7
 10
-549.43018
 20
118.19337
 11
-547.78668
 21
118.19337
  0
LINE
  8
0
  6
CONTINUOUS
 62
     7
 10
-539.07361
 20
118.19337
 11
-537.43018
 21
118.19337
  0
LINE
  8
0
  6
CONTINUOUS
 62
     7
 10
-539.07361
 20
119.39336
 11
-537.43018
 21
119.39336
  0
LINE
  8
0
  6
CONTINUOUS
 62
     7
 10
-546.58234
 20
118.19337
 11
-543.43018
 21
118.19337
  0
LINE
  8
0
  6
CONTINUOUS
 62
     7
 10
-546.58234
 20
119.39336
 11
-543.43018
 21
119.39336
  0
LINE
  8
0
  6
CONTINUOUS
 62
     7
 10
-886.41479
 20
11.811378
 11
-884.77136
 21
11.811378
  0
LINE
  8
0
  6
CONTINUOUS
 62
     7
 10
-886.41479
 20
10.611378
 11
-884.77136
 21
10.611378
  0
LINE
  8
0
  6
CONTINUOUS
 62
     7
 10
-876.05829
 20
10.611378
 11
-874.41479
 21
10.611378
  0
LINE
  8
0
  6
CONTINUOUS
 62
     7
 10
-876.05829
 20
11.811378
 11
-874.41479
 21
11.811378
  0
LINE
  8
0
  6
CONTINUOUS
 62
     7
 10
-883.56702
 20
10.611378
 11
-880.41479
 21
10.611378
  0
LINE
  8
0
  6
CONTINUOUS
 62
     7
 10
-883.56702
 20
11.811378
 11
-880.41479
 21
11.811378
  0
LINE
  8
0
  6
CONTINUOUS
 62
     7
 10
-804.78046
 20
10.06756
 11
-803.13702
 21
10.06756
  0
LINE
  8
0
  6
CONTINUOUS
 62
     7
 10
-804.78046
 20
8.8675594
 11
-803.13702
 21
8.8675594
  0
LINE
  8
0
  6
CONTINUOUS
 62
     7
 10
-794.42395
 20
8.8675594
 11
-792.78046
 21
8.8675594
  0
LINE
  8
0
  6
CONTINUOUS
 62
     7
 10
-794.42395
 20
10.06756
 11
-792.78046
 21
10.06756
  0
LINE
  8
0
  6
CONTINUOUS
 62
     7
 10
-801.93268
 20
8.8675594
 11
-798.78046
 21
8.8675594
  0
LINE
  8
0
  6
CONTINUOUS
 62
     7
 10
-801.93268
 20
10.06756
 11
-798.78046
 21
10.06756
  0
LINE
  8
0
  6
CONTINUOUS
 62
     7
 10
-715.75214
 20
14.717743
 11
-714.10864
 21
14.717743
  0
LINE
  8
0
  6
CONTINUOUS
 62
     7
 10
-715.75214
 20
13.517742
 11
-714.10864
 21
13.517742
  0
LINE
  8
0
  6
CONTINUOUS
 62
     7
 10
-705.39557
 20
13.517742
 11
-703.75214
 21
13.517742
  0
LINE
  8
0
  6
CONTINUOUS
 62
     7
 10
-705.39557
 20
14.717743
 11
-703.75214
 21
14.717743
  0
LINE
  8
0
  6
CONTINUOUS
 62
     7
 10
-712.9043
 20
13.517742
 11
-709.75214
 21
13.517742
  0
LINE
  8
0
  6
CONTINUOUS
 62
     7
 10
-712.9043
 20
14.717743
 11
-709.75214
 21
14.717743
  0
LINE
  8
0
  6
CONTINUOUS
 62
     7
 10
-625.97998
 20
11.811378
 11
-624.33649
 21
11.811378
  0
LINE
  8
0
  6
CONTINUOUS
 62
     7
 10
-625.97998
 20
10.611378
 11
-624.33649
 21
10.611378
  0
LINE
  8
0
  6
CONTINUOUS
 62
     7
 10
-615.62341
 20
10.611378
 11
-613.97998
 21
10.611378
  0
LINE
  8
0
  6
CONTINUOUS
 62
     7
 10
-615.62341
 20
11.811378
 11
-613.97998
 21
11.811378
  0
LINE
  8
0
  6
CONTINUOUS
 62
     7
 10
-623.13214
 20
10.611378
 11
-619.97998
 21
10.611378
  0
LINE
  8
0
  6
CONTINUOUS
 62
     7
 10
-623.13214
 20
11.811378
 11
-619.97998
 21
11.811378
  0
LINE
  8
0
  6
CONTINUOUS
 62
     7
 10
-535.23254
 20
8.9050159
 11
-533.58905
 21
8.9050159
  0
LINE
  8
0
  6
CONTINUOUS
 62
     7
 10
-535.23254
 20
7.7050147
 11
-533.58905
 21
7.7050147
  0
LINE
  8
0
  6
CONTINUOUS
 62
     7
 10
-524.87598
 20
7.7050147
 11
-523.23254
 21
7.7050147
  0
LINE
  8
0
  6
CONTINUOUS
 62
     7
 10
-524.87598
 20
8.9050159
 11
-523.23254
 21
8.9050159
  0
LINE
  8
0
  6
CONTINUOUS
 62
     7
 10
-532.3847
 20
7.7050147
 11
-529.23254
 21
7.7050147
  0
LINE
  8
0
  6
CONTINUOUS
 62
     7
 10
-532.3847
 20
8.9050159
 11
-529.23254
 21
8.9050159
  0
LINE
  8
0
  6
CONTINUOUS
 62
     7
 10
-437.79071
 20
4.8361068
 11
-436.14725
 21
4.8361068
  0
LINE
  8
0
  6
CONTINUOUS
 62
     7
 10
-437.79071
 20
3.636106
 11
-436.14725
 21
3.636106
  0
LINE
  8
0
  6
CONTINUOUS
 62
     7
 10
-427.43417
 20
3.636106
 11
-425.79071
 21
3.636106
  0
LINE
  8
0
  6
CONTINUOUS
 62
     7
 10
-427.43417
 20
4.8361068
 11
-425.79071
 21
4.8361068
  0
LINE
  8
0
  6
CONTINUOUS
 62
     7
 10
-434.9429
 20
3.636106
 11
-431.79071
 21
3.636106
  0
LINE
  8
0
  6
CONTINUOUS
 62
     7
 10
-434.9429
 20
4.8361068
 11
-431.79071
 21
4.8361068
  0
LINE
  8
0
  6
CONTINUOUS
 62
     7
 10
-873.61444
 20
-124.63769
 11
-871.56012
 21
-124.63769
  0
LINE
  8
0
  6
CONTINUOUS
 62
     7
 10
-873.61444
 20
-126.13769
 11
-871.56012
 21
-126.13769
  0
LINE
  8
0
  6
CONTINUOUS
 62
     7
 10
-860.66882
 20
-126.13769
 11
-858.61444
 21
-126.13769
  0
LINE
  8
0
  6
CONTINUOUS
 62
     7
 10
-860.66882
 20
-124.63769
 11
-858.61444
 21
-124.63769
  0
LINE
  8
0
  6
CONTINUOUS
 62
     7
 10
-870.05469
 20
-126.13769
 11
-866.11444
 21
-126.13769
  0
LINE
  8
0
  6
CONTINUOUS
 62
     7
 10
-870.05469
 20
-124.63769
 11
-866.11444
 21
-124.63769
  0
LINE
  8
0
  6
CONTINUOUS
 62
     7
 10
-773.05432
 20
-127.54405
 11
-770.99994
 21
-127.54405
  0
LINE
  8
0
  6
CONTINUOUS
 62
     7
 10
-773.05432
 20
-129.04405
 11
-770.99994
 21
-129.04405
  0
LINE
  8
0
  6
CONTINUOUS
 62
     7
 10
-760.10864
 20
-129.04405
 11
-758.05432
 21
-129.04405
  0
LINE
  8
0
  6
CONTINUOUS
 62
     7
 10
-760.10864
 20
-127.54405
 11
-758.05432
 21
-127.54405
  0
LINE
  8
0
  6
CONTINUOUS
 62
     7
 10
-769.49451
 20
-129.04405
 11
-765.55432
 21
-129.04405
  0
LINE
  8
0
  6
CONTINUOUS
 62
     7
 10
-769.49451
 20
-127.54405
 11
-765.55432
 21
-127.54405
  0
LINE
  8
0
  6
CONTINUOUS
 62
     7
 10
-667.2627
 20
-130.45042
 11
-665.20837
 21
-130.45042
  0
LINE
  8
0
  6
CONTINUOUS
 62
     7
 10
-667.2627
 20
-131.95042
 11
-665.20837
 21
-131.95042
  0
LINE
  8
0
  6
CONTINUOUS
 62
     7
 10
-654.31702
 20
-131.95042
 11
-652.2627
 21
-131.95042
  0
LINE
  8
0
  6
CONTINUOUS
 62
     7
 10
-654.31702
 20
-130.45042
 11
-652.2627
 21
-130.45042
  0
LINE
  8
0
  6
CONTINUOUS
 62
     7
 10
-663.70288
 20
-131.95042
 11
-659.7627
 21
-131.95042
  0
LINE
  8
0
  6
CONTINUOUS
 62
     7
 10
-663.70288
 20
-130.45042
 11
-659.7627
 21
-130.45042
  0
LINE
  8
0
  6
CONTINUOUS
 62
     7
 10
-556.82086
 20
-134.51933
 11
-554.76654
 21
-134.51933
  0
LINE
  8
0
  6
CONTINUOUS
 62
     7
 10
-556.82086
 20
-136.01933
 11
-554.76654
 21
-136.01933
  0
LINE
  8
0
  6
CONTINUOUS
 62
     7
 10
-543.87524
 20
-136.01933
 11
-541.82086
 21
-136.01933
  0
LINE
  8
0
  6
CONTINUOUS
 62
     7
 10
-543.87518
 20
-134.51933
 11
-541.82086
 21
-134.51933
  0
LINE
  8
0
  6
CONTINUOUS
 62
     7
 10
-553.26111
 20
-136.01933
 11
-549.32086
 21
-136.01933
  0
LINE
  8
0
  6
CONTINUOUS
 62
     7
 10
-553.26111
 20
-134.51933
 11
-549.32086
 21
-134.51933
  0
LINE
  8
0
  6
CONTINUOUS
 62
     7
 10
-443.76337
 20
-138.58824
 11
-441.70901
 21
-138.58824
  0
LINE
  8
0
  6
CONTINUOUS
 62
     7
 10
-443.76337
 20
-140.08824
 11
-441.70901
 21
-140.08824
  0
LINE
  8
0
  6
CONTINUOUS
 62
     7
 10
-430.81769
 20
-140.08824
 11
-428.76337
 21
-140.08824
  0
LINE
  8
0
  6
CONTINUOUS
 62
     7
 10
-430.81769
 20
-138.58824
 11
-428.76337
 21
-138.58824
  0
LINE
  8
0
  6
CONTINUOUS
 62
     7
 10
-440.20358
 20
-140.08824
 11
-436.26337
 21
-140.08824
  0
LINE
  8
0
  6
CONTINUOUS
 62
     7
 10
-440.20358
 20
-138.58824
 11
-436.26337
 21
-138.58824
  0
LINE
  8
0
  6
CONTINUOUS
 62
     7
 10
-843.04095
 20
103.24904
 11
-843.04095
 21
97.249039
  0
LINE
  8
0
  6
CONTINUOUS
 62
     7
 10
-879.04095
 20
103.24904
 11
-879.04095
 21
97.249039
  0
LINE
  8
0
  6
CONTINUOUS
 62
     7
 10
-879.04095
 20
103.24904
 11
-843.04095
 21
103.24904
  0
LINE
  8
0
  6
CONTINUOUS
 62
     7
 10
-837.04095
 20
126.24902
 11
-837.04095
 21
111.24902
  0
LINE
  8
0
  6
CONTINUOUS
 62
     7
 10
-837.04095
 20
111.24902
 11
-831.04095
 21
111.24902
  0
LINE
  8
0
  6
CONTINUOUS
 62
     7
 10
-879.04095
 20
149.24899
 11
-843.04095
 21
149.24899
  0
LINE
  8
0
  6
CONTINUOUS
 62
     7
 10
-843.04095
 20
149.24899
 11
-843.04095
 21
155.24899
  0
LINE
  8
0
  6
CONTINUOUS
 62
     7
 10
-879.04095
 20
149.24899
 11
-879.04095
 21
155.24899
  0
LINE
  8
0
  6
CONTINUOUS
 62
     7
 10
-841.04095
 20
139.74901
 11
-839.63904
 21
139.74901
  0
LINE
  8
0
  6
CONTINUOUS
 62
     7
 10
-837.04095
 20
126.24902
 11
-837.04095
 21
141.24902
  0
LINE
  8
0
  6
CONTINUOUS
 62
     7
 10
-831.04095
 20
126.24902
 11
-831.04095
 21
141.24902
  0
LINE
  8
0
  6
CONTINUOUS
 62
     7
 10
-837.04095
 20
141.24902
 11
-831.04095
 21
141.24902
  0
LINE
  8
0
  6
CONTINUOUS
 62
     7
 10
-743.08197
 20
139.75789
 11
-743.08197
 21
109.75789
  0
LINE
  8
0
  6
CONTINUOUS
 62
     7
 10
-743.08197
 20
109.75789
 11
-737.08197
 21
109.75789
  0
LINE
  8
0
  6
CONTINUOUS
 62
     7
 10
-792.08197
 20
99.757904
 11
-792.08197
 21
92.757904
  0
LINE
  8
0
  6
CONTINUOUS
 62
     7
 10
-748.08197
 20
99.757904
 11
-748.08197
 21
92.757904
  0
LINE
  8
0
  6
CONTINUOUS
 62
     7
 10
-792.08197
 20
99.757904
 11
-748.08197
 21
99.757904
  0
LINE
  8
0
  6
CONTINUOUS
 62
     7
 10
-792.08197
 20
149.75787
 11
-792.08197
 21
156.75787
  0
LINE
  8
0
  6
CONTINUOUS
 62
     7
 10
-792.08197
 20
149.75787
 11
-748.08197
 21
149.75787
  0
LINE
  8
0
  6
CONTINUOUS
 62
     7
 10
-748.08197
 20
149.75787
 11
-748.08197
 21
156.75787
  0
LINE
  8
0
  6
CONTINUOUS
 62
     7
 10
-743.08197
 20
139.75789
 11
-737.08197
 21
139.75789
  0
LINE
  8
0
  6
CONTINUOUS
 62
     7
 10
-638.48389
 20
91.047813
 11
-638.48389
 21
84.047813
  0
LINE
  8
0
  6
CONTINUOUS
 62
     7
 10
-682.48389
 20
91.047813
 11
-682.48389
 21
84.047813
  0
LINE
  8
0
  6
CONTINUOUS
 62
     7
 10
-682.48389
 20
91.047813
 11
-638.48389
 21
91.047813
  0
LINE
  8
0
  6
CONTINUOUS
 62
     7
 10
-631.48389
 20
136.04781
 11
-631.48389
 21
100.04781
  0
LINE
  8
0
  6
CONTINUOUS
 62
     7
 10
-631.48389
 20
100.04781
 11
-625.48389
 21
100.04781
  0
LINE
  8
0
  6
CONTINUOUS
 62
     7
 10
-682.48389
 20
145.04779
 11
-638.48389
 21
145.04779
  0
LINE
  8
0
  6
CONTINUOUS
 62
     7
 10
-682.48389
 20
145.04779
 11
-682.48389
 21
152.04779
  0
LINE
  8
0
  6
CONTINUOUS
 62
     7
 10
-638.48389
 20
145.04779
 11
-638.48389
 21
152.04779
  0
LINE
  8
0
  6
CONTINUOUS
 62
     7
 10
-631.48389
 20
136.04781
 11
-625.48389
 21
136.04781
  0
LINE
  8
0
  6
CONTINUOUS
 62
     7
 10
-511.43015
 20
133.79337
 11
-511.43015
 21
103.79337
  0
LINE
  8
0
  6
CONTINUOUS
 62
     7
 10
-511.43015
 20
103.79337
 11
-505.43015
 21
103.79337
  0
LINE
  8
0
  6
CONTINUOUS
 62
     7
 10
-772.28046
 20
-22.532425
 11
-772.28046
 21
-30.532425
  0
LINE
  8
0
  6
CONTINUOUS
 62
     7
 10
-825.28046
 20
-22.532425
 11
-825.28046
 21
-30.532425
  0
LINE
  8
0
  6
CONTINUOUS
 62
     7
 10
-825.28046
 20
-22.532425
 11
-772.28046
 21
-22.532425
  0
LINE
  8
0
  6
CONTINUOUS
 62
     7
 10
-569.93018
 20
144.79335
 11
-516.93018
 21
144.79335
  0
LINE
  8
0
  6
CONTINUOUS
 62
     7
 10
-569.93018
 20
144.79335
 11
-569.93018
 21
152.79335
  0
LINE
  8
0
  6
CONTINUOUS
 62
     7
 10
-516.93018
 20
144.79335
 11
-516.93018
 21
152.79335
  0
LINE
  8
0
  6
CONTINUOUS
 62
     7
 10
-511.43015
 20
133.79337
 11
-505.43015
 21
133.79337
  0
LINE
  8
0
  6
CONTINUOUS
 62
     7
 10
-569.93018
 20
92.793381
 11
-516.93018
 21
92.793381
  0
LINE
  8
0
  6
CONTINUOUS
 62
     7
 10
-516.93018
 20
92.793381
 11
-516.93018
 21
84.793381
  0
LINE
  8
0
  6
CONTINUOUS
 62
     7
 10
-569.93018
 20
92.793381
 11
-569.93018
 21
84.793381
  0
LINE
  8
0
  6
CONTINUOUS
 62
     7
 10
-906.91479
 20
-18.788607
 11
-853.91479
 21
-18.788607
  0
LINE
  8
0
  6
CONTINUOUS
 62
     7
 10
-853.91479
 20
-18.788607
 11
-853.91479
 21
-26.788607
  0
LINE
  8
0
  6
CONTINUOUS
 62
     7
 10
-906.91479
 20
-18.788607
 11
-906.91479
 21
-26.788607
  0
LINE
  8
0
  6
CONTINUOUS
 62
     7
 10
-906.91479
 20
41.211361
 11
-853.91479
 21
41.211361
  0
LINE
  8
0
  6
CONTINUOUS
 62
     7
 10
-906.91479
 20
41.211361
 11
-906.91479
 21
49.211361
  0
LINE
  8
0
  6
CONTINUOUS
 62
     7
 10
-853.91479
 20
41.211361
 11
-853.91479
 21
49.211361
  0
LINE
  8
0
  6
CONTINUOUS
 62
     7
 10
-846.41479
 20
29.211378
 11
-846.41479
 21
-6.7886224
  0
LINE
  8
0
  6
CONTINUOUS
 62
     7
 10
-846.41479
 20
-6.7886224
 11
-840.41479
 21
-6.7886224
  0
LINE
  8
0
  6
CONTINUOUS
 62
     7
 10
-846.41479
 20
29.211378
 11
-840.41479
 21
29.211378
  0
LINE
  8
0
  6
CONTINUOUS
 62
     7
 10
-763.78046
 20
-12.53244
 11
-756.78046
 21
-12.53244
  0
LINE
  8
0
  6
CONTINUOUS
 62
     7
 10
-763.78046
 20
31.46756
 11
-763.78046
 21
-12.53244
  0
LINE
  8
0
  6
CONTINUOUS
 62
     7
 10
-825.28046
 20
41.467545
 11
-772.28046
 21
41.467545
  0
LINE
  8
0
  6
CONTINUOUS
 62
     7
 10
-825.28046
 20
41.467545
 11
-825.28046
 21
49.467545
  0
LINE
  8
0
  6
CONTINUOUS
 62
     7
 10
-772.28046
 20
41.467545
 11
-772.28046
 21
49.467545
  0
LINE
  8
0
  6
CONTINUOUS
 62
     7
 10
-763.78046
 20
31.46756
 11
-756.78046
 21
31.46756
  0
LINE
  8
0
  6
CONTINUOUS
 62
     7
 10
-739.75214
 20
-11.882243
 11
-739.75214
 21
-20.882244
  0
LINE
  8
0
  6
CONTINUOUS
 62
     7
 10
-679.75214
 20
-11.882243
 11
-679.75214
 21
-20.882244
  0
LINE
  8
0
  6
CONTINUOUS
 62
     7
 10
-673.75214
 20
-0.88225788
 11
-667.75214
 21
-0.88225788
  0
LINE
  8
0
  6
CONTINUOUS
 62
     7
 10
-673.75214
 20
29.117743
 11
-673.75214
 21
-0.88225788
  0
LINE
  8
0
  6
CONTINUOUS
 62
     7
 10
-739.75214
 20
-11.882243
 11
-679.75214
 21
-11.882243
  0
LINE
  8
0
  6
CONTINUOUS
 62
     7
 10
-739.75214
 20
40.117729
 11
-739.75214
 21
49.117729
  0
LINE
  8
0
  6
CONTINUOUS
 62
     7
 10
-679.75214
 20
40.117729
 11
-679.75214
 21
49.117729
  0
LINE
  8
0
  6
CONTINUOUS
 62
     7
 10
-739.75214
 20
40.117729
 11
-679.75214
 21
40.117729
  0
LINE
  8
0
  6
CONTINUOUS
 62
     7
 10
-673.75214
 20
29.117743
 11
-667.75214
 21
29.117743
  0
LINE
  8
0
  6
CONTINUOUS
 62
     7
 10
-589.97998
 20
-17.788607
 11
-589.97998
 21
-26.788607
  0
LINE
  8
0
  6
CONTINUOUS
 62
     7
 10
-649.97998
 20
-17.788607
 11
-649.97998
 21
-26.788607
  0
LINE
  8
0
  6
CONTINUOUS
 62
     7
 10
-649.97998
 20
-17.788607
 11
-589.97998
 21
-17.788607
  0
LINE
  8
0
  6
CONTINUOUS
 62
     7
 10
-582.97998
 20
29.211378
 11
-582.97998
 21
-6.7886224
  0
LINE
  8
0
  6
CONTINUOUS
 62
     7
 10
-582.97998
 20
-6.7886224
 11
-576.97998
 21
-6.7886224
  0
LINE
  8
0
  6
CONTINUOUS
 62
     7
 10
-649.97998
 20
40.211361
 11
-589.97998
 21
40.211361
  0
LINE
  8
0
  6
CONTINUOUS
 62
     7
 10
-649.97998
 20
40.211361
 11
-649.97998
 21
49.211361
  0
LINE
  8
0
  6
CONTINUOUS
 62
     7
 10
-589.97998
 20
40.211361
 11
-589.97998
 21
49.211361
  0
LINE
  8
0
  6
CONTINUOUS
 62
     7
 10
-582.97998
 20
29.211378
 11
-576.97998
 21
29.211378
  0
LINE
  8
0
  6
CONTINUOUS
 62
     7
 10
-499.23251
 20
-23.694969
 11
-499.23251
 21
-32.694969
  0
LINE
  8
0
  6
CONTINUOUS
 62
     7
 10
-559.23254
 20
-23.694969
 11
-559.23254
 21
-32.694969
  0
LINE
  8
0
  6
CONTINUOUS
 62
     7
 10
-559.23254
 20
-23.694969
 11
-499.23251
 21
-23.694969
  0
LINE
  8
0
  6
CONTINUOUS
 62
     7
 10
-491.23251
 20
-13.694984
 11
-484.23251
 21
-13.694984
  0
LINE
  8
0
  6
CONTINUOUS
 62
     7
 10
-491.23251
 20
30.305016
 11
-491.23251
 21
-13.694984
  0
LINE
  8
0
  6
CONTINUOUS
 62
     7
 10
-559.23254
 20
40.305
 11
-499.23251
 21
40.305
  0
LINE
  8
0
  6
CONTINUOUS
 62
     7
 10
-559.23254
 20
40.305
 11
-559.23254
 21
49.305
  0
LINE
  8
0
  6
CONTINUOUS
 62
     7
 10
-499.23251
 20
40.305
 11
-499.23251
 21
49.305
  0
LINE
  8
0
  6
CONTINUOUS
 62
     7
 10
-491.23251
 20
30.305016
 11
-484.23251
 21
30.305016
  0
LINE
  8
0
  6
CONTINUOUS
 62
     7
 10
-461.79071
 20
-31.763878
 11
-461.79071
 21
-40.763878
  0
LINE
  8
0
  6
CONTINUOUS
 62
     7
 10
-401.79071
 20
-31.763878
 11
-401.79071
 21
-40.763878
  0
LINE
  8
0
  6
CONTINUOUS
 62
     7
 10
-461.79071
 20
-31.763878
 11
-401.79071
 21
-31.763878
  0
LINE
  8
0
  6
CONTINUOUS
 62
     7
 10
-391.79071
 20
-22.263893
 11
-383.79071
 21
-22.263893
  0
LINE
  8
0
  6
CONTINUOUS
 62
     7
 10
-391.79071
 20
30.736107
 11
-391.79071
 21
-22.263893
  0
LINE
  8
0
  6
CONTINUOUS
 62
     7
 10
-461.79071
 20
40.236092
 11
-401.79071
 21
40.236092
  0
LINE
  8
0
  6
CONTINUOUS
 62
     7
 10
-461.79071
 20
40.236092
 11
-461.79071
 21
49.236092
  0
LINE
  8
0
  6
CONTINUOUS
 62
     7
 10
-401.79071
 20
40.236092
 11
-401.79071
 21
49.236092
  0
LINE
  8
0
  6
CONTINUOUS
 62
     7
 10
-391.79071
 20
30.736107
 11
-383.79071
 21
30.736107
  0
LINE
  8
0
  6
CONTINUOUS
 62
     7
 10
-824.11444
 20
-140.3877
 11
-818.11444
 21
-140.3877
  0
LINE
  8
0
  6
CONTINUOUS
 62
     7
 10
-824.11444
 20
-110.38769
 11
-824.11444
 21
-140.3877
  0
LINE
  8
0
  6
CONTINUOUS
 62
     7
 10
-902.61444
 20
-152.38768
 11
-829.61444
 21
-152.38768
  0
LINE
  8
0
  6
CONTINUOUS
 62
     7
 10
-902.61444
 20
-152.38768
 11
-902.61444
 21
-163.38768
  0
LINE
  8
0
  6
CONTINUOUS
 62
     7
 10
-829.61444
 20
-152.38768
 11
-829.61444
 21
-163.38768
  0
LINE
  8
0
  6
CONTINUOUS
 62
     7
 10
-802.05432
 20
-158.29404
 11
-802.05432
 21
-169.29404
  0
LINE
  8
0
  6
CONTINUOUS
 62
     7
 10
-729.05432
 20
-158.29404
 11
-729.05432
 21
-169.29404
  0
LINE
  8
0
  6
CONTINUOUS
 62
     7
 10
-623.2627
 20
-164.20041
 11
-623.2627
 21
-175.20041
  0
LINE
  8
0
  6
CONTINUOUS
 62
     7
 10
-696.2627
 20
-164.20041
 11
-696.2627
 21
-175.20041
  0
LINE
  8
0
  6
CONTINUOUS
 62
     7
 10
-512.82086
 20
-172.26935
 11
-512.82086
 21
-183.26935
  0
LINE
  8
0
  6
CONTINUOUS
 62
     7
 10
-585.82086
 20
-172.26935
 11
-585.82086
 21
-183.26935
  0
LINE
  8
0
  6
CONTINUOUS
 62
     7
 10
-472.76337
 20
-180.33823
 11
-472.76337
 21
-191.33823
  0
LINE
  8
0
  6
CONTINUOUS
 62
     7
 10
-399.76337
 20
-180.33823
 11
-399.76337
 21
-191.33823
  0
LINE
  8
0
  6
CONTINUOUS
 62
     7
 10
-802.05432
 20
-158.29404
 11
-729.05432
 21
-158.29404
  0
LINE
  8
0
  6
CONTINUOUS
 62
     7
 10
-696.2627
 20
-164.20041
 11
-623.2627
 21
-164.20041
  0
LINE
  8
0
  6
CONTINUOUS
 62
     7
 10
-512.82086
 20
-172.26935
 11
-585.82086
 21
-172.26935
  0
LINE
  8
0
  6
CONTINUOUS
 62
     7
 10
-399.76337
 20
-180.33823
 11
-472.76337
 21
-180.33823
  0
LINE
  8
0
  6
CONTINUOUS
 62
     7
 10
-722.55432
 20
-146.29405
 11
-716.55432
 21
-146.29405
  0
LINE
  8
0
  6
CONTINUOUS
 62
     7
 10
-615.7627
 20
-153.20042
 11
-608.7627
 21
-153.20042
  0
LINE
  8
0
  6
CONTINUOUS
 62
     7
 10
-615.7627
 20
-109.20042
 11
-615.7627
 21
-153.20042
  0
LINE
  8
0
  6
CONTINUOUS
 62
     7
 10
-495.32086
 20
-161.76933
 11
-503.32086
 21
-161.76933
  0
LINE
  8
0
  6
CONTINUOUS
 62
     7
 10
-503.32086
 20
-108.76933
 11
-503.32086
 21
-161.76933
  0
LINE
  8
0
  6
CONTINUOUS
 62
     7
 10
-381.26334
 20
-169.33824
 11
-390.26334
 21
-169.33824
  0
LINE
  8
0
  6
CONTINUOUS
 62
     7
 10
-390.26334
 20
-109.33823
 11
-390.26334
 21
-169.33824
  0
LINE
  8
0
  6
CONTINUOUS
 62
     7
 10
-722.55432
 20
-110.29405
 11
-722.55432
 21
-146.29405
  0
LINE
  8
0
  6
CONTINUOUS
 62
     7
 10
-472.76337
 20
-98.338249
 11
-472.76337
 21
-87.338249
  0
LINE
  8
0
  6
CONTINUOUS
 62
     7
 10
-399.76337
 20
-98.338249
 11
-472.76337
 21
-98.338249
  0
LINE
  8
0
  6
CONTINUOUS
 62
     7
 10
-399.76337
 20
-98.338249
 11
-399.76337
 21
-87.338249
  0
LINE
  8
0
  6
CONTINUOUS
 62
     7
 10
-381.26334
 20
-109.33823
 11
-390.26334
 21
-109.33823
  0
LINE
  8
0
  6
CONTINUOUS
 62
     7
 10
-585.82086
 20
-98.26931
 11
-585.82086
 21
-87.26931
  0
LINE
  8
0
  6
CONTINUOUS
 62
     7
 10
-512.82086
 20
-98.26931
 11
-585.82086
 21
-98.26931
  0
LINE
  8
0
  6
CONTINUOUS
 62
     7
 10
-512.82086
 20
-98.26931
 11
-512.82086
 21
-87.269302
  0
LINE
  8
0
  6
CONTINUOUS
 62
     7
 10
-495.32086
 20
-108.76933
 11
-503.32086
 21
-108.76933
  0
LINE
  8
0
  6
CONTINUOUS
 62
     7
 10
-696.2627
 20
-98.200432
 11
-696.2627
 21
-87.200432
  0
LINE
  8
0
  6
CONTINUOUS
 62
     7
 10
-696.2627
 20
-98.200432
 11
-623.2627
 21
-98.200432
  0
LINE
  8
0
  6
CONTINUOUS
 62
     7
 10
-623.2627
 20
-98.200432
 11
-623.2627
 21
-87.200432
  0
LINE
  8
0
  6
CONTINUOUS
 62
     7
 10
-615.7627
 20
-109.20042
 11
-608.7627
 21
-109.20042
  0
LINE
  8
0
  6
CONTINUOUS
 62
     7
 10
-802.05432
 20
-98.294075
 11
-729.05432
 21
-98.294075
  0
LINE
  8
0
  6
CONTINUOUS
 62
     7
 10
-802.05432
 20
-98.294075
 11
-802.05432
 21
-87.294075
  0
LINE
  8
0
  6
CONTINUOUS
 62
     7
 10
-729.05432
 20
-98.294075
 11
-729.05432
 21
-87.294075
  0
LINE
  8
0
  6
CONTINUOUS
 62
     7
 10
-722.55432
 20
-110.29405
 11
-716.55432
 21
-110.29405
  0
LINE
  8
0
  6
CONTINUOUS
 62
     7
 10
-902.61444
 20
-98.387703
 11
-829.61444
 21
-98.387703
  0
LINE
  8
0
  6
CONTINUOUS
 62
     7
 10
-902.61444
 20
-98.387703
 11
-902.61444
 21
-87.387703
  0
LINE
  8
0
  6
CONTINUOUS
 62
     7
 10
-829.61444
 20
-98.387703
 11
-829.61444
 21
-87.387703
  0
LINE
  8
0
  6
CONTINUOUS
 62
     7
 10
-824.11444
 20
-110.38769
 11
-818.11444
 21
-110.38769
  0
ARC
  8
0
  6
CONTINUOUS
 62
     7
 10
-207.32909
 20
57.798515
 40
6
 50
35.685344
 51
90.000016
  0
ARC
  8
0
  6
CONTINUOUS
 62
     7
 10
-214.9557
 20
60.798531
 40
3
 50
90.000016
 51
180.00001
  0
ARC
  8
0
  6
CONTINUOUS
 62
     7
 10
-214.95567
 20
58.396599
 40
3
 50
179.99999
 51
239.99998
  0
ARC
  8
0
  6
CONTINUOUS
 62
     7
 10
-247.95567
 20
58.396599
 40
3
 50
300.00001
 51
359.99999
  0
ARC
  8
0
  6
CONTINUOUS
 62
     7
 10
-247.95569
 20
60.798531
 40
3
 50
359.99998
 51
90.000016
  0
ARC
  8
0
  6
CONTINUOUS
 62
     7
 10
-255.58228
 20
57.798515
 40
6
 50
89.999962
 51
144.31462
  0
ARC
  8
0
  6
CONTINUOUS
 62
     7
 10
-255.58228
 20
155.79852
 40
6
 50
215.68527
 51
269.99995
  0
ARC
  8
0
  6
CONTINUOUS
 62
     7
 10
-207.32906
 20
155.79852
 40
6
 50
269.99999
 51
324.31467
  0
ARC
  8
0
  6
CONTINUOUS
 62
     7
 10
-105.32622
 20
155.79852
 40
6
 50
269.99996
 51
324.31463
  0
ARC
  8
0
  6
CONTINUOUS
 62
     7
 10
-159.57941
 20
155.79852
 40
6
 50
215.68533
 51
270
  0
ARC
  8
0
  6
CONTINUOUS
 62
     7
 10
-159.57941
 20
57.798515
 40
6
 50
89.999996
 51
144.31467
  0
ARC
  8
0
  6
CONTINUOUS
 62
     7
 10
-154.95282
 20
57.798515
 40
6
 50
359.99998
 51
90.000016
  0
ARC
  8
0
  6
CONTINUOUS
 62
     7
 10
-151.9528
 20
57.396599
 40
3
 50
300.00001
 51
359.99999
  0
ARC
  8
0
  6
CONTINUOUS
 62
     7
 10
-112.9528
 20
57.396599
 40
3
 50
179.99999
 51
239.99998
  0
ARC
  8
0
  6
CONTINUOUS
 62
     7
 10
-109.95284
 20
57.798515
 40
6
 50
90.000016
 51
180.00001
  0
ARC
  8
0
  6
CONTINUOUS
 62
     7
 10
-105.32622
 20
57.798515
 40
6
 50
35.685303
 51
89.999975
  0
ARC
  8
0
  6
CONTINUOUS
 62
     7
 10
5.7039099
 20
155.12958
 40
6
 50
269.99996
 51
324.31463
  0
ARC
  8
0
  6
CONTINUOUS
 62
     7
 10
-56.549278
 20
155.12958
 40
6
 50
215.68533
 51
270
  0
ARC
  8
0
  6
CONTINUOUS
 62
     7
 10
-56.549278
 20
57.129578
 40
6
 50
89.999996
 51
144.31467
  0
ARC
  8
0
  6
CONTINUOUS
 62
     7
 10
-51.922691
 20
57.129578
 40
6
 50
359.99998
 51
90.000016
  0
ARC
  8
0
  6
CONTINUOUS
 62
     7
 10
-48.922676
 20
55.727661
 40
3
 50
300.00001
 51
359.99999
  0
ARC
  8
0
  6
CONTINUOUS
 62
     7
 10
-1.9226769
 20
55.727661
 40
3
 50
179.99999
 51
239.99998
  0
ARC
  8
0
  6
CONTINUOUS
 62
     7
 10
1.0772926
 20
57.129578
 40
6
 50
90.000016
 51
180.00001
  0
ARC
  8
0
  6
CONTINUOUS
 62
     7
 10
5.7039099
 20
57.129578
 40
6
 50
35.685303
 51
89.999975
  0
ARC
  8
0
  6
CONTINUOUS
 62
     7
 10
124.7613
 20
156.46745
 40
6
 50
269.99996
 51
324.31463
  0
ARC
  8
0
  6
CONTINUOUS
 62
     7
 10
54.50811
 20
156.46745
 40
6
 50
215.68533
 51
270
  0
ARC
  8
0
  6
CONTINUOUS
 62
     7
 10
54.50811
 20
58.467453
 40
6
 50
89.999996
 51
144.31467
  0
ARC
  8
0
  6
CONTINUOUS
 62
     7
 10
58.634697
 20
58.467453
 40
6
 50
359.99998
 51
90.000016
  0
ARC
  8
0
  6
CONTINUOUS
 62
     7
 10
61.634712
 20
56.065536
 40
3
 50
300.00001
 51
359.99999
  0
ARC
  8
0
  6
CONTINUOUS
 62
     7
 10
117.63471
 20
56.065536
 40
3
 50
179.99999
 51
239.99998
  0
ARC
  8
0
  6
CONTINUOUS
 62
     7
 10
120.63468
 20
58.467453
 40
6
 50
90.000016
 51
180.00001
  0
ARC
  8
0
  6
CONTINUOUS
 62
     7
 10
124.7613
 20
58.467453
 40
6
 50
35.685303
 51
89.999975
  0
ARC
  8
0
  6
CONTINUOUS
 62
     7
 10
251.51489
 20
156.46745
 40
6
 50
269.99996
 51
324.31463
  0
ARC
  8
0
  6
CONTINUOUS
 62
     7
 10
175.2617
 20
156.46745
 40
6
 50
215.68533
 51
270
  0
ARC
  8
0
  6
CONTINUOUS
 62
     7
 10
175.2617
 20
58.467453
 40
6
 50
89.999996
 51
144.31467
  0
ARC
  8
0
  6
CONTINUOUS
 62
     7
 10
179.38829
 20
58.467453
 40
6
 50
359.99998
 51
90.000016
  0
ARC
  8
0
  6
CONTINUOUS
 62
     7
 10
181.38831
 20
57.931564
 40
4
 50
300.00001
 51
359.99999
  0
ARC
  8
0
  6
CONTINUOUS
 62
     7
 10
245.38831
 20
57.931564
 40
4
 50
179.99999
 51
239.99998
  0
ARC
  8
0
  6
CONTINUOUS
 62
     7
 10
247.38828
 20
58.467453
 40
6
 50
90.000016
 51
180.00001
  0
ARC
  8
0
  6
CONTINUOUS
 62
     7
 10
251.51489
 20
58.467453
 40
6
 50
35.685303
 51
89.999975
  0
ARC
  8
0
  6
CONTINUOUS
 62
     7
 10
-157.65573
 20
-27.455133
 40
6
 50
269.99996
 51
324.31463
  0
ARC
  8
0
  6
CONTINUOUS
 62
     7
 10
-243.90892
 20
-27.455133
 40
6
 50
215.68533
 51
270
  0
ARC
  8
0
  6
CONTINUOUS
 62
     7
 10
-243.90892
 20
-125.45513
 40
6
 50
89.999996
 51
144.31467
  0
ARC
  8
0
  6
CONTINUOUS
 62
     7
 10
-241.28233
 20
-125.45513
 40
6
 50
359.99998
 51
90.000016
  0
ARC
  8
0
  6
CONTINUOUS
 62
     7
 10
-239.28232
 20
-126.99102
 40
4
 50
300.00001
 51
359.99999
  0
ARC
  8
0
  6
CONTINUOUS
 62
     7
 10
-162.28232
 20
-126.99102
 40
4
 50
179.99999
 51
239.99998
  0
ARC
  8
0
  6
CONTINUOUS
 62
     7
 10
-160.28235
 20
-125.45513
 40
6
 50
90.000016
 51
180.00001
  0
ARC
  8
0
  6
CONTINUOUS
 62
     7
 10
-157.65573
 20
-125.45513
 40
6
 50
35.685303
 51
89.999975
  0
ARC
  8
0
  6
CONTINUOUS
 62
     7
 10
-15.034972
 20
-16.27562
 40
10
 50
269.99996
 51
315.57296
  0
ARC
  8
0
  6
CONTINUOUS
 62
     7
 10
-56.752121
 20
-16.27562
 40
10
 50
224.427
 51
270
  0
ARC
  8
0
  6
CONTINUOUS
 62
     7
 10
-56.752121
 20
-135.27562
 40
10
 50
89.999996
 51
135.57298
  0
ARC
  8
0
  6
CONTINUOUS
 62
     7
 10
-54.39357
 20
-130.27562
 40
5
 50
359.99998
 51
90.000016
  0
ARC
  8
0
  6
CONTINUOUS
 62
     7
 10
-52.393555
 20
-131.17754
 40
3
 50
300.00001
 51
359.99999
  0
ARC
  8
0
  6
CONTINUOUS
 62
     7
 10
-19.393553
 20
-131.17754
 40
3
 50
179.99999
 51
239.99998
  0
ARC
  8
0
  6
CONTINUOUS
 62
     7
 10
-17.393583
 20
-130.27562
 40
5
 50
90.000016
 51
180.00001
  0
ARC
  8
0
  6
CONTINUOUS
 62
     7
 10
-15.034972
 20
-135.27562
 40
10
 50
44.426989
 51
89.999975
  0
ARC
  8
0
  6
CONTINUOUS
 62
     7
 10
100.33985
 20
-16.944559
 40
10
 50
269.99996
 51
315.57296
  0
ARC
  8
0
  6
CONTINUOUS
 62
     7
 10
48.622704
 20
-16.944559
 40
10
 50
224.427
 51
270
  0
ARC
  8
0
  6
CONTINUOUS
 62
     7
 10
48.622704
 20
-135.94456
 40
10
 50
89.999996
 51
135.57298
  0
ARC
  8
0
  6
CONTINUOUS
 62
     7
 10
51.981255
 20
-131.94456
 40
6
 50
359.99998
 51
90.000016
  0
ARC
  8
0
  6
CONTINUOUS
 62
     7
 10
54.98127
 20
-133.84648
 40
3
 50
300.00001
 51
359.99999
  0
ARC
  8
0
  6
CONTINUOUS
 62
     7
 10
93.98127
 20
-133.84648
 40
3
 50
179.99999
 51
239.99998
  0
ARC
  8
0
  6
CONTINUOUS
 62
     7
 10
96.981239
 20
-131.94456
 40
6
 50
90.000016
 51
180.00001
  0
ARC
  8
0
  6
CONTINUOUS
 62
     7
 10
100.33985
 20
-135.94456
 40
10
 50
44.426989
 51
89.999975
  0
ARC
  8
0
  6
CONTINUOUS
 62
     7
 10
220.73512
 20
-16.944559
 40
10
 50
269.99996
 51
315.57296
  0
ARC
  8
0
  6
CONTINUOUS
 62
     7
 10
161.01797
 20
-16.944559
 40
10
 50
224.427
 51
270
  0
ARC
  8
0
  6
CONTINUOUS
 62
     7
 10
220.73512
 20
-135.94456
 40
10
 50
44.426989
 51
89.999975
  0
ARC
  8
0
  6
CONTINUOUS
 62
     7
 10
219.37651
 20
-133.94456
 40
8
 50
90.000016
 51
180.00001
  0
ARC
  8
0
  6
CONTINUOUS
 62
     7
 10
214.37654
 20
-134.84648
 40
3
 50
179.99999
 51
239.99998
  0
ARC
  8
0
  6
CONTINUOUS
 62
     7
 10
167.37654
 20
-134.84648
 40
3
 50
300.00001
 51
359.99999
  0
ARC
  8
0
  6
CONTINUOUS
 62
     7
 10
162.37653
 20
-133.94456
 40
8
 50
359.99998
 51
90.000016
  0
ARC
  8
0
  6
CONTINUOUS
 62
     7
 10
161.01797
 20
-135.94456
 40
10
 50
89.999996
 51
135.57298
  0
ARC
  8
0
  6
CONTINUOUS
 62
     7
 10
428.27426
 20
164.72552
 40
10
 50
269.99996
 51
315.57296
  0
ARC
  8
0
  6
CONTINUOUS
 62
     7
 10
358.5571
 20
164.72552
 40
10
 50
224.427
 51
270
  0
ARC
  8
0
  6
CONTINUOUS
 62
     7
 10
358.5571
 20
45.725525
 40
10
 50
89.999996
 51
135.57298
  0
ARC
  8
0
  6
CONTINUOUS
 62
     7
 10
359.91565
 20
47.225525
 40
8.5
 50
359.99998
 51
90.000016
  0
ARC
  8
0
  6
CONTINUOUS
 62
     7
 10
365.41568
 20
45.823608
 40
3
 50
300.00001
 51
359.99999
  0
ARC
  8
0
  6
CONTINUOUS
 62
     7
 10
421.41568
 20
45.823608
 40
3
 50
179.99999
 51
239.99998
  0
ARC
  8
0
  6
CONTINUOUS
 62
     7
 10
426.91565
 20
47.225525
 40
8.5
 50
90.000016
 51
180.00001
  0
ARC
  8
0
  6
CONTINUOUS
 62
     7
 10
428.27426
 20
45.725525
 40
10
 50
44.426989
 51
89.999975
  0
ARC
  8
0
  6
CONTINUOUS
 62
     7
 10
561.83264
 20
163.93903
 40
10
 50
269.99996
 51
315.57296
  0
ARC
  8
0
  6
CONTINUOUS
 62
     7
 10
486.11551
 20
163.93903
 40
10
 50
224.427
 51
270
  0
ARC
  8
0
  6
CONTINUOUS
 62
     7
 10
486.11551
 20
44.939026
 40
10
 50
89.999996
 51
135.57298
  0
ARC
  8
0
  6
CONTINUOUS
 62
     7
 10
486.97406
 20
45.939026
 40
9
 50
359.99998
 51
90.000016
  0
ARC
  8
0
  6
CONTINUOUS
 62
     7
 10
491.97406
 20
44.903137
 40
4
 50
300.00001
 51
359.99999
  0
ARC
  8
0
  6
CONTINUOUS
 62
     7
 10
555.97406
 20
44.903137
 40
4
 50
179.99999
 51
239.99998
  0
ARC
  8
0
  6
CONTINUOUS
 62
     7
 10
560.97406
 20
45.939026
 40
9
 50
90.000016
 51
180.00001
  0
ARC
  8
0
  6
CONTINUOUS
 62
     7
 10
561.83264
 20
44.939026
 40
10
 50
44.426989
 51
89.999975
  0
ARC
  8
0
  6
CONTINUOUS
 62
     7
 10
704.64923
 20
163.93903
 40
10
 50
269.99996
 51
315.57296
  0
ARC
  8
0
  6
CONTINUOUS
 62
     7
 10
620.93213
 20
163.93903
 40
10
 50
224.427
 51
270
  0
ARC
  8
0
  6
CONTINUOUS
 62
     7
 10
620.93213
 20
44.939026
 40
10
 50
89.999996
 51
135.57298
  0
ARC
  8
0
  6
CONTINUOUS
 62
     7
 10
623.29065
 20
49.939026
 40
5
 50
359.99998
 51
90.000016
  0
ARC
  8
0
  6
CONTINUOUS
 62
     7
 10
624.29065
 20
46.903137
 40
4
 50
300.00001
 51
359.99999
  0
ARC
  8
0
  6
CONTINUOUS
 62
     7
 10
701.29065
 20
46.903137
 40
4
 50
179.99999
 51
239.99998
  0
ARC
  8
0
  6
CONTINUOUS
 62
     7
 10
702.29065
 20
49.939026
 40
5
 50
90.000016
 51
180.00001
  0
ARC
  8
0
  6
CONTINUOUS
 62
     7
 10
704.64923
 20
44.939026
 40
10
 50
44.426989
 51
89.999975
  0
ARC
  8
0
  6
CONTINUOUS
 62
     7
 10
866.8363
 20
44.939026
 40
10
 50
44.426989
 51
89.999975
  0
ARC
  8
0
  6
CONTINUOUS
 62
     7
 10
865.97766
 20
46.939026
 40
8
 50
90.000016
 51
180.00001
  0
ARC
  8
0
  6
CONTINUOUS
 62
     7
 10
863.97772
 20
46.312439
 40
6
 50
179.99999
 51
234.31467
  0
ARC
  8
0
  6
CONTINUOUS
 62
     7
 10
765.97772
 20
46.312439
 40
6
 50
305.68533
 51
359.99999
  0
ARC
  8
0
  6
CONTINUOUS
 62
     7
 10
763.97772
 20
46.939026
 40
8
 50
359.99998
 51
90.000016
  0
ARC
  8
0
  6
CONTINUOUS
 62
     7
 10
763.11914
 20
44.939026
 40
10
 50
89.999996
 51
135.57298
  0
ARC
  8
0
  6
CONTINUOUS
 62
     7
 10
763.11914
 20
163.93903
 40
10
 50
224.427
 51
270
  0
ARC
  8
0
  6
CONTINUOUS
 62
     7
 10
866.8363
 20
163.93903
 40
10
 50
269.99996
 51
315.57296
  0
ARC
  8
0
  6
CONTINUOUS
 62
     7
 10
424.99323
 20
-10.820089
 40
10
 50
269.99996
 51
315.57296
  0
ARC
  8
0
  6
CONTINUOUS
 62
     7
 10
371.27609
 20
-10.820097
 40
10
 50
224.427
 51
270
  0
ARC
  8
0
  6
CONTINUOUS
 62
     7
 10
371.27609
 20
-157.8201
 40
10
 50
89.999996
 51
135.57298
  0
ARC
  8
0
  6
CONTINUOUS
 62
     7
 10
378.63461
 20
-153.8201
 40
6
 50
359.99998
 51
90.000016
  0
ARC
  8
0
  6
CONTINUOUS
 62
     7
 10
381.63464
 20
-154.72202
 40
3
 50
300.00001
 51
359.99999
  0
ARC
  8
0
  6
CONTINUOUS
 62
     7
 10
414.63464
 20
-154.72202
 40
3
 50
179.99999
 51
239.99998
  0
ARC
  8
0
  6
CONTINUOUS
 62
     7
 10
417.63461
 20
-153.8201
 40
6
 50
90.000016
 51
180.00001
  0
ARC
  8
0
  6
CONTINUOUS
 62
     7
 10
424.99323
 20
-157.8201
 40
10
 50
44.426989
 51
89.999975
  0
ARC
  8
0
  6
CONTINUOUS
 62
     7
 10
557.97864
 20
-11.606594
 40
10
 50
269.99996
 51
315.57296
  0
ARC
  8
0
  6
CONTINUOUS
 62
     7
 10
496.26147
 20
-11.606594
 40
10
 50
224.427
 51
270
  0
ARC
  8
0
  6
CONTINUOUS
 62
     7
 10
496.26147
 20
-158.6066
 40
10
 50
89.999996
 51
135.57298
  0
ARC
  8
0
  6
CONTINUOUS
 62
     7
 10
503.62003
 20
-155.6066
 40
7
 50
359.99998
 51
90.000016
  0
ARC
  8
0
  6
CONTINUOUS
 62
     7
 10
507.62006
 20
-156.50851
 40
3
 50
300.00001
 51
359.99999
  0
ARC
  8
0
  6
CONTINUOUS
 62
     7
 10
546.62006
 20
-156.50851
 40
3
 50
179.99999
 51
239.99998
  0
ARC
  8
0
  6
CONTINUOUS
 62
     7
 10
550.62
 20
-155.6066
 40
7
 50
90.000016
 51
180.00001
  0
ARC
  8
0
  6
CONTINUOUS
 62
     7
 10
557.97864
 20
-158.6066
 40
10
 50
44.426989
 51
89.999975
  0
ARC
  8
0
  6
CONTINUOUS
 62
     7
 10
697.25598
 20
-12.39309
 40
10
 50
269.99996
 51
315.57296
  0
ARC
  8
0
  6
CONTINUOUS
 62
     7
 10
627.53888
 20
-12.39309
 40
10
 50
224.427
 51
270
  0
ARC
  8
0
  6
CONTINUOUS
 62
     7
 10
627.53888
 20
-159.3931
 40
10
 50
89.999996
 51
135.57298
  0
ARC
  8
0
  6
CONTINUOUS
 62
     7
 10
633.8974
 20
-157.3931
 40
8
 50
359.99998
 51
90.000016
  0
ARC
  8
0
  6
CONTINUOUS
 62
     7
 10
638.8974
 20
-158.29501
 40
3
 50
300.00001
 51
359.99999
  0
ARC
  8
0
  6
CONTINUOUS
 62
     7
 10
685.8974
 20
-158.29501
 40
3
 50
179.99999
 51
239.99998
  0
ARC
  8
0
  6
CONTINUOUS
 62
     7
 10
690.8974
 20
-157.3931
 40
8
 50
90.000016
 51
180.00001
  0
ARC
  8
0
  6
CONTINUOUS
 62
     7
 10
697.25598
 20
-159.3931
 40
10
 50
44.426989
 51
89.999975
  0
ARC
  8
0
  6
CONTINUOUS
 62
     7
 10
841.82538
 20
-12.393083
 40
10
 50
269.99996
 51
315.57296
  0
ARC
  8
0
  6
CONTINUOUS
 62
     7
 10
766.10822
 20
-12.39309
 40
10
 50
224.427
 51
270
  0
ARC
  8
0
  6
CONTINUOUS
 62
     7
 10
766.10822
 20
-159.3931
 40
10
 50
89.999996
 51
135.57298
  0
ARC
  8
0
  6
CONTINUOUS
 62
     7
 10
770.96674
 20
-157.3931
 40
8
 50
359.99998
 51
90.000016
  0
ARC
  8
0
  6
CONTINUOUS
 62
     7
 10
775.9668
 20
-161.29501
 40
3
 50
300.00001
 51
359.99999
  0
ARC
  8
0
  6
CONTINUOUS
 62
     7
 10
831.9668
 20
-161.29501
 40
3
 50
179.99999
 51
239.99998
  0
ARC
  8
0
  6
CONTINUOUS
 62
     7
 10
836.96674
 20
-157.3931
 40
8
 50
90.000016
 51
180.00001
  0
ARC
  8
0
  6
CONTINUOUS
 62
     7
 10
841.82538
 20
-159.3931
 40
10
 50
44.426989
 51
89.999975
  0
ARC
  8
0
  6
CONTINUOUS
 62
     7
 10
-142.44107
 20
-263.28543
 40
10
 50
269.99996
 51
315.57296
  0
ARC
  8
0
  6
CONTINUOUS
 62
     7
 10
-222.15822
 20
-263.28543
 40
10
 50
224.427
 51
270
  0
ARC
  8
0
  6
CONTINUOUS
 62
     7
 10
-222.15822
 20
-410.28543
 40
10
 50
89.999996
 51
135.57298
  0
ARC
  8
0
  6
CONTINUOUS
 62
     7
 10
-142.44107
 20
-410.28543
 40
10
 50
44.426989
 51
89.999975
  0
ARC
  8
0
  6
CONTINUOUS
 62
     7
 10
-146.29968
 20
-408.28543
 40
8
 50
90.000016
 51
180.00001
  0
ARC
  8
0
  6
CONTINUOUS
 62
     7
 10
-150.29965
 20
-411.32132
 40
4
 50
179.99999
 51
239.99998
  0
ARC
  8
0
  6
CONTINUOUS
 62
     7
 10
-214.29965
 20
-411.32132
 40
4
 50
300.00001
 51
359.99999
  0
ARC
  8
0
  6
CONTINUOUS
 62
     7
 10
-218.29967
 20
-408.28543
 40
8
 50
359.99998
 51
90.000016
  0
ARC
  8
0
  6
CONTINUOUS
 62
     7
 10
-67.10717
 20
-409.07193
 40
8
 50
359.99998
 51
90.000016
  0
ARC
  8
0
  6
CONTINUOUS
 62
     7
 10
-70.465706
 20
-411.07193
 40
10
 50
89.999996
 51
135.57298
  0
ARC
  8
0
  6
CONTINUOUS
 62
     7
 10
-63.107136
 20
-410.10782
 40
4
 50
300.00001
 51
359.99999
  0
ARC
  8
0
  6
CONTINUOUS
 62
     7
 10
13.892863
 20
-410.10782
 40
4
 50
179.99999
 51
239.99998
  0
ARC
  8
0
  6
CONTINUOUS
 62
     7
 10
17.892834
 20
-409.07193
 40
8
 50
90.000016
 51
180.00001
  0
ARC
  8
0
  6
CONTINUOUS
 62
     7
 10
21.251446
 20
-411.07193
 40
10
 50
44.426989
 51
89.999975
  0
ARC
  8
0
  6
CONTINUOUS
 62
     7
 10
21.251446
 20
-264.07193
 40
10
 50
269.99996
 51
315.57296
  0
ARC
  8
0
  6
CONTINUOUS
 62
     7
 10
-70.465706
 20
-264.07193
 40
10
 50
224.427
 51
270
  0
ARC
  8
0
  6
CONTINUOUS
 62
     7
 10
204.85364
 20
-263.28543
 40
10
 50
269.99996
 51
315.57296
  0
ARC
  8
0
  6
CONTINUOUS
 62
     7
 10
95.13649
 20
-263.28543
 40
10
 50
224.427
 51
270
  0
ARC
  8
0
  6
CONTINUOUS
 62
     7
 10
204.85364
 20
-410.28543
 40
10
 50
44.426989
 51
89.999975
  0
ARC
  8
0
  6
CONTINUOUS
 62
     7
 10
201.99503
 20
-409.28543
 40
9
 50
90.000016
 51
180.00001
  0
ARC
  8
0
  6
CONTINUOUS
 62
     7
 10
198.99506
 20
-409.91202
 40
6
 50
179.99999
 51
234.31467
  0
ARC
  8
0
  6
CONTINUOUS
 62
     7
 10
97.995026
 20
-409.28543
 40
9
 50
359.99998
 51
90.000016
  0
ARC
  8
0
  6
CONTINUOUS
 62
     7
 10
100.99506
 20
-409.91202
 40
6
 50
305.68533
 51
359.99999
  0
ARC
  8
0
  6
CONTINUOUS
 62
     7
 10
95.13649
 20
-410.28543
 40
10
 50
89.999996
 51
135.57298
  0
ARC
  8
0
  6
CONTINUOUS
 62
     7
 10
-114.96936
 20
-450.47156
 40
10
 50
269.99996
 51
315.57296
  0
ARC
  8
0
  6
CONTINUOUS
 62
     7
 10
-234.68651
 20
-450.47156
 40
10
 50
224.427
 51
270
  0
ARC
  8
0
  6
CONTINUOUS
 62
     7
 10
-234.68651
 20
-597.47156
 40
10
 50
89.999996
 51
135.57298
  0
ARC
  8
0
  6
CONTINUOUS
 62
     7
 10
-233.32797
 20
-596.47156
 40
9
 50
5.0924746
 51
90.000016
  0
ARC
  8
0
  6
CONTINUOUS
 62
     7
 10
-234.32794
 20
-594.83014
 40
10
 50
314.427
 51
355.16687
  0
ARC
  8
0
  6
CONTINUOUS
 62
     7
 10
-115.32794
 20
-594.83014
 40
10
 50
184.83114
 51
225.57298
  0
ARC
  8
0
  6
CONTINUOUS
 62
     7
 10
-116.32797
 20
-596.47156
 40
9
 50
90.000016
 51
174.90527
  0
ARC
  8
0
  6
CONTINUOUS
 62
     7
 10
-114.96936
 20
-597.47156
 40
10
 50
44.426989
 51
89.999975
  0
ARC
  8
0
  6
CONTINUOUS
 62
     7
 10
51.837326
 20
-441.69052
 40
10
 50
269.99996
 51
319.45836
  0
ARC
  8
0
  6
CONTINUOUS
 62
     7
 10
-12.964006
 20
-441.69052
 40
10
 50
220.54161
 51
270
  0
ARC
  8
0
  6
CONTINUOUS
 62
     7
 10
-12.964006
 20
-615.69049
 40
10
 50
89.999996
 51
139.45841
  0
ARC
  8
0
  6
CONTINUOUS
 62
     7
 10
-9.0633717
 20
-613.69055
 40
8
 50
359.99998
 51
90.000016
  0
ARC
  8
0
  6
CONTINUOUS
 62
     7
 10
-4.0633407
 20
-617.09247
 40
3
 50
300.00001
 51
359.99999
  0
ARC
  8
0
  6
CONTINUOUS
 62
     7
 10
42.936661
 20
-617.09247
 40
3
 50
179.99999
 51
239.99998
  0
ARC
  8
0
  6
CONTINUOUS
 62
     7
 10
47.93663
 20
-613.69055
 40
8
 50
90.000016
 51
180.00001
  0
ARC
  8
0
  6
CONTINUOUS
 62
     7
 10
51.837326
 20
-615.69049
 40
10
 50
40.541568
 51
89.999975
  0
ARC
  8
0
  6
CONTINUOUS
 62
     7
 10
213.9231
 20
-440.11752
 40
10
 50
269.99996
 51
319.45836
  0
ARC
  8
0
  6
CONTINUOUS
 62
     7
 10
141.12177
 20
-440.11752
 40
10
 50
220.54161
 51
270
  0
ARC
  8
0
  6
CONTINUOUS
 62
     7
 10
141.12177
 20
-614.11755
 40
10
 50
89.999996
 51
139.45841
  0
ARC
  8
0
  6
CONTINUOUS
 62
     7
 10
144.5224
 20
-612.11755
 40
8
 50
359.99998
 51
90.000016
  0
ARC
  8
0
  6
CONTINUOUS
 62
     7
 10
149.52243
 20
-616.51947
 40
3
 50
300.00001
 51
359.99999
  0
ARC
  8
0
  6
CONTINUOUS
 62
     7
 10
205.52243
 20
-616.51947
 40
3
 50
179.99999
 51
239.99998
  0
ARC
  8
0
  6
CONTINUOUS
 62
     7
 10
210.5224
 20
-612.11755
 40
8
 50
90.000016
 51
180.00001
  0
ARC
  8
0
  6
CONTINUOUS
 62
     7
 10
213.9231
 20
-614.11755
 40
10
 50
40.541568
 51
89.999975
  0
ARC
  8
0
  6
CONTINUOUS
 62
     7
 10
444.54279
 20
-252.50502
 40
10
 50
269.99996
 51
319.45836
  0
ARC
  8
0
  6
CONTINUOUS
 62
     7
 10
363.74146
 20
-252.50502
 40
10
 50
220.54161
 51
270
  0
ARC
  8
0
  6
CONTINUOUS
 62
     7
 10
444.54279
 20
-426.505
 40
10
 50
40.541568
 51
89.999975
  0
ARC
  8
0
  6
CONTINUOUS
 62
     7
 10
440.14209
 20
-424.50504
 40
8
 50
90.000016
 51
180.00001
  0
ARC
  8
0
  6
CONTINUOUS
 62
     7
 10
436.14212
 20
-427.04092
 40
4
 50
179.99999
 51
239.99998
  0
ARC
  8
0
  6
CONTINUOUS
 62
     7
 10
372.14212
 20
-427.04092
 40
4
 50
300.00001
 51
359.99999
  0
ARC
  8
0
  6
CONTINUOUS
 62
     7
 10
368.14209
 20
-424.50504
 40
8
 50
359.99998
 51
90.000016
  0
ARC
  8
0
  6
CONTINUOUS
 62
     7
 10
363.74146
 20
-426.505
 40
10
 50
89.999996
 51
139.45841
  0
ARC
  8
0
  6
CONTINUOUS
 62
     7
 10
635.14136
 20
-252.50502
 40
10
 50
269.99996
 51
319.45836
  0
ARC
  8
0
  6
CONTINUOUS
 62
     7
 10
542.34003
 20
-252.50502
 40
10
 50
220.54161
 51
270
  0
ARC
  8
0
  6
CONTINUOUS
 62
     7
 10
542.34003
 20
-426.505
 40
10
 50
89.999996
 51
139.45841
  0
ARC
  8
0
  6
CONTINUOUS
 62
     7
 10
544.24066
 20
-426.50504
 40
10
 50
359.99998
 51
90.000016
  0
ARC
  8
0
  6
CONTINUOUS
 62
     7
 10
550.24072
 20
-428.04092
 40
4
 50
300.00001
 51
359.99999
  0
ARC
  8
0
  6
CONTINUOUS
 62
     7
 10
627.24072
 20
-428.04092
 40
4
 50
179.99999
 51
239.99998
  0
ARC
  8
0
  6
CONTINUOUS
 62
     7
 10
633.24066
 20
-426.50504
 40
10
 50
90.000016
 51
180.00001
  0
ARC
  8
0
  6
CONTINUOUS
 62
     7
 10
635.14136
 20
-426.505
 40
10
 50
40.541568
 51
89.999975
  0
ARC
  8
0
  6
CONTINUOUS
 62
     7
 10
845.38416
 20
-253.26158
 40
10
 50
270
 51
319.45842
  0
ARC
  8
0
  6
CONTINUOUS
 62
     7
 10
845.38416
 20
-427.26157
 40
10
 50
40.541623
 51
90.000016
  0
ARC
  8
0
  6
CONTINUOUS
 62
     7
 10
840.98346
 20
-425.26163
 40
8
 50
90.000016
 51
180.00001
  0
ARC
  8
0
  6
CONTINUOUS
 62
     7
 10
838.98346
 20
-428.38815
 40
6
 50
179.99999
 51
234.31467
  0
ARC
  8
0
  6
CONTINUOUS
 62
     7
 10
740.98346
 20
-428.38815
 40
6
 50
305.68533
 51
5.0089559E-006
  0
ARC
  8
0
  6
CONTINUOUS
 62
     7
 10
734.58282
 20
-253.26158
 40
10
 50
220.54158
 51
270
  0
ARC
  8
0
  6
CONTINUOUS
 62
     7
 10
738.98352
 20
-425.26163
 40
8
 50
5.0089561E-006
 51
89.999975
  0
ARC
  8
0
  6
CONTINUOUS
 62
     7
 10
734.58282
 20
-427.26157
 40
10
 50
89.999982
 51
139.45838
  0
ARC
  8
0
  6
CONTINUOUS
 62
     7
 10
405.53525
 20
-446.18225
 40
10
 50
220.54158
 51
270
  0
ARC
  8
0
  6
CONTINUOUS
 62
     7
 10
405.53525
 20
-620.18225
 40
10
 50
89.999982
 51
139.45838
  0
ARC
  8
0
  6
CONTINUOUS
 62
     7
 10
409.43594
 20
-618.18231
 40
8
 50
360
 51
89.999982
  0
ARC
  8
0
  6
CONTINUOUS
 62
     7
 10
407.43591
 20
-620.04083
 40
10
 50
314.42701
 51
6.8301885E-006
  0
ARC
  8
0
  6
CONTINUOUS
 62
     7
 10
526.43591
 20
-620.04083
 40
10
 50
179.99999
 51
225.57298
  0
ARC
  8
0
  6
CONTINUOUS
 62
     7
 10
528.33655
 20
-446.18225
 40
10
 50
270
 51
319.45842
  0
ARC
  8
0
  6
CONTINUOUS
 62
     7
 10
528.33655
 20
-620.18225
 40
10
 50
40.541623
 51
90.000016
  0
ARC
  8
0
  6
CONTINUOUS
 62
     7
 10
524.43585
 20
-618.18231
 40
8
 50
90.000016
 51
180.00001
  0
ARC
  8
0
  6
CONTINUOUS
 62
     7
 10
772.84137
 20
-441.64294
 40
10
 50
270
 51
319.45842
  0
ARC
  8
0
  6
CONTINUOUS
 62
     7
 10
772.84137
 20
-615.64294
 40
10
 50
40.541623
 51
90.000016
  0
ARC
  8
0
  6
CONTINUOUS
 62
     7
 10
769.94067
 20
-613.64301
 40
8
 50
90.000016
 51
180.00001
  0
ARC
  8
0
  6
CONTINUOUS
 62
     7
 10
771.94073
 20
-616.50153
 40
10
 50
179.99999
 51
225.57298
  0
ARC
  8
0
  6
CONTINUOUS
 62
     7
 10
624.94073
 20
-616.50153
 40
10
 50
314.42701
 51
6.8301885E-006
  0
ARC
  8
0
  6
CONTINUOUS
 62
     7
 10
624.04004
 20
-441.64294
 40
10
 50
220.54158
 51
270
  0
ARC
  8
0
  6
CONTINUOUS
 62
     7
 10
624.04004
 20
-615.64294
 40
10
 50
89.999982
 51
139.45838
  0
ARC
  8
0
  6
CONTINUOUS
 62
     7
 10
626.94073
 20
-613.64301
 40
8
 50
360
 51
89.999982
  0
ARC
  8
0
  6
CONTINUOUS
 62
     7
 10
-168.0063
 20
-750.75354
 40
10
 50
269.99996
 51
319.45836
  0
ARC
  8
0
  6
CONTINUOUS
 62
     7
 10
-240.8076
 20
-750.75354
 40
10
 50
220.54161
 51
270
  0
ARC
  8
0
  6
CONTINUOUS
 62
     7
 10
-240.8076
 20
-952.75354
 40
10
 50
89.999996
 51
139.45841
  0
ARC
  8
0
  6
CONTINUOUS
 62
     7
 10
-168.0063
 20
-952.75354
 40
10
 50
40.541568
 51
89.999975
  0
ARC
  8
0
  6
CONTINUOUS
 62
     7
 10
-174.90694
 20
-951.75354
 40
9
 50
90.000016
 51
180.00001
  0
ARC
  8
0
  6
CONTINUOUS
 62
     7
 10
-180.90694
 20
-952.15546
 40
3
 50
179.99999
 51
239.99998
  0
ARC
  8
0
  6
CONTINUOUS
 62
     7
 10
-227.90694
 20
-952.15546
 40
3
 50
300.00001
 51
359.99999
  0
ARC
  8
0
  6
CONTINUOUS
 62
     7
 10
-233.90694
 20
-951.75354
 40
9
 50
359.99998
 51
90.000016
  0
ARC
  8
0
  6
CONTINUOUS
 62
     7
 10
20.856159
 20
-749.98236
 40
10
 50
269.99996
 51
319.45836
  0
ARC
  8
0
  6
CONTINUOUS
 62
     7
 10
-57.945141
 20
-749.98236
 40
10
 50
220.54161
 51
270
  0
ARC
  8
0
  6
CONTINUOUS
 62
     7
 10
20.856159
 20
-951.98236
 40
10
 50
40.541568
 51
89.999975
  0
ARC
  8
0
  6
CONTINUOUS
 62
     7
 10
16.455463
 20
-951.98236
 40
10
 50
90.000016
 51
180.00001
  0
ARC
  8
0
  6
CONTINUOUS
 62
     7
 10
9.4555244
 20
-953.38428
 40
3
 50
179.99999
 51
239.99998
  0
ARC
  8
0
  6
CONTINUOUS
 62
     7
 10
-46.544476
 20
-953.38428
 40
3
 50
300.00001
 51
359.99999
  0
ARC
  8
0
  6
CONTINUOUS
 62
     7
 10
-53.544506
 20
-951.98236
 40
10
 50
359.99998
 51
90.000016
  0
ARC
  8
0
  6
CONTINUOUS
 62
     7
 10
-57.945141
 20
-951.98236
 40
10
 50
89.999996
 51
139.45841
  0
ARC
  8
0
  6
CONTINUOUS
 62
     7
 10
213.57469
 20
-749.98236
 40
10
 50
269.99996
 51
319.45836
  0
ARC
  8
0
  6
CONTINUOUS
 62
     7
 10
128.77339
 20
-749.98236
 40
10
 50
220.54161
 51
270
  0
ARC
  8
0
  6
CONTINUOUS
 62
     7
 10
128.77339
 20
-951.98236
 40
10
 50
89.999996
 51
139.45841
  0
ARC
  8
0
  6
CONTINUOUS
 62
     7
 10
133.17403
 20
-951.98236
 40
10
 50
359.99998
 51
90.000016
  0
ARC
  8
0
  6
CONTINUOUS
 62
     7
 10
139.17406
 20
-954.51825
 40
4
 50
300.00001
 51
359.99999
  0
ARC
  8
0
  6
CONTINUOUS
 62
     7
 10
203.17406
 20
-954.51825
 40
4
 50
179.99999
 51
239.99998
  0
ARC
  8
0
  6
CONTINUOUS
 62
     7
 10
209.174
 20
-951.98236
 40
10
 50
90.000016
 51
180.00001
  0
ARC
  8
0
  6
CONTINUOUS
 62
     7
 10
213.57469
 20
-951.98236
 40
10
 50
40.541568
 51
89.999975
  0
ARC
  8
0
  6
CONTINUOUS
 62
     7
 10
453.69739
 20
-765.3175
 40
10
 50
269.99996
 51
319.45836
  0
ARC
  8
0
  6
CONTINUOUS
 62
     7
 10
358.89609
 20
-765.3175
 40
10
 50
220.54161
 51
270
  0
ARC
  8
0
  6
CONTINUOUS
 62
     7
 10
358.89609
 20
-967.3175
 40
10
 50
89.999996
 51
139.45841
  0
ARC
  8
0
  6
CONTINUOUS
 62
     7
 10
364.79672
 20
-964.3175
 40
7
 50
359.99998
 51
90.000016
  0
ARC
  8
0
  6
CONTINUOUS
 62
     7
 10
367.79675
 20
-966.85339
 40
4
 50
300.00001
 51
359.99999
  0
ARC
  8
0
  6
CONTINUOUS
 62
     7
 10
444.79675
 20
-966.85339
 40
4
 50
179.99999
 51
239.99998
  0
ARC
  8
0
  6
CONTINUOUS
 62
     7
 10
447.79669
 20
-964.3175
 40
7
 50
90.000016
 51
180.00001
  0
ARC
  8
0
  6
CONTINUOUS
 62
     7
 10
453.69739
 20
-967.3175
 40
10
 50
40.541568
 51
89.999975
  0
ARC
  8
0
  6
CONTINUOUS
 62
     7
 10
646.82794
 20
-764.58032
 40
10
 50
269.99996
 51
319.45836
  0
ARC
  8
0
  6
CONTINUOUS
 62
     7
 10
532.02661
 20
-764.58032
 40
10
 50
220.54161
 51
270
  0
ARC
  8
0
  6
CONTINUOUS
 62
     7
 10
532.02661
 20
-966.58032
 40
10
 50
89.999996
 51
139.45841
  0
ARC
  8
0
  6
CONTINUOUS
 62
     7
 10
538.42725
 20
-964.58032
 40
8
 50
359.99998
 51
90.000016
  0
ARC
  8
0
  6
CONTINUOUS
 62
     7
 10
540.42731
 20
-966.70691
 40
6
 50
305.68533
 51
359.99999
  0
ARC
  8
0
  6
CONTINUOUS
 62
     7
 10
638.42731
 20
-966.70691
 40
6
 50
179.99999
 51
234.31467
  0
ARC
  8
0
  6
CONTINUOUS
 62
     7
 10
640.42725
 20
-964.58032
 40
8
 50
90.000016
 51
180.00001
  0
ARC
  8
0
  6
CONTINUOUS
 62
     7
 10
646.82794
 20
-966.58032
 40
10
 50
40.541568
 51
89.999975
  0
ARC
  8
0
  6
CONTINUOUS
 62
     7
 10
870.22736
 20
-763.8432
 40
10
 50
269.99996
 51
319.45836
  0
ARC
  8
0
  6
CONTINUOUS
 62
     7
 10
741.42603
 20
-763.8432
 40
10
 50
220.54161
 51
270
  0
ARC
  8
0
  6
CONTINUOUS
 62
     7
 10
741.42603
 20
-965.8432
 40
10
 50
89.999996
 51
139.45841
  0
ARC
  8
0
  6
CONTINUOUS
 62
     7
 10
748.32666
 20
-963.8432
 40
8
 50
359.99998
 51
90.000016
  0
ARC
  8
0
  6
CONTINUOUS
 62
     7
 10
746.32672
 20
-964.70178
 40
10
 50
314.427
 51
359.99999
  0
ARC
  8
0
  6
CONTINUOUS
 62
     7
 10
865.32672
 20
-964.70178
 40
10
 50
179.99999
 51
225.57298
  0
ARC
  8
0
  6
CONTINUOUS
 62
     7
 10
863.32666
 20
-963.8432
 40
8
 50
90.000016
 51
180.00001
  0
ARC
  8
0
  6
CONTINUOUS
 62
     7
 10
870.22736
 20
-965.8432
 40
10
 50
40.541568
 51
89.999975
  0
ARC
  8
0
  6
CONTINUOUS
 62
     7
 10
-71.741249
 20
-1393.9677
 40
10
 50
179.99999
 51
225.57298
  0
ARC
  8
0
  6
CONTINUOUS
 62
     7
 10
-74.74131
 20
-1390.109
 40
7
 50
90.000016
 51
180.00001
  0
ARC
  8
0
  6
CONTINUOUS
 62
     7
 10
-70.840614
 20
-1393.109
 40
10
 50
40.541568
 51
89.999975
  0
ARC
  8
0
  6
CONTINUOUS
 62
     7
 10
-218.74124
 20
-1393.9677
 40
10
 50
314.427
 51
359.99999
  0
ARC
  8
0
  6
CONTINUOUS
 62
     7
 10
-215.74127
 20
-1390.109
 40
7
 50
359.99998
 51
90.000016
  0
ARC
  8
0
  6
CONTINUOUS
 62
     7
 10
-219.64191
 20
-1393.109
 40
10
 50
89.999996
 51
139.45841
  0
ARC
  8
0
  6
CONTINUOUS
 62
     7
 10
-70.840614
 20
-1191.109
 40
10
 50
269.99996
 51
319.45836
  0
ARC
  8
0
  6
CONTINUOUS
 62
     7
 10
-219.64191
 20
-1191.109
 40
10
 50
220.54161
 51
270
  0
ARC
  8
0
  6
CONTINUOUS
 62
     7
 10
218.91696
 20
-1190.3452
 40
10
 50
269.99996
 51
319.45836
  0
ARC
  8
0
  6
CONTINUOUS
 62
     7
 10
42.115662
 20
-1190.3452
 40
10
 50
220.54161
 51
270
  0
ARC
  8
0
  6
CONTINUOUS
 62
     7
 10
42.115662
 20
-1392.3452
 40
10
 50
91.639118
 51
139.45841
  0
ARC
  8
0
  6
CONTINUOUS
 62
     7
 10
41.516296
 20
-1394.3452
 40
12
 50
1.4935388
 51
88.503795
  0
ARC
  8
0
  6
CONTINUOUS
 62
     7
 10
43.516327
 20
-1393.7458
 40
10
 50
310.54159
 51
358.35775
  0
ARC
  8
0
  6
CONTINUOUS
 62
     7
 10
218.91696
 20
-1392.3452
 40
10
 50
40.541568
 51
88.361037
  0
ARC
  8
0
  6
CONTINUOUS
 62
     7
 10
219.51627
 20
-1394.3452
 40
12
 50
91.496032
 51
178.49842
  0
ARC
  8
0
  6
CONTINUOUS
 62
     7
 10
217.51633
 20
-1393.7458
 40
10
 50
181.63266
 51
229.45841
  0
ARC
  8
0
  6
CONTINUOUS
 62
     7
 10
-228.45567
 20
106.79852
 40
3
 50
306.00832
 51
53.991676
  0
ARC
  8
0
  6
CONTINUOUS
 62
     7
 10
-228.45567
 20
106.79852
 40
4.5
 50
306.00832
 51
53.991676
  0
ARC
  8
0
  6
CONTINUOUS
 62
     7
 10
-234.45567
 20
106.79852
 40
3
 50
126.00833
 51
233.99168
  0
ARC
  8
0
  6
CONTINUOUS
 62
     7
 10
-234.45567
 20
106.79852
 40
4.5
 50
126.00833
 51
233.99168
  0
ARC
  8
0
  6
CONTINUOUS
 62
     7
 10
-231.45567
 20
102.67063
 40
9.6028843
 50
53.991676
 51
85.520553
  0
ARC
  8
0
  6
CONTINUOUS
 62
     7
 10
-231.45567
 20
102.67063
 40
8.1028843
 50
53.991676
 51
84.689121
  0
ARC
  8
0
  6
CONTINUOUS
 62
     7
 10
-231.45567
 20
110.9264
 40
8.1028843
 50
233.99167
 51
306.00832
  0
ARC
  8
0
  6
CONTINUOUS
 62
     7
 10
-231.45567
 20
110.9264
 40
9.6028843
 50
233.99167
 51
265.52055
  0
ARC
  8
0
  6
CONTINUOUS
 62
     7
 10
-231.45567
 20
113.73602
 40
0.9375
 50
36.869897
 51
143.1301
  0
ARC
  8
0
  6
CONTINUOUS
 62
     7
 10
-231.45567
 20
107.36102
 40
0.9375
 50
216.8699
 51
323.1301
  0
ARC
  8
0
  6
CONTINUOUS
 62
     7
 10
-231.45567
 20
99.861015
 40
0.9375
 50
216.8699
 51
323.1301
  0
ARC
  8
0
  6
CONTINUOUS
 62
     7
 10
-231.45567
 20
102.67063
 40
9.6028843
 50
94.479452
 51
126.00833
  0
ARC
  8
0
  6
CONTINUOUS
 62
     7
 10
-231.45567
 20
102.67063
 40
8.1028843
 50
95.310878
 51
126.00833
  0
ARC
  8
0
  6
CONTINUOUS
 62
     7
 10
-231.45567
 20
110.9264
 40
9.6028843
 50
274.47945
 51
306.00832
  0
ARC
  8
0
  6
CONTINUOUS
 62
     7
 10
-129.4528
 20
106.79852
 40
3
 50
306.00832
 51
53.991676
  0
ARC
  8
0
  6
CONTINUOUS
 62
     7
 10
-129.4528
 20
106.79852
 40
4.5
 50
306.00832
 51
53.991676
  0
ARC
  8
0
  6
CONTINUOUS
 62
     7
 10
-135.4528
 20
106.79852
 40
3
 50
126.00833
 51
233.99168
  0
ARC
  8
0
  6
CONTINUOUS
 62
     7
 10
-135.4528
 20
106.79852
 40
4.5
 50
126.00833
 51
233.99168
  0
ARC
  8
0
  6
CONTINUOUS
 62
     7
 10
-132.4528
 20
102.67063
 40
9.6028843
 50
53.991676
 51
85.520553
  0
ARC
  8
0
  6
CONTINUOUS
 62
     7
 10
-132.4528
 20
102.67063
 40
8.1028843
 50
53.991676
 51
84.689121
  0
ARC
  8
0
  6
CONTINUOUS
 62
     7
 10
-132.4528
 20
110.9264
 40
8.1028843
 50
233.99167
 51
306.00832
  0
ARC
  8
0
  6
CONTINUOUS
 62
     7
 10
-132.4528
 20
110.9264
 40
9.6028843
 50
233.99167
 51
265.52055
  0
ARC
  8
0
  6
CONTINUOUS
 62
     7
 10
-132.4528
 20
113.73602
 40
0.9375
 50
36.869897
 51
143.1301
  0
ARC
  8
0
  6
CONTINUOUS
 62
     7
 10
-132.4528
 20
107.36102
 40
0.9375
 50
216.8699
 51
323.1301
  0
ARC
  8
0
  6
CONTINUOUS
 62
     7
 10
-132.4528
 20
99.861015
 40
0.9375
 50
216.8699
 51
323.1301
  0
ARC
  8
0
  6
CONTINUOUS
 62
     7
 10
-132.4528
 20
102.67063
 40
9.6028843
 50
94.479452
 51
126.00833
  0
ARC
  8
0
  6
CONTINUOUS
 62
     7
 10
-132.4528
 20
102.67063
 40
8.1028843
 50
95.310878
 51
126.00833
  0
ARC
  8
0
  6
CONTINUOUS
 62
     7
 10
-132.4528
 20
110.9264
 40
9.6028843
 50
274.47945
 51
306.00832
  0
ARC
  8
0
  6
CONTINUOUS
 62
     7
 10
-22.422676
 20
106.12958
 40
3
 50
306.00832
 51
53.991676
  0
ARC
  8
0
  6
CONTINUOUS
 62
     7
 10
-22.422676
 20
106.12958
 40
4.5
 50
306.00832
 51
53.991676
  0
ARC
  8
0
  6
CONTINUOUS
 62
     7
 10
-28.422676
 20
106.12958
 40
3
 50
126.00833
 51
233.99168
  0
ARC
  8
0
  6
CONTINUOUS
 62
     7
 10
-28.422676
 20
106.12958
 40
4.5
 50
126.00833
 51
233.99168
  0
ARC
  8
0
  6
CONTINUOUS
 62
     7
 10
-25.422676
 20
102.00169
 40
9.6028843
 50
53.991676
 51
85.520553
  0
ARC
  8
0
  6
CONTINUOUS
 62
     7
 10
-25.422676
 20
102.00169
 40
8.1028843
 50
53.991676
 51
84.689121
  0
ARC
  8
0
  6
CONTINUOUS
 62
     7
 10
-25.422676
 20
110.25746
 40
8.1028843
 50
233.99167
 51
306.00832
  0
ARC
  8
0
  6
CONTINUOUS
 62
     7
 10
-25.422676
 20
110.25746
 40
9.6028843
 50
233.99167
 51
265.52055
  0
ARC
  8
0
  6
CONTINUOUS
 62
     7
 10
-25.422676
 20
113.06708
 40
0.9375
 50
36.869897
 51
143.1301
  0
ARC
  8
0
  6
CONTINUOUS
 62
     7
 10
-25.422676
 20
106.69208
 40
0.9375
 50
216.8699
 51
323.1301
  0
ARC
  8
0
  6
CONTINUOUS
 62
     7
 10
-25.422676
 20
99.192078
 40
0.9375
 50
216.8699
 51
323.1301
  0
ARC
  8
0
  6
CONTINUOUS
 62
     7
 10
-25.422676
 20
102.00169
 40
9.6028843
 50
94.479452
 51
126.00833
  0
ARC
  8
0
  6
CONTINUOUS
 62
     7
 10
-25.422676
 20
102.00169
 40
8.1028843
 50
95.310878
 51
126.00833
  0
ARC
  8
0
  6
CONTINUOUS
 62
     7
 10
-25.422676
 20
110.25746
 40
9.6028843
 50
274.47945
 51
306.00832
  0
ARC
  8
0
  6
CONTINUOUS
 62
     7
 10
92.634712
 20
107.46745
 40
3
 50
306.00832
 51
53.991676
  0
ARC
  8
0
  6
CONTINUOUS
 62
     7
 10
92.634712
 20
107.46745
 40
4.5
 50
306.00832
 51
53.991676
  0
ARC
  8
0
  6
CONTINUOUS
 62
     7
 10
86.634712
 20
107.46745
 40
3
 50
126.00833
 51
233.99168
  0
ARC
  8
0
  6
CONTINUOUS
 62
     7
 10
86.634712
 20
107.46745
 40
4.5
 50
126.00833
 51
233.99168
  0
ARC
  8
0
  6
CONTINUOUS
 62
     7
 10
89.634712
 20
103.33957
 40
9.6028843
 50
53.991676
 51
85.520553
  0
ARC
  8
0
  6
CONTINUOUS
 62
     7
 10
89.634712
 20
103.33957
 40
8.1028843
 50
53.991676
 51
84.689121
  0
ARC
  8
0
  6
CONTINUOUS
 62
     7
 10
89.634712
 20
111.59534
 40
8.1028843
 50
233.99167
 51
306.00832
  0
ARC
  8
0
  6
CONTINUOUS
 62
     7
 10
89.634712
 20
111.59534
 40
9.6028843
 50
233.99167
 51
265.52055
  0
ARC
  8
0
  6
CONTINUOUS
 62
     7
 10
89.634712
 20
114.40495
 40
0.9375
 50
36.869897
 51
143.1301
  0
ARC
  8
0
  6
CONTINUOUS
 62
     7
 10
89.634712
 20
108.02995
 40
0.9375
 50
216.8699
 51
323.1301
  0
ARC
  8
0
  6
CONTINUOUS
 62
     7
 10
89.634712
 20
100.52995
 40
0.9375
 50
216.8699
 51
323.1301
  0
ARC
  8
0
  6
CONTINUOUS
 62
     7
 10
89.634712
 20
103.33957
 40
9.6028843
 50
94.479452
 51
126.00833
  0
ARC
  8
0
  6
CONTINUOUS
 62
     7
 10
89.634712
 20
103.33957
 40
8.1028843
 50
95.310878
 51
126.00833
  0
ARC
  8
0
  6
CONTINUOUS
 62
     7
 10
89.634712
 20
111.59534
 40
9.6028843
 50
274.47945
 51
306.00832
  0
ARC
  8
0
  6
CONTINUOUS
 62
     7
 10
216.38831
 20
107.46745
 40
3
 50
306.00832
 51
53.991676
  0
ARC
  8
0
  6
CONTINUOUS
 62
     7
 10
216.38831
 20
107.46745
 40
4.5
 50
306.00832
 51
53.991676
  0
ARC
  8
0
  6
CONTINUOUS
 62
     7
 10
210.38831
 20
107.46745
 40
3
 50
126.00833
 51
233.99168
  0
ARC
  8
0
  6
CONTINUOUS
 62
     7
 10
210.38831
 20
107.46745
 40
4.5
 50
126.00833
 51
233.99168
  0
ARC
  8
0
  6
CONTINUOUS
 62
     7
 10
213.38831
 20
103.33957
 40
9.6028843
 50
53.991676
 51
85.520553
  0
ARC
  8
0
  6
CONTINUOUS
 62
     7
 10
213.38831
 20
103.33957
 40
8.1028843
 50
53.991676
 51
84.689121
  0
ARC
  8
0
  6
CONTINUOUS
 62
     7
 10
213.38831
 20
111.59534
 40
8.1028843
 50
233.99167
 51
306.00832
  0
ARC
  8
0
  6
CONTINUOUS
 62
     7
 10
213.38831
 20
111.59534
 40
9.6028843
 50
233.99167
 51
265.52055
  0
ARC
  8
0
  6
CONTINUOUS
 62
     7
 10
213.38831
 20
114.40495
 40
0.9375
 50
36.869897
 51
143.1301
  0
ARC
  8
0
  6
CONTINUOUS
 62
     7
 10
213.38831
 20
108.02995
 40
0.9375
 50
216.8699
 51
323.1301
  0
ARC
  8
0
  6
CONTINUOUS
 62
     7
 10
213.38831
 20
100.52995
 40
0.9375
 50
216.8699
 51
323.1301
  0
ARC
  8
0
  6
CONTINUOUS
 62
     7
 10
213.38831
 20
103.33957
 40
9.6028843
 50
94.479452
 51
126.00833
  0
ARC
  8
0
  6
CONTINUOUS
 62
     7
 10
213.38831
 20
103.33957
 40
8.1028843
 50
95.310878
 51
126.00833
  0
ARC
  8
0
  6
CONTINUOUS
 62
     7
 10
213.38831
 20
111.59534
 40
9.6028843
 50
274.47945
 51
306.00832
  0
ARC
  8
0
  6
CONTINUOUS
 62
     7
 10
-197.78232
 20
-76.455132
 40
3
 50
306.00832
 51
53.991676
  0
ARC
  8
0
  6
CONTINUOUS
 62
     7
 10
-197.78232
 20
-76.455132
 40
4.5
 50
306.00832
 51
53.991676
  0
ARC
  8
0
  6
CONTINUOUS
 62
     7
 10
-203.78232
 20
-76.455132
 40
3
 50
126.00833
 51
233.99168
  0
ARC
  8
0
  6
CONTINUOUS
 62
     7
 10
-203.78232
 20
-76.455132
 40
4.5
 50
126.00833
 51
233.99168
  0
ARC
  8
0
  6
CONTINUOUS
 62
     7
 10
-200.78232
 20
-80.583015
 40
9.6028843
 50
53.991676
 51
85.520553
  0
ARC
  8
0
  6
CONTINUOUS
 62
     7
 10
-200.78232
 20
-80.583015
 40
8.1028843
 50
53.991676
 51
84.689121
  0
ARC
  8
0
  6
CONTINUOUS
 62
     7
 10
-200.78232
 20
-72.327248
 40
8.1028843
 50
233.99167
 51
306.00832
  0
ARC
  8
0
  6
CONTINUOUS
 62
     7
 10
-200.78232
 20
-72.327248
 40
9.6028843
 50
233.99167
 51
265.52055
  0
ARC
  8
0
  6
CONTINUOUS
 62
     7
 10
-200.78232
 20
-69.517632
 40
0.9375
 50
36.869897
 51
143.1301
  0
ARC
  8
0
  6
CONTINUOUS
 62
     7
 10
-200.78232
 20
-75.892632
 40
0.9375
 50
216.8699
 51
323.1301
  0
ARC
  8
0
  6
CONTINUOUS
 62
     7
 10
-200.78232
 20
-83.392632
 40
0.9375
 50
216.8699
 51
323.1301
  0
ARC
  8
0
  6
CONTINUOUS
 62
     7
 10
-200.78232
 20
-80.583015
 40
9.6028843
 50
94.479452
 51
126.00833
  0
ARC
  8
0
  6
CONTINUOUS
 62
     7
 10
-200.78232
 20
-80.583015
 40
8.1028843
 50
95.310878
 51
126.00833
  0
ARC
  8
0
  6
CONTINUOUS
 62
     7
 10
-200.78232
 20
-72.327248
 40
9.6028843
 50
274.47945
 51
306.00832
  0
ARC
  8
0
  6
CONTINUOUS
 62
     7
 10
-32.293556
 20
-75.77562
 40
3.5999999
 50
306.00832
 51
53.991676
  0
ARC
  8
0
  6
CONTINUOUS
 62
     7
 10
-32.293556
 20
-75.77562
 40
5.4000001
 50
306.00832
 51
53.991676
  0
ARC
  8
0
  6
CONTINUOUS
 62
     7
 10
-39.493553
 20
-75.77562
 40
3.5999999
 50
126.00833
 51
233.99168
  0
ARC
  8
0
  6
CONTINUOUS
 62
     7
 10
-39.493553
 20
-75.77562
 40
5.4000001
 50
126.00833
 51
233.99168
  0
ARC
  8
0
  6
CONTINUOUS
 62
     7
 10
-35.893555
 20
-80.72908
 40
11.523461
 50
53.991676
 51
85.520553
  0
ARC
  8
0
  6
CONTINUOUS
 62
     7
 10
-35.893555
 20
-80.72908
 40
9.7234612
 50
53.991676
 51
84.689121
  0
ARC
  8
0
  6
CONTINUOUS
 62
     7
 10
-35.893555
 20
-70.822159
 40
9.7234612
 50
233.99167
 51
306.00832
  0
ARC
  8
0
  6
CONTINUOUS
 62
     7
 10
-35.893555
 20
-70.822159
 40
11.523461
 50
233.99167
 51
265.52055
  0
ARC
  8
0
  6
CONTINUOUS
 62
     7
 10
-35.893555
 20
-67.450623
 40
1.125
 50
36.869897
 51
143.1301
  0
ARC
  8
0
  6
CONTINUOUS
 62
     7
 10
-35.893555
 20
-75.100616
 40
1.125
 50
216.8699
 51
323.1301
  0
ARC
  8
0
  6
CONTINUOUS
 62
     7
 10
-35.893555
 20
-84.100616
 40
1.125
 50
216.8699
 51
323.1301
  0
ARC
  8
0
  6
CONTINUOUS
 62
     7
 10
-35.893555
 20
-80.72908
 40
11.523461
 50
94.479452
 51
126.00833
  0
ARC
  8
0
  6
CONTINUOUS
 62
     7
 10
-35.893555
 20
-80.72908
 40
9.7234612
 50
95.310878
 51
126.00833
  0
ARC
  8
0
  6
CONTINUOUS
 62
     7
 10
-35.893555
 20
-70.822159
 40
11.523461
 50
274.47945
 51
306.00832
  0
ARC
  8
0
  6
CONTINUOUS
 62
     7
 10
78.081268
 20
-76.444557
 40
3.5999999
 50
306.00832
 51
53.991676
  0
ARC
  8
0
  6
CONTINUOUS
 62
     7
 10
78.081268
 20
-76.444557
 40
5.4000001
 50
306.00832
 51
53.991676
  0
ARC
  8
0
  6
CONTINUOUS
 62
     7
 10
70.881271
 20
-76.444557
 40
3.5999999
 50
126.00833
 51
233.99168
  0
ARC
  8
0
  6
CONTINUOUS
 62
     7
 10
70.881271
 20
-76.444557
 40
5.4000001
 50
126.00833
 51
233.99168
  0
ARC
  8
0
  6
CONTINUOUS
 62
     7
 10
74.48127
 20
-81.398018
 40
11.523461
 50
53.991676
 51
85.520553
  0
ARC
  8
0
  6
CONTINUOUS
 62
     7
 10
74.48127
 20
-81.398018
 40
9.7234612
 50
53.991676
 51
84.689121
  0
ARC
  8
0
  6
CONTINUOUS
 62
     7
 10
74.48127
 20
-71.491096
 40
9.7234612
 50
233.99167
 51
306.00832
  0
ARC
  8
0
  6
CONTINUOUS
 62
     7
 10
74.48127
 20
-71.491096
 40
11.523461
 50
233.99167
 51
265.52055
  0
ARC
  8
0
  6
CONTINUOUS
 62
     7
 10
74.48127
 20
-68.11956
 40
1.125
 50
36.869897
 51
143.1301
  0
ARC
  8
0
  6
CONTINUOUS
 62
     7
 10
74.48127
 20
-75.769554
 40
1.125
 50
216.8699
 51
323.1301
  0
ARC
  8
0
  6
CONTINUOUS
 62
     7
 10
74.48127
 20
-84.769554
 40
1.125
 50
216.8699
 51
323.1301
  0
ARC
  8
0
  6
CONTINUOUS
 62
     7
 10
74.48127
 20
-81.398018
 40
11.523461
 50
94.479452
 51
126.00833
  0
ARC
  8
0
  6
CONTINUOUS
 62
     7
 10
74.48127
 20
-81.398018
 40
9.7234612
 50
95.310878
 51
126.00833
  0
ARC
  8
0
  6
CONTINUOUS
 62
     7
 10
74.48127
 20
-71.491096
 40
11.523461
 50
274.47945
 51
306.00832
  0
ARC
  8
0
  6
CONTINUOUS
 62
     7
 10
194.47655
 20
-76.444557
 40
3.5999999
 50
306.00832
 51
53.991676
  0
ARC
  8
0
  6
CONTINUOUS
 62
     7
 10
194.47655
 20
-76.444557
 40
5.4000001
 50
306.00832
 51
53.991676
  0
ARC
  8
0
  6
CONTINUOUS
 62
     7
 10
187.27654
 20
-76.444557
 40
3.5999999
 50
126.00833
 51
233.99168
  0
ARC
  8
0
  6
CONTINUOUS
 62
     7
 10
187.27654
 20
-76.444557
 40
5.4000001
 50
126.00833
 51
233.99168
  0
ARC
  8
0
  6
CONTINUOUS
 62
     7
 10
190.87654
 20
-81.398018
 40
11.523461
 50
53.991676
 51
85.520553
  0
ARC
  8
0
  6
CONTINUOUS
 62
     7
 10
190.87654
 20
-81.398018
 40
9.7234612
 50
53.991676
 51
84.689121
  0
ARC
  8
0
  6
CONTINUOUS
 62
     7
 10
190.87654
 20
-71.491096
 40
9.7234612
 50
233.99167
 51
306.00832
  0
ARC
  8
0
  6
CONTINUOUS
 62
     7
 10
190.87654
 20
-71.491096
 40
11.523461
 50
233.99167
 51
265.52055
  0
ARC
  8
0
  6
CONTINUOUS
 62
     7
 10
190.87654
 20
-68.11956
 40
1.125
 50
36.869897
 51
143.1301
  0
ARC
  8
0
  6
CONTINUOUS
 62
     7
 10
190.87654
 20
-75.769554
 40
1.125
 50
216.8699
 51
323.1301
  0
ARC
  8
0
  6
CONTINUOUS
 62
     7
 10
190.87654
 20
-84.769554
 40
1.125
 50
216.8699
 51
323.1301
  0
ARC
  8
0
  6
CONTINUOUS
 62
     7
 10
190.87654
 20
-81.398018
 40
11.523461
 50
94.479452
 51
126.00833
  0
ARC
  8
0
  6
CONTINUOUS
 62
     7
 10
190.87654
 20
-81.398018
 40
9.7234612
 50
95.310878
 51
126.00833
  0
ARC
  8
0
  6
CONTINUOUS
 62
     7
 10
190.87654
 20
-71.491096
 40
11.523461
 50
274.47945
 51
306.00832
  0
ARC
  8
0
  6
CONTINUOUS
 62
     7
 10
397.01569
 20
105.22552
 40
3.5999999
 50
306.00832
 51
53.991676
  0
ARC
  8
0
  6
CONTINUOUS
 62
     7
 10
397.01569
 20
105.22552
 40
5.4000001
 50
306.00832
 51
53.991676
  0
ARC
  8
0
  6
CONTINUOUS
 62
     7
 10
389.81567
 20
105.22552
 40
3.5999999
 50
126.00833
 51
233.99168
  0
ARC
  8
0
  6
CONTINUOUS
 62
     7
 10
389.81567
 20
105.22552
 40
5.4000001
 50
126.00833
 51
233.99168
  0
ARC
  8
0
  6
CONTINUOUS
 62
     7
 10
393.41568
 20
100.27206
 40
11.523461
 50
53.991676
 51
85.520553
  0
ARC
  8
0
  6
CONTINUOUS
 62
     7
 10
393.41568
 20
100.27206
 40
9.7234612
 50
53.991676
 51
84.689121
  0
ARC
  8
0
  6
CONTINUOUS
 62
     7
 10
393.41568
 20
110.17899
 40
9.7234612
 50
233.99167
 51
306.00832
  0
ARC
  8
0
  6
CONTINUOUS
 62
     7
 10
393.41568
 20
110.17899
 40
11.523461
 50
233.99167
 51
265.52055
  0
ARC
  8
0
  6
CONTINUOUS
 62
     7
 10
393.41568
 20
113.55052
 40
1.125
 50
36.869897
 51
143.1301
  0
ARC
  8
0
  6
CONTINUOUS
 62
     7
 10
393.41568
 20
105.90053
 40
1.125
 50
216.8699
 51
323.1301
  0
ARC
  8
0
  6
CONTINUOUS
 62
     7
 10
393.41568
 20
96.900528
 40
1.125
 50
216.8699
 51
323.1301
  0
ARC
  8
0
  6
CONTINUOUS
 62
     7
 10
393.41568
 20
100.27206
 40
11.523461
 50
94.479452
 51
126.00833
  0
ARC
  8
0
  6
CONTINUOUS
 62
     7
 10
393.41568
 20
100.27206
 40
9.7234612
 50
95.310878
 51
126.00833
  0
ARC
  8
0
  6
CONTINUOUS
 62
     7
 10
393.41568
 20
110.17899
 40
11.523461
 50
274.47945
 51
306.00832
  0
ARC
  8
0
  6
CONTINUOUS
 62
     7
 10
527.57404
 20
104.43903
 40
3.5999999
 50
306.00832
 51
53.991676
  0
ARC
  8
0
  6
CONTINUOUS
 62
     7
 10
527.57404
 20
104.43903
 40
5.4000001
 50
306.00832
 51
53.991676
  0
ARC
  8
0
  6
CONTINUOUS
 62
     7
 10
520.37408
 20
104.43903
 40
3.5999999
 50
126.00833
 51
233.99168
  0
ARC
  8
0
  6
CONTINUOUS
 62
     7
 10
520.37408
 20
104.43903
 40
5.4000001
 50
126.00833
 51
233.99168
  0
ARC
  8
0
  6
CONTINUOUS
 62
     7
 10
523.97406
 20
99.485565
 40
11.523461
 50
53.991676
 51
85.520553
  0
ARC
  8
0
  6
CONTINUOUS
 62
     7
 10
523.97406
 20
99.485565
 40
9.7234612
 50
53.991676
 51
84.689121
  0
ARC
  8
0
  6
CONTINUOUS
 62
     7
 10
523.97406
 20
109.39249
 40
9.7234612
 50
233.99167
 51
306.00832
  0
ARC
  8
0
  6
CONTINUOUS
 62
     7
 10
523.97406
 20
109.39249
 40
11.523461
 50
233.99167
 51
265.52055
  0
ARC
  8
0
  6
CONTINUOUS
 62
     7
 10
523.97406
 20
112.76402
 40
1.125
 50
36.869897
 51
143.1301
  0
ARC
  8
0
  6
CONTINUOUS
 62
     7
 10
523.97406
 20
105.11403
 40
1.125
 50
216.8699
 51
323.1301
  0
ARC
  8
0
  6
CONTINUOUS
 62
     7
 10
523.97406
 20
96.114029
 40
1.125
 50
216.8699
 51
323.1301
  0
ARC
  8
0
  6
CONTINUOUS
 62
     7
 10
523.97406
 20
99.485565
 40
11.523461
 50
94.479452
 51
126.00833
  0
ARC
  8
0
  6
CONTINUOUS
 62
     7
 10
523.97406
 20
99.485565
 40
9.7234612
 50
95.310878
 51
126.00833
  0
ARC
  8
0
  6
CONTINUOUS
 62
     7
 10
523.97406
 20
109.39249
 40
11.523461
 50
274.47945
 51
306.00832
  0
ARC
  8
0
  6
CONTINUOUS
 62
     7
 10
666.39063
 20
104.43903
 40
3.5999999
 50
306.00832
 51
53.991676
  0
ARC
  8
0
  6
CONTINUOUS
 62
     7
 10
666.39063
 20
104.43903
 40
5.4000001
 50
306.00832
 51
53.991676
  0
ARC
  8
0
  6
CONTINUOUS
 62
     7
 10
659.19067
 20
104.43903
 40
3.5999999
 50
126.00833
 51
233.99168
  0
ARC
  8
0
  6
CONTINUOUS
 62
     7
 10
659.19067
 20
104.43903
 40
5.4000001
 50
126.00833
 51
233.99168
  0
ARC
  8
0
  6
CONTINUOUS
 62
     7
 10
662.79065
 20
99.485565
 40
11.523461
 50
53.991676
 51
85.520553
  0
ARC
  8
0
  6
CONTINUOUS
 62
     7
 10
662.79065
 20
99.485565
 40
9.7234612
 50
53.991676
 51
84.689121
  0
ARC
  8
0
  6
CONTINUOUS
 62
     7
 10
662.79065
 20
109.39249
 40
9.7234612
 50
233.99167
 51
306.00832
  0
ARC
  8
0
  6
CONTINUOUS
 62
     7
 10
662.79065
 20
109.39249
 40
11.523461
 50
233.99167
 51
265.52055
  0
ARC
  8
0
  6
CONTINUOUS
 62
     7
 10
662.79065
 20
112.76402
 40
1.125
 50
36.869897
 51
143.1301
  0
ARC
  8
0
  6
CONTINUOUS
 62
     7
 10
662.79065
 20
105.11403
 40
1.125
 50
216.8699
 51
323.1301
  0
ARC
  8
0
  6
CONTINUOUS
 62
     7
 10
662.79065
 20
96.114029
 40
1.125
 50
216.8699
 51
323.1301
  0
ARC
  8
0
  6
CONTINUOUS
 62
     7
 10
662.79065
 20
99.485565
 40
11.523461
 50
94.479452
 51
126.00833
  0
ARC
  8
0
  6
CONTINUOUS
 62
     7
 10
662.79065
 20
99.485565
 40
9.7234612
 50
95.310878
 51
126.00833
  0
ARC
  8
0
  6
CONTINUOUS
 62
     7
 10
662.79065
 20
109.39249
 40
11.523461
 50
274.47945
 51
306.00832
  0
ARC
  8
0
  6
CONTINUOUS
 62
     7
 10
818.5777
 20
104.43903
 40
3.5999999
 50
306.00832
 51
53.991676
  0
ARC
  8
0
  6
CONTINUOUS
 62
     7
 10
818.5777
 20
104.43903
 40
5.4000001
 50
306.00832
 51
53.991676
  0
ARC
  8
0
  6
CONTINUOUS
 62
     7
 10
811.37775
 20
104.43903
 40
3.5999999
 50
126.00833
 51
233.99168
  0
ARC
  8
0
  6
CONTINUOUS
 62
     7
 10
811.37775
 20
104.43903
 40
5.4000001
 50
126.00833
 51
233.99168
  0
ARC
  8
0
  6
CONTINUOUS
 62
     7
 10
814.97772
 20
99.485565
 40
11.523461
 50
53.991676
 51
85.520553
  0
ARC
  8
0
  6
CONTINUOUS
 62
     7
 10
814.97772
 20
99.485565
 40
9.7234612
 50
53.991676
 51
84.689121
  0
ARC
  8
0
  6
CONTINUOUS
 62
     7
 10
814.97772
 20
109.39249
 40
9.7234612
 50
233.99167
 51
306.00832
  0
ARC
  8
0
  6
CONTINUOUS
 62
     7
 10
814.97772
 20
109.39249
 40
11.523461
 50
233.99167
 51
265.52055
  0
ARC
  8
0
  6
CONTINUOUS
 62
     7
 10
814.97772
 20
112.76402
 40
1.125
 50
36.869897
 51
143.1301
  0
ARC
  8
0
  6
CONTINUOUS
 62
     7
 10
814.97772
 20
105.11403
 40
1.125
 50
216.8699
 51
323.1301
  0
ARC
  8
0
  6
CONTINUOUS
 62
     7
 10
814.97772
 20
96.114029
 40
1.125
 50
216.8699
 51
323.1301
  0
ARC
  8
0
  6
CONTINUOUS
 62
     7
 10
814.97772
 20
99.485565
 40
11.523461
 50
94.479452
 51
126.00833
  0
ARC
  8
0
  6
CONTINUOUS
 62
     7
 10
814.97772
 20
99.485565
 40
9.7234612
 50
95.310878
 51
126.00833
  0
ARC
  8
0
  6
CONTINUOUS
 62
     7
 10
814.97772
 20
109.39249
 40
11.523461
 50
274.47945
 51
306.00832
  0
ARC
  8
0
  6
CONTINUOUS
 62
     7
 10
401.73465
 20
-84.320099
 40
3.5999999
 50
306.00832
 51
53.991676
  0
ARC
  8
0
  6
CONTINUOUS
 62
     7
 10
401.73465
 20
-84.320099
 40
5.4000001
 50
306.00832
 51
53.991676
  0
ARC
  8
0
  6
CONTINUOUS
 62
     7
 10
394.53464
 20
-84.320099
 40
3.5999999
 50
126.00833
 51
233.99168
  0
ARC
  8
0
  6
CONTINUOUS
 62
     7
 10
394.53464
 20
-84.320099
 40
5.4000001
 50
126.00833
 51
233.99168
  0
ARC
  8
0
  6
CONTINUOUS
 62
     7
 10
398.13464
 20
-89.27356
 40
11.523461
 50
53.991676
 51
85.520553
  0
ARC
  8
0
  6
CONTINUOUS
 62
     7
 10
398.13464
 20
-89.27356
 40
9.7234612
 50
53.991676
 51
84.689121
  0
ARC
  8
0
  6
CONTINUOUS
 62
     7
 10
398.13464
 20
-79.366638
 40
9.7234612
 50
233.99167
 51
306.00832
  0
ARC
  8
0
  6
CONTINUOUS
 62
     7
 10
398.13464
 20
-79.366638
 40
11.523461
 50
233.99167
 51
265.52055
  0
ARC
  8
0
  6
CONTINUOUS
 62
     7
 10
398.13464
 20
-75.995102
 40
1.125
 50
36.869897
 51
143.1301
  0
ARC
  8
0
  6
CONTINUOUS
 62
     7
 10
398.13464
 20
-83.645096
 40
1.125
 50
216.8699
 51
323.1301
  0
ARC
  8
0
  6
CONTINUOUS
 62
     7
 10
398.13464
 20
-92.645096
 40
1.125
 50
216.8699
 51
323.1301
  0
ARC
  8
0
  6
CONTINUOUS
 62
     7
 10
398.13464
 20
-89.27356
 40
11.523461
 50
94.479452
 51
126.00833
  0
ARC
  8
0
  6
CONTINUOUS
 62
     7
 10
398.13464
 20
-89.27356
 40
9.7234612
 50
95.310878
 51
126.00833
  0
ARC
  8
0
  6
CONTINUOUS
 62
     7
 10
398.13464
 20
-79.366638
 40
11.523461
 50
274.47945
 51
306.00832
  0
ARC
  8
0
  6
CONTINUOUS
 62
     7
 10
530.72003
 20
-85.10659
 40
3.5999999
 50
306.00832
 51
53.991676
  0
ARC
  8
0
  6
CONTINUOUS
 62
     7
 10
530.72003
 20
-85.10659
 40
5.4000001
 50
306.00832
 51
53.991676
  0
ARC
  8
0
  6
CONTINUOUS
 62
     7
 10
523.52008
 20
-85.10659
 40
3.5999999
 50
126.00833
 51
233.99168
  0
ARC
  8
0
  6
CONTINUOUS
 62
     7
 10
523.52008
 20
-85.10659
 40
5.4000001
 50
126.00833
 51
233.99168
  0
ARC
  8
0
  6
CONTINUOUS
 62
     7
 10
527.12006
 20
-90.060051
 40
11.523461
 50
53.991676
 51
85.520553
  0
ARC
  8
0
  6
CONTINUOUS
 62
     7
 10
527.12006
 20
-90.060051
 40
9.7234612
 50
53.991676
 51
84.689121
  0
ARC
  8
0
  6
CONTINUOUS
 62
     7
 10
527.12006
 20
-80.15313
 40
9.7234612
 50
233.99167
 51
306.00832
  0
ARC
  8
0
  6
CONTINUOUS
 62
     7
 10
527.12006
 20
-80.15313
 40
11.523461
 50
233.99167
 51
265.52055
  0
ARC
  8
0
  6
CONTINUOUS
 62
     7
 10
527.12006
 20
-76.781593
 40
1.125
 50
36.869897
 51
143.1301
  0
ARC
  8
0
  6
CONTINUOUS
 62
     7
 10
527.12006
 20
-84.431587
 40
1.125
 50
216.8699
 51
323.1301
  0
ARC
  8
0
  6
CONTINUOUS
 62
     7
 10
527.12006
 20
-93.431587
 40
1.125
 50
216.8699
 51
323.1301
  0
ARC
  8
0
  6
CONTINUOUS
 62
     7
 10
527.12006
 20
-90.060051
 40
11.523461
 50
94.479452
 51
126.00833
  0
ARC
  8
0
  6
CONTINUOUS
 62
     7
 10
527.12006
 20
-90.060051
 40
9.7234612
 50
95.310878
 51
126.00833
  0
ARC
  8
0
  6
CONTINUOUS
 62
     7
 10
527.12006
 20
-80.15313
 40
11.523461
 50
274.47945
 51
306.00832
  0
ARC
  8
0
  6
CONTINUOUS
 62
     7
 10
665.99738
 20
-85.893089
 40
3.5999999
 50
306.00832
 51
53.991676
  0
ARC
  8
0
  6
CONTINUOUS
 62
     7
 10
665.99738
 20
-85.893089
 40
5.4000001
 50
306.00832
 51
53.991676
  0
ARC
  8
0
  6
CONTINUOUS
 62
     7
 10
658.79742
 20
-85.893089
 40
3.5999999
 50
126.00833
 51
233.99168
  0
ARC
  8
0
  6
CONTINUOUS
 62
     7
 10
658.79742
 20
-85.893089
 40
5.4000001
 50
126.00833
 51
233.99168
  0
ARC
  8
0
  6
CONTINUOUS
 62
     7
 10
662.3974
 20
-90.84655
 40
11.523461
 50
53.991676
 51
85.520553
  0
ARC
  8
0
  6
CONTINUOUS
 62
     7
 10
662.3974
 20
-90.84655
 40
9.7234612
 50
53.991676
 51
84.689121
  0
ARC
  8
0
  6
CONTINUOUS
 62
     7
 10
662.3974
 20
-80.939629
 40
9.7234612
 50
233.99167
 51
306.00832
  0
ARC
  8
0
  6
CONTINUOUS
 62
     7
 10
662.3974
 20
-80.939629
 40
11.523461
 50
233.99167
 51
265.52055
  0
ARC
  8
0
  6
CONTINUOUS
 62
     7
 10
662.3974
 20
-77.568092
 40
1.125
 50
36.869897
 51
143.1301
  0
ARC
  8
0
  6
CONTINUOUS
 62
     7
 10
662.3974
 20
-85.218086
 40
1.125
 50
216.8699
 51
323.1301
  0
ARC
  8
0
  6
CONTINUOUS
 62
     7
 10
662.3974
 20
-94.218086
 40
1.125
 50
216.8699
 51
323.1301
  0
ARC
  8
0
  6
CONTINUOUS
 62
     7
 10
662.3974
 20
-90.84655
 40
11.523461
 50
94.479452
 51
126.00833
  0
ARC
  8
0
  6
CONTINUOUS
 62
     7
 10
662.3974
 20
-90.84655
 40
9.7234612
 50
95.310878
 51
126.00833
  0
ARC
  8
0
  6
CONTINUOUS
 62
     7
 10
662.3974
 20
-80.939629
 40
11.523461
 50
274.47945
 51
306.00832
  0
ARC
  8
0
  6
CONTINUOUS
 62
     7
 10
807.56677
 20
-85.893089
 40
3.5999999
 50
306.00832
 51
53.991676
  0
ARC
  8
0
  6
CONTINUOUS
 62
     7
 10
807.56677
 20
-85.893089
 40
5.4000001
 50
306.00832
 51
53.991676
  0
ARC
  8
0
  6
CONTINUOUS
 62
     7
 10
800.36682
 20
-85.893089
 40
3.5999999
 50
126.00833
 51
233.99168
  0
ARC
  8
0
  6
CONTINUOUS
 62
     7
 10
800.36682
 20
-85.893089
 40
5.4000001
 50
126.00833
 51
233.99168
  0
ARC
  8
0
  6
CONTINUOUS
 62
     7
 10
803.9668
 20
-90.84655
 40
11.523461
 50
53.991676
 51
85.520553
  0
ARC
  8
0
  6
CONTINUOUS
 62
     7
 10
803.9668
 20
-90.84655
 40
9.7234612
 50
53.991676
 51
84.689121
  0
ARC
  8
0
  6
CONTINUOUS
 62
     7
 10
803.9668
 20
-80.939629
 40
9.7234612
 50
233.99167
 51
306.00832
  0
ARC
  8
0
  6
CONTINUOUS
 62
     7
 10
803.9668
 20
-80.939629
 40
11.523461
 50
233.99167
 51
265.52055
  0
ARC
  8
0
  6
CONTINUOUS
 62
     7
 10
803.9668
 20
-77.568092
 40
1.125
 50
36.869897
 51
143.1301
  0
ARC
  8
0
  6
CONTINUOUS
 62
     7
 10
803.9668
 20
-85.218086
 40
1.125
 50
216.8699
 51
323.1301
  0
ARC
  8
0
  6
CONTINUOUS
 62
     7
 10
803.9668
 20
-94.218086
 40
1.125
 50
216.8699
 51
323.1301
  0
ARC
  8
0
  6
CONTINUOUS
 62
     7
 10
803.9668
 20
-90.84655
 40
11.523461
 50
94.479452
 51
126.00833
  0
ARC
  8
0
  6
CONTINUOUS
 62
     7
 10
803.9668
 20
-90.84655
 40
9.7234612
 50
95.310878
 51
126.00833
  0
ARC
  8
0
  6
CONTINUOUS
 62
     7
 10
803.9668
 20
-80.939629
 40
11.523461
 50
274.47945
 51
306.00832
  0
ARC
  8
0
  6
CONTINUOUS
 62
     7
 10
-178.69965
 20
-336.78543
 40
3.5999999
 50
306.00832
 51
53.991676
  0
ARC
  8
0
  6
CONTINUOUS
 62
     7
 10
-178.69965
 20
-336.78543
 40
5.4000001
 50
306.00832
 51
53.991676
  0
ARC
  8
0
  6
CONTINUOUS
 62
     7
 10
-185.89966
 20
-336.78543
 40
3.5999999
 50
126.00833
 51
233.99168
  0
ARC
  8
0
  6
CONTINUOUS
 62
     7
 10
-185.89966
 20
-336.78543
 40
5.4000001
 50
126.00833
 51
233.99168
  0
ARC
  8
0
  6
CONTINUOUS
 62
     7
 10
-182.29965
 20
-341.73889
 40
11.523461
 50
53.991676
 51
85.520553
  0
ARC
  8
0
  6
CONTINUOUS
 62
     7
 10
-182.29965
 20
-341.73889
 40
9.7234612
 50
53.991676
 51
84.689121
  0
ARC
  8
0
  6
CONTINUOUS
 62
     7
 10
-182.29965
 20
-331.83197
 40
9.7234612
 50
233.99167
 51
306.00832
  0
ARC
  8
0
  6
CONTINUOUS
 62
     7
 10
-182.29965
 20
-331.83197
 40
11.523461
 50
233.99167
 51
265.52055
  0
ARC
  8
0
  6
CONTINUOUS
 62
     7
 10
-182.29965
 20
-328.46042
 40
1.125
 50
36.869897
 51
143.1301
  0
ARC
  8
0
  6
CONTINUOUS
 62
     7
 10
-182.29965
 20
-336.11044
 40
1.125
 50
216.8699
 51
323.1301
  0
ARC
  8
0
  6
CONTINUOUS
 62
     7
 10
-182.29965
 20
-345.11044
 40
1.125
 50
216.8699
 51
323.1301
  0
ARC
  8
0
  6
CONTINUOUS
 62
     7
 10
-182.29965
 20
-341.73889
 40
11.523461
 50
94.479452
 51
126.00833
  0
ARC
  8
0
  6
CONTINUOUS
 62
     7
 10
-182.29965
 20
-341.73889
 40
9.7234612
 50
95.310878
 51
126.00833
  0
ARC
  8
0
  6
CONTINUOUS
 62
     7
 10
-182.29965
 20
-331.83197
 40
11.523461
 50
274.47945
 51
306.00832
  0
ARC
  8
0
  6
CONTINUOUS
 62
     7
 10
-21.007135
 20
-337.57193
 40
3.5999999
 50
306.00832
 51
53.991676
  0
ARC
  8
0
  6
CONTINUOUS
 62
     7
 10
-21.007135
 20
-337.57193
 40
5.4000001
 50
306.00832
 51
53.991676
  0
ARC
  8
0
  6
CONTINUOUS
 62
     7
 10
-28.207136
 20
-337.57193
 40
3.5999999
 50
126.00833
 51
233.99168
  0
ARC
  8
0
  6
CONTINUOUS
 62
     7
 10
-28.207136
 20
-337.57193
 40
5.4000001
 50
126.00833
 51
233.99168
  0
ARC
  8
0
  6
CONTINUOUS
 62
     7
 10
-24.607136
 20
-342.52539
 40
11.523461
 50
53.991676
 51
85.520553
  0
ARC
  8
0
  6
CONTINUOUS
 62
     7
 10
-24.607136
 20
-342.52539
 40
9.7234612
 50
53.991676
 51
84.689121
  0
ARC
  8
0
  6
CONTINUOUS
 62
     7
 10
-24.607136
 20
-332.61847
 40
9.7234612
 50
233.99167
 51
306.00832
  0
ARC
  8
0
  6
CONTINUOUS
 62
     7
 10
-24.607136
 20
-332.61847
 40
11.523461
 50
233.99167
 51
265.52055
  0
ARC
  8
0
  6
CONTINUOUS
 62
     7
 10
-24.607136
 20
-329.24692
 40
1.125
 50
36.869897
 51
143.1301
  0
ARC
  8
0
  6
CONTINUOUS
 62
     7
 10
-24.607136
 20
-336.89694
 40
1.125
 50
216.8699
 51
323.1301
  0
ARC
  8
0
  6
CONTINUOUS
 62
     7
 10
-24.607136
 20
-345.89694
 40
1.125
 50
216.8699
 51
323.1301
  0
ARC
  8
0
  6
CONTINUOUS
 62
     7
 10
-24.607136
 20
-342.52539
 40
11.523461
 50
94.479452
 51
126.00833
  0
ARC
  8
0
  6
CONTINUOUS
 62
     7
 10
-24.607136
 20
-342.52539
 40
9.7234612
 50
95.310878
 51
126.00833
  0
ARC
  8
0
  6
CONTINUOUS
 62
     7
 10
-24.607136
 20
-332.61847
 40
11.523461
 50
274.47945
 51
306.00832
  0
ARC
  8
0
  6
CONTINUOUS
 62
     7
 10
153.59506
 20
-336.78543
 40
3.5999999
 50
306.00832
 51
53.991676
  0
ARC
  8
0
  6
CONTINUOUS
 62
     7
 10
153.59506
 20
-336.78543
 40
5.4000001
 50
306.00832
 51
53.991676
  0
ARC
  8
0
  6
CONTINUOUS
 62
     7
 10
146.39505
 20
-336.78543
 40
3.5999999
 50
126.00833
 51
233.99168
  0
ARC
  8
0
  6
CONTINUOUS
 62
     7
 10
146.39505
 20
-336.78543
 40
5.4000001
 50
126.00833
 51
233.99168
  0
ARC
  8
0
  6
CONTINUOUS
 62
     7
 10
149.99506
 20
-341.73889
 40
11.523461
 50
53.991676
 51
85.520553
  0
ARC
  8
0
  6
CONTINUOUS
 62
     7
 10
149.99506
 20
-341.73889
 40
9.7234612
 50
53.991676
 51
84.689121
  0
ARC
  8
0
  6
CONTINUOUS
 62
     7
 10
149.99506
 20
-331.83197
 40
9.7234612
 50
233.99167
 51
306.00832
  0
ARC
  8
0
  6
CONTINUOUS
 62
     7
 10
149.99506
 20
-331.83197
 40
11.523461
 50
233.99167
 51
265.52055
  0
ARC
  8
0
  6
CONTINUOUS
 62
     7
 10
149.99506
 20
-328.46042
 40
1.125
 50
36.869897
 51
143.1301
  0
ARC
  8
0
  6
CONTINUOUS
 62
     7
 10
149.99506
 20
-336.11044
 40
1.125
 50
216.8699
 51
323.1301
  0
ARC
  8
0
  6
CONTINUOUS
 62
     7
 10
149.99506
 20
-345.11044
 40
1.125
 50
216.8699
 51
323.1301
  0
ARC
  8
0
  6
CONTINUOUS
 62
     7
 10
149.99506
 20
-341.73889
 40
11.523461
 50
94.479452
 51
126.00833
  0
ARC
  8
0
  6
CONTINUOUS
 62
     7
 10
149.99506
 20
-341.73889
 40
9.7234612
 50
95.310878
 51
126.00833
  0
ARC
  8
0
  6
CONTINUOUS
 62
     7
 10
149.99506
 20
-331.83197
 40
11.523461
 50
274.47945
 51
306.00832
  0
ARC
  8
0
  6
CONTINUOUS
 62
     7
 10
-171.22794
 20
-523.97156
 40
3.5999999
 50
306.00832
 51
53.991676
  0
ARC
  8
0
  6
CONTINUOUS
 62
     7
 10
-171.22794
 20
-523.97156
 40
5.4000001
 50
306.00832
 51
53.991676
  0
ARC
  8
0
  6
CONTINUOUS
 62
     7
 10
-178.42795
 20
-523.97156
 40
3.5999999
 50
126.00833
 51
233.99168
  0
ARC
  8
0
  6
CONTINUOUS
 62
     7
 10
-178.42795
 20
-523.97156
 40
5.4000001
 50
126.00833
 51
233.99168
  0
ARC
  8
0
  6
CONTINUOUS
 62
     7
 10
-174.82794
 20
-528.92505
 40
11.523461
 50
53.991676
 51
85.520553
  0
ARC
  8
0
  6
CONTINUOUS
 62
     7
 10
-174.82794
 20
-528.92505
 40
9.7234612
 50
53.991676
 51
84.689121
  0
ARC
  8
0
  6
CONTINUOUS
 62
     7
 10
-174.82794
 20
-519.01807
 40
9.7234612
 50
233.99167
 51
306.00832
  0
ARC
  8
0
  6
CONTINUOUS
 62
     7
 10
-174.82794
 20
-519.01807
 40
11.523461
 50
233.99167
 51
265.52055
  0
ARC
  8
0
  6
CONTINUOUS
 62
     7
 10
-174.82794
 20
-515.64655
 40
1.125
 50
36.869897
 51
143.1301
  0
ARC
  8
0
  6
CONTINUOUS
 62
     7
 10
-174.82794
 20
-523.29657
 40
1.125
 50
216.8699
 51
323.1301
  0
ARC
  8
0
  6
CONTINUOUS
 62
     7
 10
-174.82794
 20
-532.29657
 40
1.125
 50
216.8699
 51
323.1301
  0
ARC
  8
0
  6
CONTINUOUS
 62
     7
 10
-174.82794
 20
-528.92505
 40
11.523461
 50
94.479452
 51
126.00833
  0
ARC
  8
0
  6
CONTINUOUS
 62
     7
 10
-174.82794
 20
-528.92505
 40
9.7234612
 50
95.310878
 51
126.00833
  0
ARC
  8
0
  6
CONTINUOUS
 62
     7
 10
-174.82794
 20
-519.01807
 40
11.523461
 50
274.47945
 51
306.00832
  0
ARC
  8
0
  6
CONTINUOUS
 62
     7
 10
24.23666
 20
-528.69055
 40
4.8000002
 50
306.00832
 51
53.991676
  0
ARC
  8
0
  6
CONTINUOUS
 62
     7
 10
24.23666
 20
-528.69055
 40
7.1999998
 50
306.00832
 51
53.991676
  0
ARC
  8
0
  6
CONTINUOUS
 62
     7
 10
14.636659
 20
-528.69055
 40
4.8000002
 50
126.00833
 51
233.99168
  0
ARC
  8
0
  6
CONTINUOUS
 62
     7
 10
14.636659
 20
-528.69055
 40
7.1999998
 50
126.00833
 51
233.99168
  0
ARC
  8
0
  6
CONTINUOUS
 62
     7
 10
19.436659
 20
-535.29517
 40
15.364615
 50
53.991676
 51
85.520553
  0
ARC
  8
0
  6
CONTINUOUS
 62
     7
 10
19.436659
 20
-535.29517
 40
12.964616
 50
53.991676
 51
84.689121
  0
ARC
  8
0
  6
CONTINUOUS
 62
     7
 10
19.436659
 20
-522.08594
 40
15.364615
 50
233.99167
 51
265.52055
  0
ARC
  8
0
  6
CONTINUOUS
 62
     7
 10
19.436659
 20
-517.59058
 40
1.5
 50
36.869897
 51
143.1301
  0
ARC
  8
0
  6
CONTINUOUS
 62
     7
 10
19.436659
 20
-527.79053
 40
1.5
 50
216.8699
 51
323.1301
  0
ARC
  8
0
  6
CONTINUOUS
 62
     7
 10
19.436659
 20
-539.79053
 40
1.5
 50
216.8699
 51
323.1301
  0
ARC
  8
0
  6
CONTINUOUS
 62
     7
 10
19.436659
 20
-522.08594
 40
12.964616
 50
233.99167
 51
306.00832
  0
ARC
  8
0
  6
CONTINUOUS
 62
     7
 10
19.436659
 20
-522.08594
 40
15.364615
 50
274.47945
 51
306.00832
  0
ARC
  8
0
  6
CONTINUOUS
 62
     7
 10
19.436659
 20
-535.29517
 40
12.964616
 50
95.310878
 51
126.00833
  0
ARC
  8
0
  6
CONTINUOUS
 62
     7
 10
19.436659
 20
-535.29517
 40
15.364615
 50
94.479452
 51
126.00833
  0
ARC
  8
0
  6
CONTINUOUS
 62
     7
 10
182.32243
 20
-527.11755
 40
4.8000002
 50
306.00832
 51
53.991676
  0
ARC
  8
0
  6
CONTINUOUS
 62
     7
 10
182.32243
 20
-527.11755
 40
7.1999998
 50
306.00832
 51
53.991676
  0
ARC
  8
0
  6
CONTINUOUS
 62
     7
 10
172.72243
 20
-527.11755
 40
4.8000002
 50
126.00833
 51
233.99168
  0
ARC
  8
0
  6
CONTINUOUS
 62
     7
 10
172.72243
 20
-527.11755
 40
7.1999998
 50
126.00833
 51
233.99168
  0
ARC
  8
0
  6
CONTINUOUS
 62
     7
 10
177.52243
 20
-533.72217
 40
15.364615
 50
53.991676
 51
85.520553
  0
ARC
  8
0
  6
CONTINUOUS
 62
     7
 10
177.52243
 20
-533.72217
 40
12.964616
 50
53.991676
 51
84.689121
  0
ARC
  8
0
  6
CONTINUOUS
 62
     7
 10
177.52243
 20
-520.51294
 40
15.364615
 50
233.99167
 51
265.52055
  0
ARC
  8
0
  6
CONTINUOUS
 62
     7
 10
177.52243
 20
-516.01758
 40
1.5
 50
36.869897
 51
143.1301
  0
ARC
  8
0
  6
CONTINUOUS
 62
     7
 10
177.52243
 20
-526.21753
 40
1.5
 50
216.8699
 51
323.1301
  0
ARC
  8
0
  6
CONTINUOUS
 62
     7
 10
177.52243
 20
-538.21753
 40
1.5
 50
216.8699
 51
323.1301
  0
ARC
  8
0
  6
CONTINUOUS
 62
     7
 10
177.52243
 20
-520.51294
 40
12.964616
 50
233.99167
 51
306.00832
  0
ARC
  8
0
  6
CONTINUOUS
 62
     7
 10
177.52243
 20
-520.51294
 40
15.364615
 50
274.47945
 51
306.00832
  0
ARC
  8
0
  6
CONTINUOUS
 62
     7
 10
177.52243
 20
-533.72217
 40
12.964616
 50
95.310878
 51
126.00833
  0
ARC
  8
0
  6
CONTINUOUS
 62
     7
 10
177.52243
 20
-533.72217
 40
15.364615
 50
94.479452
 51
126.00833
  0
ARC
  8
0
  6
CONTINUOUS
 62
     7
 10
703.24072
 20
-528.64294
 40
4.8000002
 50
306.00832
 51
53.991676
  0
ARC
  8
0
  6
CONTINUOUS
 62
     7
 10
703.24072
 20
-528.64294
 40
7.1999998
 50
306.00832
 51
53.991676
  0
ARC
  8
0
  6
CONTINUOUS
 62
     7
 10
693.64069
 20
-528.64294
 40
4.8000002
 50
126.00833
 51
233.99168
  0
ARC
  8
0
  6
CONTINUOUS
 62
     7
 10
693.64069
 20
-528.64294
 40
7.1999998
 50
126.00833
 51
233.99168
  0
ARC
  8
0
  6
CONTINUOUS
 62
     7
 10
698.44073
 20
-535.24756
 40
15.364615
 50
53.991676
 51
85.520553
  0
ARC
  8
0
  6
CONTINUOUS
 62
     7
 10
698.44073
 20
-535.24756
 40
12.964616
 50
53.991676
 51
84.689121
  0
ARC
  8
0
  6
CONTINUOUS
 62
     7
 10
698.44073
 20
-522.03833
 40
15.364615
 50
233.99167
 51
265.52055
  0
ARC
  8
0
  6
CONTINUOUS
 62
     7
 10
698.44073
 20
-517.54297
 40
1.5
 50
36.869897
 51
143.1301
  0
ARC
  8
0
  6
CONTINUOUS
 62
     7
 10
698.44073
 20
-527.74292
 40
1.5
 50
216.8699
 51
323.1301
  0
ARC
  8
0
  6
CONTINUOUS
 62
     7
 10
698.44073
 20
-539.74292
 40
1.5
 50
216.8699
 51
323.1301
  0
ARC
  8
0
  6
CONTINUOUS
 62
     7
 10
698.44073
 20
-522.03833
 40
12.964616
 50
233.99167
 51
306.00832
  0
ARC
  8
0
  6
CONTINUOUS
 62
     7
 10
698.44073
 20
-522.03833
 40
15.364615
 50
274.47945
 51
306.00832
  0
ARC
  8
0
  6
CONTINUOUS
 62
     7
 10
698.44073
 20
-535.24756
 40
12.964616
 50
95.310878
 51
126.00833
  0
ARC
  8
0
  6
CONTINUOUS
 62
     7
 10
698.44073
 20
-535.24756
 40
15.364615
 50
94.479452
 51
126.00833
  0
ARC
  8
0
  6
CONTINUOUS
 62
     7
 10
471.7359
 20
-533.18225
 40
4.8000002
 50
306.00832
 51
53.991676
  0
ARC
  8
0
  6
CONTINUOUS
 62
     7
 10
471.7359
 20
-533.18225
 40
7.1999998
 50
306.00832
 51
53.991676
  0
ARC
  8
0
  6
CONTINUOUS
 62
     7
 10
462.13589
 20
-533.18225
 40
4.8000002
 50
126.00833
 51
233.99168
  0
ARC
  8
0
  6
CONTINUOUS
 62
     7
 10
462.13589
 20
-533.18225
 40
7.1999998
 50
126.00833
 51
233.99168
  0
ARC
  8
0
  6
CONTINUOUS
 62
     7
 10
466.93591
 20
-539.78687
 40
15.364615
 50
53.991676
 51
85.520553
  0
ARC
  8
0
  6
CONTINUOUS
 62
     7
 10
466.93591
 20
-539.78687
 40
12.964616
 50
53.991676
 51
84.689121
  0
ARC
  8
0
  6
CONTINUOUS
 62
     7
 10
466.93591
 20
-526.57764
 40
15.364615
 50
233.99167
 51
265.52055
  0
ARC
  8
0
  6
CONTINUOUS
 62
     7
 10
466.93591
 20
-522.08228
 40
1.5
 50
36.869897
 51
143.1301
  0
ARC
  8
0
  6
CONTINUOUS
 62
     7
 10
466.93591
 20
-532.28223
 40
1.5
 50
216.8699
 51
323.1301
  0
ARC
  8
0
  6
CONTINUOUS
 62
     7
 10
466.93591
 20
-544.28223
 40
1.5
 50
216.8699
 51
323.1301
  0
ARC
  8
0
  6
CONTINUOUS
 62
     7
 10
466.93591
 20
-526.57764
 40
12.964616
 50
233.99167
 51
306.00832
  0
ARC
  8
0
  6
CONTINUOUS
 62
     7
 10
466.93591
 20
-526.57764
 40
15.364615
 50
274.47945
 51
306.00832
  0
ARC
  8
0
  6
CONTINUOUS
 62
     7
 10
466.93591
 20
-539.78687
 40
12.964616
 50
95.310878
 51
126.00833
  0
ARC
  8
0
  6
CONTINUOUS
 62
     7
 10
466.93591
 20
-539.78687
 40
15.364615
 50
94.479452
 51
126.00833
  0
ARC
  8
0
  6
CONTINUOUS
 62
     7
 10
794.78345
 20
-340.26157
 40
4.8000002
 50
306.00832
 51
53.991676
  0
ARC
  8
0
  6
CONTINUOUS
 62
     7
 10
794.78345
 20
-340.26157
 40
7.1999998
 50
306.00832
 51
53.991676
  0
ARC
  8
0
  6
CONTINUOUS
 62
     7
 10
785.18347
 20
-340.26157
 40
4.8000002
 50
126.00833
 51
233.99168
  0
ARC
  8
0
  6
CONTINUOUS
 62
     7
 10
785.18347
 20
-340.26157
 40
7.1999998
 50
126.00833
 51
233.99168
  0
ARC
  8
0
  6
CONTINUOUS
 62
     7
 10
789.98346
 20
-346.86618
 40
15.364615
 50
53.991676
 51
85.520553
  0
ARC
  8
0
  6
CONTINUOUS
 62
     7
 10
789.98346
 20
-346.86618
 40
12.964616
 50
53.991676
 51
84.689121
  0
ARC
  8
0
  6
CONTINUOUS
 62
     7
 10
789.98346
 20
-333.65695
 40
15.364615
 50
233.99167
 51
265.52055
  0
ARC
  8
0
  6
CONTINUOUS
 62
     7
 10
789.98346
 20
-329.16159
 40
1.5
 50
36.869897
 51
143.1301
  0
ARC
  8
0
  6
CONTINUOUS
 62
     7
 10
789.98346
 20
-339.36157
 40
1.5
 50
216.8699
 51
323.1301
  0
ARC
  8
0
  6
CONTINUOUS
 62
     7
 10
789.98346
 20
-351.36157
 40
1.5
 50
216.8699
 51
323.1301
  0
ARC
  8
0
  6
CONTINUOUS
 62
     7
 10
789.98346
 20
-333.65695
 40
12.964616
 50
233.99167
 51
306.00832
  0
ARC
  8
0
  6
CONTINUOUS
 62
     7
 10
789.98346
 20
-333.65695
 40
15.364615
 50
274.47945
 51
306.00832
  0
ARC
  8
0
  6
CONTINUOUS
 62
     7
 10
789.98346
 20
-346.86618
 40
12.964616
 50
95.310878
 51
126.00833
  0
ARC
  8
0
  6
CONTINUOUS
 62
     7
 10
789.98346
 20
-346.86618
 40
15.364615
 50
94.479452
 51
126.00833
  0
ARC
  8
0
  6
CONTINUOUS
 62
     7
 10
593.54071
 20
-339.50504
 40
4.8000002
 50
306.00832
 51
53.991676
  0
ARC
  8
0
  6
CONTINUOUS
 62
     7
 10
593.54071
 20
-339.50504
 40
7.1999998
 50
306.00832
 51
53.991676
  0
ARC
  8
0
  6
CONTINUOUS
 62
     7
 10
583.94073
 20
-339.50504
 40
4.8000002
 50
126.00833
 51
233.99168
  0
ARC
  8
0
  6
CONTINUOUS
 62
     7
 10
583.94073
 20
-339.50504
 40
7.1999998
 50
126.00833
 51
233.99168
  0
ARC
  8
0
  6
CONTINUOUS
 62
     7
 10
588.74072
 20
-346.10965
 40
15.364615
 50
53.991676
 51
85.520553
  0
ARC
  8
0
  6
CONTINUOUS
 62
     7
 10
588.74072
 20
-346.10965
 40
12.964616
 50
53.991676
 51
84.689121
  0
ARC
  8
0
  6
CONTINUOUS
 62
     7
 10
588.74072
 20
-332.90042
 40
15.364615
 50
233.99167
 51
265.52055
  0
ARC
  8
0
  6
CONTINUOUS
 62
     7
 10
588.74072
 20
-328.40503
 40
1.5
 50
36.869897
 51
143.1301
  0
ARC
  8
0
  6
CONTINUOUS
 62
     7
 10
588.74072
 20
-338.60504
 40
1.5
 50
216.8699
 51
323.1301
  0
ARC
  8
0
  6
CONTINUOUS
 62
     7
 10
588.74072
 20
-350.60504
 40
1.5
 50
216.8699
 51
323.1301
  0
ARC
  8
0
  6
CONTINUOUS
 62
     7
 10
588.74072
 20
-332.90042
 40
12.964616
 50
233.99167
 51
306.00832
  0
ARC
  8
0
  6
CONTINUOUS
 62
     7
 10
588.74072
 20
-332.90042
 40
15.364615
 50
274.47945
 51
306.00832
  0
ARC
  8
0
  6
CONTINUOUS
 62
     7
 10
588.74072
 20
-346.10965
 40
12.964616
 50
95.310878
 51
126.00833
  0
ARC
  8
0
  6
CONTINUOUS
 62
     7
 10
588.74072
 20
-346.10965
 40
15.364615
 50
94.479452
 51
126.00833
  0
ARC
  8
0
  6
CONTINUOUS
 62
     7
 10
408.94211
 20
-339.50504
 40
4.8000002
 50
306.00832
 51
53.991676
  0
ARC
  8
0
  6
CONTINUOUS
 62
     7
 10
408.94211
 20
-339.50504
 40
7.1999998
 50
306.00832
 51
53.991676
  0
ARC
  8
0
  6
CONTINUOUS
 62
     7
 10
399.3421
 20
-339.50504
 40
4.8000002
 50
126.00833
 51
233.99168
  0
ARC
  8
0
  6
CONTINUOUS
 62
     7
 10
399.3421
 20
-339.50504
 40
7.1999998
 50
126.00833
 51
233.99168
  0
ARC
  8
0
  6
CONTINUOUS
 62
     7
 10
404.14212
 20
-346.10965
 40
15.364615
 50
53.991676
 51
85.520553
  0
ARC
  8
0
  6
CONTINUOUS
 62
     7
 10
404.14212
 20
-346.10965
 40
12.964616
 50
53.991676
 51
84.689121
  0
ARC
  8
0
  6
CONTINUOUS
 62
     7
 10
404.14212
 20
-332.90042
 40
15.364615
 50
233.99167
 51
265.52055
  0
ARC
  8
0
  6
CONTINUOUS
 62
     7
 10
404.14212
 20
-328.40503
 40
1.5
 50
36.869897
 51
143.1301
  0
ARC
  8
0
  6
CONTINUOUS
 62
     7
 10
404.14212
 20
-338.60504
 40
1.5
 50
216.8699
 51
323.1301
  0
ARC
  8
0
  6
CONTINUOUS
 62
     7
 10
404.14212
 20
-350.60504
 40
1.5
 50
216.8699
 51
323.1301
  0
ARC
  8
0
  6
CONTINUOUS
 62
     7
 10
404.14212
 20
-332.90042
 40
12.964616
 50
233.99167
 51
306.00832
  0
ARC
  8
0
  6
CONTINUOUS
 62
     7
 10
404.14212
 20
-332.90042
 40
15.364615
 50
274.47945
 51
306.00832
  0
ARC
  8
0
  6
CONTINUOUS
 62
     7
 10
404.14212
 20
-346.10965
 40
12.964616
 50
95.310878
 51
126.00833
  0
ARC
  8
0
  6
CONTINUOUS
 62
     7
 10
404.14212
 20
-346.10965
 40
15.364615
 50
94.479452
 51
126.00833
  0
ARC
  8
0
  6
CONTINUOUS
 62
     7
 10
175.97404
 20
-850.98236
 40
4.8000002
 50
306.00832
 51
53.991676
  0
ARC
  8
0
  6
CONTINUOUS
 62
     7
 10
175.97404
 20
-850.98236
 40
7.1999998
 50
306.00832
 51
53.991676
  0
ARC
  8
0
  6
CONTINUOUS
 62
     7
 10
166.37405
 20
-850.98236
 40
4.8000002
 50
126.00833
 51
233.99168
  0
ARC
  8
0
  6
CONTINUOUS
 62
     7
 10
166.37405
 20
-850.98236
 40
7.1999998
 50
126.00833
 51
233.99168
  0
ARC
  8
0
  6
CONTINUOUS
 62
     7
 10
171.17406
 20
-857.58698
 40
15.364615
 50
53.991676
 51
85.520553
  0
ARC
  8
0
  6
CONTINUOUS
 62
     7
 10
171.17406
 20
-857.58698
 40
12.964616
 50
53.991676
 51
84.689121
  0
ARC
  8
0
  6
CONTINUOUS
 62
     7
 10
171.17406
 20
-844.37775
 40
15.364615
 50
233.99167
 51
265.52055
  0
ARC
  8
0
  6
CONTINUOUS
 62
     7
 10
171.17406
 20
-839.88232
 40
1.5
 50
36.869897
 51
143.1301
  0
ARC
  8
0
  6
CONTINUOUS
 62
     7
 10
171.17406
 20
-850.08234
 40
1.5
 50
216.8699
 51
323.1301
  0
ARC
  8
0
  6
CONTINUOUS
 62
     7
 10
171.17406
 20
-862.08234
 40
1.5
 50
216.8699
 51
323.1301
  0
ARC
  8
0
  6
CONTINUOUS
 62
     7
 10
171.17406
 20
-844.37775
 40
12.964616
 50
233.99167
 51
306.00832
  0
ARC
  8
0
  6
CONTINUOUS
 62
     7
 10
171.17406
 20
-844.37775
 40
15.364615
 50
274.47945
 51
306.00832
  0
ARC
  8
0
  6
CONTINUOUS
 62
     7
 10
171.17406
 20
-857.58698
 40
12.964616
 50
95.310878
 51
126.00833
  0
ARC
  8
0
  6
CONTINUOUS
 62
     7
 10
171.17406
 20
-857.58698
 40
15.364615
 50
94.479452
 51
126.00833
  0
ARC
  8
0
  6
CONTINUOUS
 62
     7
 10
-13.744475
 20
-850.98236
 40
4.8000002
 50
306.00832
 51
53.991676
  0
ARC
  8
0
  6
CONTINUOUS
 62
     7
 10
-13.744475
 20
-850.98236
 40
7.1999998
 50
306.00832
 51
53.991676
  0
ARC
  8
0
  6
CONTINUOUS
 62
     7
 10
-23.344475
 20
-850.98236
 40
4.8000002
 50
126.00833
 51
233.99168
  0
ARC
  8
0
  6
CONTINUOUS
 62
     7
 10
-23.344475
 20
-850.98236
 40
7.1999998
 50
126.00833
 51
233.99168
  0
ARC
  8
0
  6
CONTINUOUS
 62
     7
 10
-18.544476
 20
-857.58698
 40
15.364615
 50
53.991676
 51
85.520553
  0
ARC
  8
0
  6
CONTINUOUS
 62
     7
 10
-18.544476
 20
-857.58698
 40
12.964616
 50
53.991676
 51
84.689121
  0
ARC
  8
0
  6
CONTINUOUS
 62
     7
 10
-18.544476
 20
-844.37775
 40
15.364615
 50
233.99167
 51
265.52055
  0
ARC
  8
0
  6
CONTINUOUS
 62
     7
 10
-18.544476
 20
-839.88232
 40
1.5
 50
36.869897
 51
143.1301
  0
ARC
  8
0
  6
CONTINUOUS
 62
     7
 10
-18.544476
 20
-850.08234
 40
1.5
 50
216.8699
 51
323.1301
  0
ARC
  8
0
  6
CONTINUOUS
 62
     7
 10
-18.544476
 20
-862.08234
 40
1.5
 50
216.8699
 51
323.1301
  0
ARC
  8
0
  6
CONTINUOUS
 62
     7
 10
-18.544476
 20
-844.37775
 40
12.964616
 50
233.99167
 51
306.00832
  0
ARC
  8
0
  6
CONTINUOUS
 62
     7
 10
-18.544476
 20
-844.37775
 40
15.364615
 50
274.47945
 51
306.00832
  0
ARC
  8
0
  6
CONTINUOUS
 62
     7
 10
-18.544476
 20
-857.58698
 40
12.964616
 50
95.310878
 51
126.00833
  0
ARC
  8
0
  6
CONTINUOUS
 62
     7
 10
-18.544476
 20
-857.58698
 40
15.364615
 50
94.479452
 51
126.00833
  0
ARC
  8
0
  6
CONTINUOUS
 62
     7
 10
-199.60693
 20
-851.75354
 40
4.8000002
 50
306.00832
 51
53.991676
  0
ARC
  8
0
  6
CONTINUOUS
 62
     7
 10
-199.60693
 20
-851.75354
 40
7.1999998
 50
306.00832
 51
53.991676
  0
ARC
  8
0
  6
CONTINUOUS
 62
     7
 10
-209.20694
 20
-851.75354
 40
4.8000002
 50
126.00833
 51
233.99168
  0
ARC
  8
0
  6
CONTINUOUS
 62
     7
 10
-209.20694
 20
-851.75354
 40
7.1999998
 50
126.00833
 51
233.99168
  0
ARC
  8
0
  6
CONTINUOUS
 62
     7
 10
-204.40694
 20
-858.35815
 40
15.364615
 50
53.991676
 51
85.520553
  0
ARC
  8
0
  6
CONTINUOUS
 62
     7
 10
-204.40694
 20
-858.35815
 40
12.964616
 50
53.991676
 51
84.689121
  0
ARC
  8
0
  6
CONTINUOUS
 62
     7
 10
-204.40694
 20
-845.14893
 40
15.364615
 50
233.99167
 51
265.52055
  0
ARC
  8
0
  6
CONTINUOUS
 62
     7
 10
-204.40694
 20
-840.65356
 40
1.5
 50
36.869897
 51
143.1301
  0
ARC
  8
0
  6
CONTINUOUS
 62
     7
 10
-204.40694
 20
-850.85358
 40
1.5
 50
216.8699
 51
323.1301
  0
ARC
  8
0
  6
CONTINUOUS
 62
     7
 10
-204.40694
 20
-862.85358
 40
1.5
 50
216.8699
 51
323.1301
  0
ARC
  8
0
  6
CONTINUOUS
 62
     7
 10
-204.40694
 20
-845.14893
 40
12.964616
 50
233.99167
 51
306.00832
  0
ARC
  8
0
  6
CONTINUOUS
 62
     7
 10
-204.40694
 20
-845.14893
 40
15.364615
 50
274.47945
 51
306.00832
  0
ARC
  8
0
  6
CONTINUOUS
 62
     7
 10
-204.40694
 20
-858.35815
 40
12.964616
 50
95.310878
 51
126.00833
  0
ARC
  8
0
  6
CONTINUOUS
 62
     7
 10
-204.40694
 20
-858.35815
 40
15.364615
 50
94.479452
 51
126.00833
  0
ARC
  8
0
  6
CONTINUOUS
 62
     7
 10
810.62671
 20
-864.8432
 40
4.8000002
 50
306.00832
 51
53.991676
  0
ARC
  8
0
  6
CONTINUOUS
 62
     7
 10
810.62671
 20
-864.8432
 40
7.1999998
 50
306.00832
 51
53.991676
  0
ARC
  8
0
  6
CONTINUOUS
 62
     7
 10
801.02673
 20
-864.8432
 40
4.8000002
 50
126.00833
 51
233.99168
  0
ARC
  8
0
  6
CONTINUOUS
 62
     7
 10
801.02673
 20
-864.8432
 40
7.1999998
 50
126.00833
 51
233.99168
  0
ARC
  8
0
  6
CONTINUOUS
 62
     7
 10
805.82672
 20
-871.44781
 40
15.364615
 50
53.991676
 51
85.520553
  0
ARC
  8
0
  6
CONTINUOUS
 62
     7
 10
805.82672
 20
-871.44781
 40
12.964616
 50
53.991676
 51
84.689121
  0
ARC
  8
0
  6
CONTINUOUS
 62
     7
 10
805.82672
 20
-858.23859
 40
15.364615
 50
233.99167
 51
265.52055
  0
ARC
  8
0
  6
CONTINUOUS
 62
     7
 10
805.82672
 20
-853.74316
 40
1.5
 50
36.869897
 51
143.1301
  0
ARC
  8
0
  6
CONTINUOUS
 62
     7
 10
805.82672
 20
-863.94318
 40
1.5
 50
216.8699
 51
323.1301
  0
ARC
  8
0
  6
CONTINUOUS
 62
     7
 10
805.82672
 20
-875.94318
 40
1.5
 50
216.8699
 51
323.1301
  0
ARC
  8
0
  6
CONTINUOUS
 62
     7
 10
805.82672
 20
-858.23859
 40
12.964616
 50
233.99167
 51
306.00832
  0
ARC
  8
0
  6
CONTINUOUS
 62
     7
 10
805.82672
 20
-858.23859
 40
15.364615
 50
274.47945
 51
306.00832
  0
ARC
  8
0
  6
CONTINUOUS
 62
     7
 10
805.82672
 20
-871.44781
 40
12.964616
 50
95.310878
 51
126.00833
  0
ARC
  8
0
  6
CONTINUOUS
 62
     7
 10
805.82672
 20
-871.44781
 40
15.364615
 50
94.479452
 51
126.00833
  0
ARC
  8
0
  6
CONTINUOUS
 62
     7
 10
594.22729
 20
-865.58032
 40
4.8000002
 50
306.00832
 51
53.991676
  0
ARC
  8
0
  6
CONTINUOUS
 62
     7
 10
594.22729
 20
-865.58032
 40
7.1999998
 50
306.00832
 51
53.991676
  0
ARC
  8
0
  6
CONTINUOUS
 62
     7
 10
584.62726
 20
-865.58032
 40
4.8000002
 50
126.00833
 51
233.99168
  0
ARC
  8
0
  6
CONTINUOUS
 62
     7
 10
584.62726
 20
-865.58032
 40
7.1999998
 50
126.00833
 51
233.99168
  0
ARC
  8
0
  6
CONTINUOUS
 62
     7
 10
589.42731
 20
-872.18494
 40
15.364615
 50
53.991676
 51
85.520553
  0
ARC
  8
0
  6
CONTINUOUS
 62
     7
 10
589.42731
 20
-872.18494
 40
12.964616
 50
53.991676
 51
84.689121
  0
ARC
  8
0
  6
CONTINUOUS
 62
     7
 10
589.42731
 20
-858.97571
 40
15.364615
 50
233.99167
 51
265.52055
  0
ARC
  8
0
  6
CONTINUOUS
 62
     7
 10
589.42731
 20
-854.48035
 40
1.5
 50
36.869897
 51
143.1301
  0
ARC
  8
0
  6
CONTINUOUS
 62
     7
 10
589.42731
 20
-864.68036
 40
1.5
 50
216.8699
 51
323.1301
  0
ARC
  8
0
  6
CONTINUOUS
 62
     7
 10
589.42731
 20
-876.68036
 40
1.5
 50
216.8699
 51
323.1301
  0
ARC
  8
0
  6
CONTINUOUS
 62
     7
 10
589.42731
 20
-858.97571
 40
12.964616
 50
233.99167
 51
306.00832
  0
ARC
  8
0
  6
CONTINUOUS
 62
     7
 10
589.42731
 20
-858.97571
 40
15.364615
 50
274.47945
 51
306.00832
  0
ARC
  8
0
  6
CONTINUOUS
 62
     7
 10
589.42731
 20
-872.18494
 40
12.964616
 50
95.310878
 51
126.00833
  0
ARC
  8
0
  6
CONTINUOUS
 62
     7
 10
589.42731
 20
-872.18494
 40
15.364615
 50
94.479452
 51
126.00833
  0
ARC
  8
0
  6
CONTINUOUS
 62
     7
 10
411.09677
 20
-866.3175
 40
4.8000002
 50
306.00832
 51
53.991676
  0
ARC
  8
0
  6
CONTINUOUS
 62
     7
 10
411.09677
 20
-866.3175
 40
7.1999998
 50
306.00832
 51
53.991676
  0
ARC
  8
0
  6
CONTINUOUS
 62
     7
 10
401.49677
 20
-866.3175
 40
4.8000002
 50
126.00833
 51
233.99168
  0
ARC
  8
0
  6
CONTINUOUS
 62
     7
 10
401.49677
 20
-866.3175
 40
7.1999998
 50
126.00833
 51
233.99168
  0
ARC
  8
0
  6
CONTINUOUS
 62
     7
 10
406.29675
 20
-872.92212
 40
15.364615
 50
53.991676
 51
85.520553
  0
ARC
  8
0
  6
CONTINUOUS
 62
     7
 10
406.29675
 20
-872.92212
 40
12.964616
 50
53.991676
 51
84.689121
  0
ARC
  8
0
  6
CONTINUOUS
 62
     7
 10
406.29675
 20
-859.71289
 40
15.364615
 50
233.99167
 51
265.52055
  0
ARC
  8
0
  6
CONTINUOUS
 62
     7
 10
406.29675
 20
-855.21753
 40
1.5
 50
36.869897
 51
143.1301
  0
ARC
  8
0
  6
CONTINUOUS
 62
     7
 10
406.29675
 20
-865.41748
 40
1.5
 50
216.8699
 51
323.1301
  0
ARC
  8
0
  6
CONTINUOUS
 62
     7
 10
406.29675
 20
-877.41748
 40
1.5
 50
216.8699
 51
323.1301
  0
ARC
  8
0
  6
CONTINUOUS
 62
     7
 10
406.29675
 20
-859.71289
 40
12.964616
 50
233.99167
 51
306.00832
  0
ARC
  8
0
  6
CONTINUOUS
 62
     7
 10
406.29675
 20
-859.71289
 40
15.364615
 50
274.47945
 51
306.00832
  0
ARC
  8
0
  6
CONTINUOUS
 62
     7
 10
406.29675
 20
-872.92212
 40
12.964616
 50
95.310878
 51
126.00833
  0
ARC
  8
0
  6
CONTINUOUS
 62
     7
 10
406.29675
 20
-872.92212
 40
15.364615
 50
94.479452
 51
126.00833
  0
ARC
  8
0
  6
CONTINUOUS
 62
     7
 10
-140.44125
 20
-1292.109
 40
4.8000002
 50
306.00832
 51
53.991676
  0
ARC
  8
0
  6
CONTINUOUS
 62
     7
 10
-140.44125
 20
-1292.109
 40
7.1999998
 50
306.00832
 51
53.991676
  0
ARC
  8
0
  6
CONTINUOUS
 62
     7
 10
-150.04124
 20
-1292.109
 40
4.8000002
 50
126.00833
 51
233.99168
  0
ARC
  8
0
  6
CONTINUOUS
 62
     7
 10
-150.04124
 20
-1292.109
 40
7.1999998
 50
126.00833
 51
233.99168
  0
ARC
  8
0
  6
CONTINUOUS
 62
     7
 10
-145.24124
 20
-1298.7136
 40
15.364615
 50
53.991676
 51
85.520553
  0
ARC
  8
0
  6
CONTINUOUS
 62
     7
 10
-145.24124
 20
-1298.7136
 40
12.964616
 50
53.991676
 51
84.689121
  0
ARC
  8
0
  6
CONTINUOUS
 62
     7
 10
-145.24124
 20
-1285.5044
 40
15.364615
 50
233.99167
 51
265.52055
  0
ARC
  8
0
  6
CONTINUOUS
 62
     7
 10
-145.24124
 20
-1281.009
 40
1.5
 50
36.869897
 51
143.1301
  0
ARC
  8
0
  6
CONTINUOUS
 62
     7
 10
-145.24124
 20
-1291.209
 40
1.5
 50
216.8699
 51
323.1301
  0
ARC
  8
0
  6
CONTINUOUS
 62
     7
 10
-145.24124
 20
-1303.209
 40
1.5
 50
216.8699
 51
323.1301
  0
ARC
  8
0
  6
CONTINUOUS
 62
     7
 10
-145.24124
 20
-1285.5044
 40
12.964616
 50
233.99167
 51
306.00832
  0
ARC
  8
0
  6
CONTINUOUS
 62
     7
 10
-145.24124
 20
-1285.5044
 40
15.364615
 50
274.47945
 51
306.00832
  0
ARC
  8
0
  6
CONTINUOUS
 62
     7
 10
-145.24124
 20
-1298.7136
 40
12.964616
 50
95.310878
 51
126.00833
  0
ARC
  8
0
  6
CONTINUOUS
 62
     7
 10
-145.24124
 20
-1298.7136
 40
15.364615
 50
94.479452
 51
126.00833
  0
ARC
  8
0
  6
CONTINUOUS
 62
     7
 10
135.31633
 20
-1291.3452
 40
4.8000002
 50
306.00832
 51
53.991676
  0
ARC
  8
0
  6
CONTINUOUS
 62
     7
 10
135.31633
 20
-1291.3452
 40
7.1999998
 50
306.00832
 51
53.991676
  0
ARC
  8
0
  6
CONTINUOUS
 62
     7
 10
125.71632
 20
-1291.3452
 40
4.8000002
 50
126.00833
 51
233.99168
  0
ARC
  8
0
  6
CONTINUOUS
 62
     7
 10
125.71632
 20
-1291.3452
 40
7.1999998
 50
126.00833
 51
233.99168
  0
ARC
  8
0
  6
CONTINUOUS
 62
     7
 10
130.51633
 20
-1297.9498
 40
15.364615
 50
53.991676
 51
85.520553
  0
ARC
  8
0
  6
CONTINUOUS
 62
     7
 10
130.51633
 20
-1297.9498
 40
12.964616
 50
53.991676
 51
84.689121
  0
ARC
  8
0
  6
CONTINUOUS
 62
     7
 10
130.51633
 20
-1284.7406
 40
15.364615
 50
233.99167
 51
265.52055
  0
ARC
  8
0
  6
CONTINUOUS
 62
     7
 10
130.51633
 20
-1280.2451
 40
1.5
 50
36.869897
 51
143.1301
  0
ARC
  8
0
  6
CONTINUOUS
 62
     7
 10
130.51633
 20
-1290.4452
 40
1.5
 50
216.8699
 51
323.1301
  0
ARC
  8
0
  6
CONTINUOUS
 62
     7
 10
130.51633
 20
-1302.4452
 40
1.5
 50
216.8699
 51
323.1301
  0
ARC
  8
0
  6
CONTINUOUS
 62
     7
 10
130.51633
 20
-1284.7406
 40
12.964616
 50
233.99167
 51
306.00832
  0
ARC
  8
0
  6
CONTINUOUS
 62
     7
 10
130.51633
 20
-1284.7406
 40
15.364615
 50
274.47945
 51
306.00832
  0
ARC
  8
0
  6
CONTINUOUS
 62
     7
 10
130.51633
 20
-1297.9498
 40
12.964616
 50
95.310878
 51
126.00833
  0
ARC
  8
0
  6
CONTINUOUS
 62
     7
 10
130.51633
 20
-1297.9498
 40
15.364615
 50
94.479452
 51
126.00833
  0
ARC
  8
0
  6
CONTINUOUS
 62
     7
 10
-841.04095
 20
143.24902
 40
3.5
 50
179.99998
 51
270.00003
  0
ARC
  8
0
  6
CONTINUOUS
 62
     7
 10
-841.04095
 20
109.24902
 40
3.5
 50
89.999982
 51
179.99996
  0
ARC
  8
0
  6
CONTINUOUS
 62
     7
 10
-746.08197
 20
107.75789
 40
3.5
 50
89.999982
 51
179.99996
  0
ARC
  8
0
  6
CONTINUOUS
 62
     7
 10
-746.08197
 20
141.75789
 40
3.5
 50
179.99998
 51
270.00003
  0
ARC
  8
0
  6
CONTINUOUS
 62
     7
 10
-636.48389
 20
98.047798
 40
3.5
 50
89.999982
 51
179.99996
  0
ARC
  8
0
  6
CONTINUOUS
 62
     7
 10
-636.48389
 20
138.04781
 40
3.5
 50
179.99998
 51
270.00003
  0
ARC
  8
0
  6
CONTINUOUS
 62
     7
 10
-514.43018
 20
136.29337
 40
4
 50
179.99998
 51
270.00003
  0
ARC
  8
0
  6
CONTINUOUS
 62
     7
 10
-514.43018
 20
101.29337
 40
4
 50
89.999982
 51
179.99996
  0
ARC
  8
0
  6
CONTINUOUS
 62
     7
 10
-851.41479
 20
-9.2886219
 40
4
 50
89.999982
 51
179.99996
  0
ARC
  8
0
  6
CONTINUOUS
 62
     7
 10
-851.41479
 20
31.71138
 40
4
 50
179.99998
 51
270.00003
  0
ARC
  8
0
  6
CONTINUOUS
 62
     7
 10
-769.78046
 20
-15.032439
 40
4
 50
89.999982
 51
179.99996
  0
ARC
  8
0
  6
CONTINUOUS
 62
     7
 10
-769.78046
 20
33.96756
 40
4
 50
179.99998
 51
270.00003
  0
ARC
  8
0
  6
CONTINUOUS
 62
     7
 10
-677.75214
 20
-3.3822589
 40
4
 50
89.999982
 51
179.99996
  0
ARC
  8
0
  6
CONTINUOUS
 62
     7
 10
-677.75214
 20
31.617741
 40
4
 50
179.99998
 51
270.00003
  0
ARC
  8
0
  6
CONTINUOUS
 62
     7
 10
-586.97992
 20
-10.288622
 40
5
 50
89.999982
 51
179.99996
  0
ARC
  8
0
  6
CONTINUOUS
 62
     7
 10
-586.97992
 20
32.71138
 40
5
 50
179.99998
 51
270.00003
  0
ARC
  8
0
  6
CONTINUOUS
 62
     7
 10
-496.23248
 20
-17.194984
 40
5
 50
89.999982
 51
179.99996
  0
ARC
  8
0
  6
CONTINUOUS
 62
     7
 10
-496.23248
 20
33.805016
 40
5
 50
179.99998
 51
270.00003
  0
ARC
  8
0
  6
CONTINUOUS
 62
     7
 10
-398.79071
 20
-25.763893
 40
5
 50
89.999982
 51
179.99996
  0
ARC
  8
0
  6
CONTINUOUS
 62
     7
 10
-398.79071
 20
34.236107
 40
5
 50
179.99998
 51
270.00003
  0
ARC
  8
0
  6
CONTINUOUS
 62
     7
 10
-826.61444
 20
-143.8877
 40
5
 50
89.999982
 51
179.99996
  0
ARC
  8
0
  6
CONTINUOUS
 62
     7
 10
-826.61444
 20
-106.88769
 40
5
 50
179.99998
 51
270.00003
  0
ARC
  8
0
  6
CONTINUOUS
 62
     7
 10
-725.05426
 20
-150.79405
 40
6
 50
89.999982
 51
179.99996
  0
ARC
  8
0
  6
CONTINUOUS
 62
     7
 10
-725.05426
 20
-105.79405
 40
6
 50
179.99998
 51
270.00003
  0
ARC
  8
0
  6
CONTINUOUS
 62
     7
 10
-619.2627
 20
-157.70042
 40
6
 50
89.999982
 51
179.99996
  0
ARC
  8
0
  6
CONTINUOUS
 62
     7
 10
-619.2627
 20
-104.70042
 40
6
 50
179.99998
 51
270.00003
  0
ARC
  8
0
  6
CONTINUOUS
 62
     7
 10
-508.82089
 20
-166.26933
 40
6
 50
89.999982
 51
180.00002
  0
ARC
  8
0
  6
CONTINUOUS
 62
     7
 10
-508.82089
 20
-104.26933
 40
6
 50
180.00002
 51
270
  0
ARC
  8
0
  6
CONTINUOUS
 62
     7
 10
-395.76337
 20
-173.33826
 40
6
 50
89.999982
 51
180.00002
  0
ARC
  8
0
  6
CONTINUOUS
 62
     7
 10
-395.76337
 20
-105.33829
 40
6
 50
180.00002
 51
270
  0
ARC
  8
0
  6
CONTINUOUS
 62
     7
 10
-861.04095
 20
128.04903
 40
1.8
 50
36.008324
 51
143.99167
  0
ARC
  8
0
  6
CONTINUOUS
 62
     7
 10
-861.04095
 20
128.04903
 40
2.7
 50
36.008324
 51
143.99167
  0
ARC
  8
0
  6
CONTINUOUS
 62
     7
 10
-861.04095
 20
124.44901
 40
1.8
 50
216.00833
 51
323.99168
  0
ARC
  8
0
  6
CONTINUOUS
 62
     7
 10
-861.04095
 20
124.44901
 40
2.7
 50
216.00833
 51
323.99168
  0
ARC
  8
0
  6
CONTINUOUS
 62
     7
 10
-858.56421
 20
126.24902
 40
5.7617307
 50
143.99167
 51
175.52055
  0
ARC
  8
0
  6
CONTINUOUS
 62
     7
 10
-858.56421
 20
126.24902
 40
4.8617306
 50
143.99167
 51
174.68912
  0
ARC
  8
0
  6
CONTINUOUS
 62
     7
 10
-863.51764
 20
126.24902
 40
4.8617306
 50
323.99167
 51
36.008324
  0
ARC
  8
0
  6
CONTINUOUS
 62
     7
 10
-863.51764
 20
126.24902
 40
5.7617307
 50
323.99167
 51
355.52055
  0
ARC
  8
0
  6
CONTINUOUS
 62
     7
 10
-865.20343
 20
126.24902
 40
0.5625
 50
126.8699
 51
233.13009
  0
ARC
  8
0
  6
CONTINUOUS
 62
     7
 10
-861.37842
 20
126.24902
 40
0.5625
 50
306.8699
 51
53.130102
  0
ARC
  8
0
  6
CONTINUOUS
 62
     7
 10
-856.87842
 20
126.24902
 40
0.5625
 50
306.8699
 51
53.130102
  0
ARC
  8
0
  6
CONTINUOUS
 62
     7
 10
-858.56421
 20
126.24902
 40
5.7617307
 50
184.47945
 51
216.00833
  0
ARC
  8
0
  6
CONTINUOUS
 62
     7
 10
-858.56421
 20
126.24902
 40
4.8617306
 50
185.31088
 51
216.00833
  0
ARC
  8
0
  6
CONTINUOUS
 62
     7
 10
-863.51764
 20
126.24902
 40
5.7617307
 50
4.4794472
 51
36.008324
  0
ARC
  8
0
  6
CONTINUOUS
 62
     7
 10
-770.08197
 20
127.15788
 40
2.4000001
 50
36.008324
 51
143.99167
  0
ARC
  8
0
  6
CONTINUOUS
 62
     7
 10
-770.08197
 20
127.15788
 40
3.5999999
 50
36.008324
 51
143.99167
  0
ARC
  8
0
  6
CONTINUOUS
 62
     7
 10
-770.08197
 20
122.35789
 40
2.4000001
 50
216.00833
 51
323.99168
  0
ARC
  8
0
  6
CONTINUOUS
 62
     7
 10
-770.08197
 20
122.35789
 40
3.5999999
 50
216.00833
 51
323.99168
  0
ARC
  8
0
  6
CONTINUOUS
 62
     7
 10
-766.77966
 20
124.75789
 40
7.6823077
 50
143.99167
 51
175.52055
  0
ARC
  8
0
  6
CONTINUOUS
 62
     7
 10
-766.77966
 20
124.75789
 40
6.4823079
 50
143.99167
 51
174.68912
  0
ARC
  8
0
  6
CONTINUOUS
 62
     7
 10
-773.38428
 20
124.75789
 40
6.4823079
 50
323.99167
 51
36.008324
  0
ARC
  8
0
  6
CONTINUOUS
 62
     7
 10
-773.38428
 20
124.75789
 40
7.6823077
 50
323.99167
 51
355.52055
  0
ARC
  8
0
  6
CONTINUOUS
 62
     7
 10
-775.63202
 20
124.75789
 40
0.75
 50
126.8699
 51
233.13009
  0
ARC
  8
0
  6
CONTINUOUS
 62
     7
 10
-770.53198
 20
124.75789
 40
0.75
 50
306.8699
 51
53.130102
  0
ARC
  8
0
  6
CONTINUOUS
 62
     7
 10
-764.53198
 20
124.75789
 40
0.75
 50
306.8699
 51
53.130102
  0
ARC
  8
0
  6
CONTINUOUS
 62
     7
 10
-766.77966
 20
124.75789
 40
6.4823079
 50
185.31088
 51
216.00833
  0
ARC
  8
0
  6
CONTINUOUS
 62
     7
 10
-766.77966
 20
124.75789
 40
7.6823077
 50
184.47945
 51
216.00833
  0
ARC
  8
0
  6
CONTINUOUS
 62
     7
 10
-773.38428
 20
124.75789
 40
7.6823077
 50
4.4794472
 51
36.008324
  0
ARC
  8
0
  6
CONTINUOUS
 62
     7
 10
-660.48389
 20
120.4478
 40
2.4000001
 50
36.008324
 51
143.99167
  0
ARC
  8
0
  6
CONTINUOUS
 62
     7
 10
-660.48389
 20
120.4478
 40
3.5999999
 50
36.008324
 51
143.99167
  0
ARC
  8
0
  6
CONTINUOUS
 62
     7
 10
-660.48389
 20
115.6478
 40
2.4000001
 50
216.00833
 51
323.99168
  0
ARC
  8
0
  6
CONTINUOUS
 62
     7
 10
-660.48389
 20
115.6478
 40
3.5999999
 50
216.00833
 51
323.99168
  0
ARC
  8
0
  6
CONTINUOUS
 62
     7
 10
-657.18158
 20
118.04781
 40
7.6823077
 50
143.99167
 51
175.52055
  0
ARC
  8
0
  6
CONTINUOUS
 62
     7
 10
-657.18158
 20
118.04781
 40
6.4823079
 50
143.99167
 51
174.68912
  0
ARC
  8
0
  6
CONTINUOUS
 62
     7
 10
-663.78619
 20
118.04781
 40
6.4823079
 50
323.99167
 51
36.008324
  0
ARC
  8
0
  6
CONTINUOUS
 62
     7
 10
-663.78619
 20
118.04781
 40
7.6823077
 50
323.99167
 51
355.52055
  0
ARC
  8
0
  6
CONTINUOUS
 62
     7
 10
-666.03394
 20
118.04781
 40
0.75
 50
126.8699
 51
233.13009
  0
ARC
  8
0
  6
CONTINUOUS
 62
     7
 10
-660.9339
 20
118.04781
 40
0.75
 50
306.8699
 51
53.130102
  0
ARC
  8
0
  6
CONTINUOUS
 62
     7
 10
-654.9339
 20
118.04781
 40
0.75
 50
306.8699
 51
53.130102
  0
ARC
  8
0
  6
CONTINUOUS
 62
     7
 10
-657.18158
 20
118.04781
 40
6.4823079
 50
185.31088
 51
216.00833
  0
ARC
  8
0
  6
CONTINUOUS
 62
     7
 10
-657.18158
 20
118.04781
 40
7.6823077
 50
184.47945
 51
216.00833
  0
ARC
  8
0
  6
CONTINUOUS
 62
     7
 10
-663.78619
 20
118.04781
 40
7.6823077
 50
4.4794472
 51
36.008324
  0
ARC
  8
0
  6
CONTINUOUS
 62
     7
 10
-543.43018
 20
121.19336
 40
2.4000001
 50
36.008324
 51
143.99167
  0
ARC
  8
0
  6
CONTINUOUS
 62
     7
 10
-543.43018
 20
121.19336
 40
3.5999999
 50
36.008324
 51
143.99167
  0
ARC
  8
0
  6
CONTINUOUS
 62
     7
 10
-543.43018
 20
116.39336
 40
2.4000001
 50
216.00833
 51
323.99168
  0
ARC
  8
0
  6
CONTINUOUS
 62
     7
 10
-543.43018
 20
116.39336
 40
3.5999999
 50
216.00833
 51
323.99168
  0
ARC
  8
0
  6
CONTINUOUS
 62
     7
 10
-540.12787
 20
118.79337
 40
7.6823077
 50
143.99167
 51
175.52055
  0
ARC
  8
0
  6
CONTINUOUS
 62
     7
 10
-540.12787
 20
118.79337
 40
6.4823079
 50
143.99167
 51
174.68912
  0
ARC
  8
0
  6
CONTINUOUS
 62
     7
 10
-546.73248
 20
118.79337
 40
6.4823079
 50
323.99167
 51
36.008324
  0
ARC
  8
0
  6
CONTINUOUS
 62
     7
 10
-546.73248
 20
118.79337
 40
7.6823077
 50
323.99167
 51
355.52055
  0
ARC
  8
0
  6
CONTINUOUS
 62
     7
 10
-548.98016
 20
118.79337
 40
0.75
 50
126.8699
 51
233.13009
  0
ARC
  8
0
  6
CONTINUOUS
 62
     7
 10
-543.88019
 20
118.79337
 40
0.75
 50
306.8699
 51
53.130102
  0
ARC
  8
0
  6
CONTINUOUS
 62
     7
 10
-537.88019
 20
118.79337
 40
0.75
 50
306.8699
 51
53.130102
  0
ARC
  8
0
  6
CONTINUOUS
 62
     7
 10
-540.12787
 20
118.79337
 40
6.4823079
 50
185.31088
 51
216.00833
  0
ARC
  8
0
  6
CONTINUOUS
 62
     7
 10
-540.12787
 20
118.79337
 40
7.6823077
 50
184.47945
 51
216.00833
  0
ARC
  8
0
  6
CONTINUOUS
 62
     7
 10
-546.73248
 20
118.79337
 40
7.6823077
 50
4.4794472
 51
36.008324
  0
ARC
  8
0
  6
CONTINUOUS
 62
     7
 10
-880.41479
 20
13.611378
 40
2.4000001
 50
36.008324
 51
143.99167
  0
ARC
  8
0
  6
CONTINUOUS
 62
     7
 10
-880.41479
 20
13.611378
 40
3.5999999
 50
36.008324
 51
143.99167
  0
ARC
  8
0
  6
CONTINUOUS
 62
     7
 10
-880.41479
 20
8.8113785
 40
2.4000001
 50
216.00833
 51
323.99168
  0
ARC
  8
0
  6
CONTINUOUS
 62
     7
 10
-880.41479
 20
8.8113785
 40
3.5999999
 50
216.00833
 51
323.99168
  0
ARC
  8
0
  6
CONTINUOUS
 62
     7
 10
-877.11249
 20
11.211378
 40
7.6823077
 50
143.99167
 51
175.52055
  0
ARC
  8
0
  6
CONTINUOUS
 62
     7
 10
-877.11249
 20
11.211378
 40
6.4823079
 50
143.99167
 51
174.68912
  0
ARC
  8
0
  6
CONTINUOUS
 62
     7
 10
-883.7171
 20
11.211378
 40
6.4823079
 50
323.99167
 51
36.008324
  0
ARC
  8
0
  6
CONTINUOUS
 62
     7
 10
-883.7171
 20
11.211378
 40
7.6823077
 50
323.99167
 51
355.52055
  0
ARC
  8
0
  6
CONTINUOUS
 62
     7
 10
-885.96484
 20
11.211378
 40
0.75
 50
126.8699
 51
233.13009
  0
ARC
  8
0
  6
CONTINUOUS
 62
     7
 10
-880.86481
 20
11.211378
 40
0.75
 50
306.8699
 51
53.130102
  0
ARC
  8
0
  6
CONTINUOUS
 62
     7
 10
-874.86481
 20
11.211378
 40
0.75
 50
306.8699
 51
53.130102
  0
ARC
  8
0
  6
CONTINUOUS
 62
     7
 10
-877.11249
 20
11.211378
 40
6.4823079
 50
185.31088
 51
216.00833
  0
ARC
  8
0
  6
CONTINUOUS
 62
     7
 10
-877.11249
 20
11.211378
 40
7.6823077
 50
184.47945
 51
216.00833
  0
ARC
  8
0
  6
CONTINUOUS
 62
     7
 10
-883.7171
 20
11.211378
 40
7.6823077
 50
4.4794472
 51
36.008324
  0
ARC
  8
0
  6
CONTINUOUS
 62
     7
 10
-798.78046
 20
11.867559
 40
2.4000001
 50
36.008324
 51
143.99167
  0
ARC
  8
0
  6
CONTINUOUS
 62
     7
 10
-798.78046
 20
11.867559
 40
3.5999999
 50
36.008324
 51
143.99167
  0
ARC
  8
0
  6
CONTINUOUS
 62
     7
 10
-798.78046
 20
7.0675597
 40
2.4000001
 50
216.00833
 51
323.99168
  0
ARC
  8
0
  6
CONTINUOUS
 62
     7
 10
-798.78046
 20
7.0675597
 40
3.5999999
 50
216.00833
 51
323.99168
  0
ARC
  8
0
  6
CONTINUOUS
 62
     7
 10
-795.47815
 20
9.4675598
 40
7.6823077
 50
143.99167
 51
175.52055
  0
ARC
  8
0
  6
CONTINUOUS
 62
     7
 10
-795.47815
 20
9.4675598
 40
6.4823079
 50
143.99167
 51
174.68912
  0
ARC
  8
0
  6
CONTINUOUS
 62
     7
 10
-802.08276
 20
9.4675598
 40
6.4823079
 50
323.99167
 51
36.008324
  0
ARC
  8
0
  6
CONTINUOUS
 62
     7
 10
-802.08276
 20
9.4675598
 40
7.6823077
 50
323.99167
 51
355.52055
  0
ARC
  8
0
  6
CONTINUOUS
 62
     7
 10
-804.33051
 20
9.4675598
 40
0.75
 50
126.8699
 51
233.13009
  0
ARC
  8
0
  6
CONTINUOUS
 62
     7
 10
-799.23047
 20
9.4675598
 40
0.75
 50
306.8699
 51
53.130102
  0
ARC
  8
0
  6
CONTINUOUS
 62
     7
 10
-793.23047
 20
9.4675598
 40
0.75
 50
306.8699
 51
53.130102
  0
ARC
  8
0
  6
CONTINUOUS
 62
     7
 10
-795.47815
 20
9.4675598
 40
6.4823079
 50
185.31088
 51
216.00833
  0
ARC
  8
0
  6
CONTINUOUS
 62
     7
 10
-795.47815
 20
9.4675598
 40
7.6823077
 50
184.47945
 51
216.00833
  0
ARC
  8
0
  6
CONTINUOUS
 62
     7
 10
-802.08276
 20
9.4675598
 40
7.6823077
 50
4.4794472
 51
36.008324
  0
ARC
  8
0
  6
CONTINUOUS
 62
     7
 10
-709.75214
 20
16.517742
 40
2.4000001
 50
36.008324
 51
143.99167
  0
ARC
  8
0
  6
CONTINUOUS
 62
     7
 10
-709.75214
 20
16.517742
 40
3.5999999
 50
36.008324
 51
143.99167
  0
ARC
  8
0
  6
CONTINUOUS
 62
     7
 10
-709.75214
 20
11.717743
 40
2.4000001
 50
216.00833
 51
323.99168
  0
ARC
  8
0
  6
CONTINUOUS
 62
     7
 10
-709.75214
 20
11.717743
 40
3.5999999
 50
216.00833
 51
323.99168
  0
ARC
  8
0
  6
CONTINUOUS
 62
     7
 10
-706.44983
 20
14.117743
 40
7.6823077
 50
143.99167
 51
175.52055
  0
ARC
  8
0
  6
CONTINUOUS
 62
     7
 10
-706.44983
 20
14.117743
 40
6.4823079
 50
143.99167
 51
174.68912
  0
ARC
  8
0
  6
CONTINUOUS
 62
     7
 10
-713.05444
 20
14.117743
 40
6.4823079
 50
323.99167
 51
36.008324
  0
ARC
  8
0
  6
CONTINUOUS
 62
     7
 10
-713.05444
 20
14.117743
 40
7.6823077
 50
323.99167
 51
355.52055
  0
ARC
  8
0
  6
CONTINUOUS
 62
     7
 10
-715.30212
 20
14.117743
 40
0.75
 50
126.8699
 51
233.13009
  0
ARC
  8
0
  6
CONTINUOUS
 62
     7
 10
-710.20215
 20
14.117743
 40
0.75
 50
306.8699
 51
53.130102
  0
ARC
  8
0
  6
CONTINUOUS
 62
     7
 10
-704.20215
 20
14.117743
 40
0.75
 50
306.8699
 51
53.130102
  0
ARC
  8
0
  6
CONTINUOUS
 62
     7
 10
-706.44983
 20
14.117743
 40
6.4823079
 50
185.31088
 51
216.00833
  0
ARC
  8
0
  6
CONTINUOUS
 62
     7
 10
-706.44983
 20
14.117743
 40
7.6823077
 50
184.47945
 51
216.00833
  0
ARC
  8
0
  6
CONTINUOUS
 62
     7
 10
-713.05444
 20
14.117743
 40
7.6823077
 50
4.4794472
 51
36.008324
  0
ARC
  8
0
  6
CONTINUOUS
 62
     7
 10
-619.97998
 20
13.611378
 40
2.4000001
 50
36.008324
 51
143.99167
  0
ARC
  8
0
  6
CONTINUOUS
 62
     7
 10
-619.97998
 20
13.611378
 40
3.5999999
 50
36.008324
 51
143.99167
  0
ARC
  8
0
  6
CONTINUOUS
 62
     7
 10
-619.97998
 20
8.8113785
 40
2.4000001
 50
216.00833
 51
323.99168
  0
ARC
  8
0
  6
CONTINUOUS
 62
     7
 10
-619.97998
 20
8.8113785
 40
3.5999999
 50
216.00833
 51
323.99168
  0
ARC
  8
0
  6
CONTINUOUS
 62
     7
 10
-616.67767
 20
11.211378
 40
7.6823077
 50
143.99167
 51
175.52055
  0
ARC
  8
0
  6
CONTINUOUS
 62
     7
 10
-616.67767
 20
11.211378
 40
6.4823079
 50
143.99167
 51
174.68912
  0
ARC
  8
0
  6
CONTINUOUS
 62
     7
 10
-623.28229
 20
11.211378
 40
6.4823079
 50
323.99167
 51
36.008324
  0
ARC
  8
0
  6
CONTINUOUS
 62
     7
 10
-623.28229
 20
11.211378
 40
7.6823077
 50
323.99167
 51
355.52055
  0
ARC
  8
0
  6
CONTINUOUS
 62
     7
 10
-625.52997
 20
11.211378
 40
0.75
 50
126.8699
 51
233.13009
  0
ARC
  8
0
  6
CONTINUOUS
 62
     7
 10
-620.42999
 20
11.211378
 40
0.75
 50
306.8699
 51
53.130102
  0
ARC
  8
0
  6
CONTINUOUS
 62
     7
 10
-614.42999
 20
11.211378
 40
0.75
 50
306.8699
 51
53.130102
  0
ARC
  8
0
  6
CONTINUOUS
 62
     7
 10
-616.67767
 20
11.211378
 40
6.4823079
 50
185.31088
 51
216.00833
  0
ARC
  8
0
  6
CONTINUOUS
 62
     7
 10
-616.67767
 20
11.211378
 40
7.6823077
 50
184.47945
 51
216.00833
  0
ARC
  8
0
  6
CONTINUOUS
 62
     7
 10
-623.28229
 20
11.211378
 40
7.6823077
 50
4.4794472
 51
36.008324
  0
ARC
  8
0
  6
CONTINUOUS
 62
     7
 10
-529.23254
 20
10.705015
 40
2.4000001
 50
36.008324
 51
143.99167
  0
ARC
  8
0
  6
CONTINUOUS
 62
     7
 10
-529.23254
 20
10.705015
 40
3.5999999
 50
36.008324
 51
143.99167
  0
ARC
  8
0
  6
CONTINUOUS
 62
     7
 10
-529.23254
 20
5.9050155
 40
2.4000001
 50
216.00833
 51
323.99168
  0
ARC
  8
0
  6
CONTINUOUS
 62
     7
 10
-529.23254
 20
5.9050155
 40
3.5999999
 50
216.00833
 51
323.99168
  0
ARC
  8
0
  6
CONTINUOUS
 62
     7
 10
-525.93024
 20
8.3050156
 40
7.6823077
 50
143.99167
 51
175.52055
  0
ARC
  8
0
  6
CONTINUOUS
 62
     7
 10
-525.93024
 20
8.3050156
 40
6.4823079
 50
143.99167
 51
174.68912
  0
ARC
  8
0
  6
CONTINUOUS
 62
     7
 10
-532.53485
 20
8.3050156
 40
6.4823079
 50
323.99167
 51
36.008324
  0
ARC
  8
0
  6
CONTINUOUS
 62
     7
 10
-532.53485
 20
8.3050156
 40
7.6823077
 50
323.99167
 51
355.52055
  0
ARC
  8
0
  6
CONTINUOUS
 62
     7
 10
-534.78253
 20
8.3050156
 40
0.75
 50
126.8699
 51
233.13009
  0
ARC
  8
0
  6
CONTINUOUS
 62
     7
 10
-529.6825
 20
8.3050156
 40
0.75
 50
306.8699
 51
53.130102
  0
ARC
  8
0
  6
CONTINUOUS
 62
     7
 10
-523.6825
 20
8.3050156
 40
0.75
 50
306.8699
 51
53.130102
  0
ARC
  8
0
  6
CONTINUOUS
 62
     7
 10
-525.93024
 20
8.3050156
 40
6.4823079
 50
185.31088
 51
216.00833
  0
ARC
  8
0
  6
CONTINUOUS
 62
     7
 10
-525.93024
 20
8.3050156
 40
7.6823077
 50
184.47945
 51
216.00833
  0
ARC
  8
0
  6
CONTINUOUS
 62
     7
 10
-532.53485
 20
8.3050156
 40
7.6823077
 50
4.4794472
 51
36.008324
  0
ARC
  8
0
  6
CONTINUOUS
 62
     7
 10
-431.79071
 20
6.636106
 40
2.4000001
 50
36.008324
 51
143.99167
  0
ARC
  8
0
  6
CONTINUOUS
 62
     7
 10
-431.79071
 20
6.636106
 40
3.5999999
 50
36.008324
 51
143.99167
  0
ARC
  8
0
  6
CONTINUOUS
 62
     7
 10
-431.79071
 20
1.8361068
 40
2.4000001
 50
216.00833
 51
323.99168
  0
ARC
  8
0
  6
CONTINUOUS
 62
     7
 10
-431.79071
 20
1.8361068
 40
3.5999999
 50
216.00833
 51
323.99168
  0
ARC
  8
0
  6
CONTINUOUS
 62
     7
 10
-428.4884
 20
4.2361064
 40
7.6823077
 50
143.99167
 51
175.52055
  0
ARC
  8
0
  6
CONTINUOUS
 62
     7
 10
-428.4884
 20
4.2361064
 40
6.4823079
 50
143.99167
 51
174.68912
  0
ARC
  8
0
  6
CONTINUOUS
 62
     7
 10
-435.09302
 20
4.2361064
 40
6.4823079
 50
323.99167
 51
36.008324
  0
ARC
  8
0
  6
CONTINUOUS
 62
     7
 10
-435.09302
 20
4.2361064
 40
7.6823077
 50
323.99167
 51
355.52055
  0
ARC
  8
0
  6
CONTINUOUS
 62
     7
 10
-437.34073
 20
4.2361064
 40
0.75
 50
126.8699
 51
233.13009
  0
ARC
  8
0
  6
CONTINUOUS
 62
     7
 10
-432.24072
 20
4.2361064
 40
0.75
 50
306.8699
 51
53.130102
  0
ARC
  8
0
  6
CONTINUOUS
 62
     7
 10
-426.24072
 20
4.2361064
 40
0.75
 50
306.8699
 51
53.130102
  0
ARC
  8
0
  6
CONTINUOUS
 62
     7
 10
-428.4884
 20
4.2361064
 40
6.4823079
 50
185.31088
 51
216.00833
  0
ARC
  8
0
  6
CONTINUOUS
 62
     7
 10
-428.4884
 20
4.2361064
 40
7.6823077
 50
184.47945
 51
216.00833
  0
ARC
  8
0
  6
CONTINUOUS
 62
     7
 10
-435.09302
 20
4.2361064
 40
7.6823077
 50
4.4794472
 51
36.008324
  0
ARC
  8
0
  6
CONTINUOUS
 62
     7
 10
-866.11444
 20
-122.38769
 40
3
 50
36.008324
 51
143.99167
  0
ARC
  8
0
  6
CONTINUOUS
 62
     7
 10
-866.11444
 20
-122.38769
 40
4.5
 50
36.008324
 51
143.99167
  0
ARC
  8
0
  6
CONTINUOUS
 62
     7
 10
-866.11444
 20
-128.3877
 40
3
 50
216.00833
 51
323.99168
  0
ARC
  8
0
  6
CONTINUOUS
 62
     7
 10
-866.11444
 20
-128.3877
 40
4.5
 50
216.00833
 51
323.99168
  0
ARC
  8
0
  6
CONTINUOUS
 62
     7
 10
-861.98657
 20
-125.38769
 40
9.6028843
 50
143.99167
 51
175.52055
  0
ARC
  8
0
  6
CONTINUOUS
 62
     7
 10
-861.98657
 20
-125.38769
 40
8.1028843
 50
143.99167
 51
174.68912
  0
ARC
  8
0
  6
CONTINUOUS
 62
     7
 10
-870.24237
 20
-125.38769
 40
8.1028843
 50
323.99167
 51
36.008324
  0
ARC
  8
0
  6
CONTINUOUS
 62
     7
 10
-870.24237
 20
-125.38769
 40
9.6028843
 50
323.99167
 51
355.52055
  0
ARC
  8
0
  6
CONTINUOUS
 62
     7
 10
-873.05194
 20
-125.38769
 40
0.9375
 50
126.8699
 51
233.13009
  0
ARC
  8
0
  6
CONTINUOUS
 62
     7
 10
-866.67694
 20
-125.38769
 40
0.9375
 50
306.8699
 51
53.130102
  0
ARC
  8
0
  6
CONTINUOUS
 62
     7
 10
-859.17694
 20
-125.38769
 40
0.9375
 50
306.8699
 51
53.130102
  0
ARC
  8
0
  6
CONTINUOUS
 62
     7
 10
-861.98657
 20
-125.38769
 40
9.6028843
 50
184.47945
 51
216.00833
  0
ARC
  8
0
  6
CONTINUOUS
 62
     7
 10
-861.98657
 20
-125.38769
 40
8.1028843
 50
185.31088
 51
216.00833
  0
ARC
  8
0
  6
CONTINUOUS
 62
     7
 10
-870.24237
 20
-125.38769
 40
9.6028843
 50
4.4794472
 51
36.008324
  0
ARC
  8
0
  6
CONTINUOUS
 62
     7
 10
-765.55432
 20
-125.29405
 40
3
 50
36.008324
 51
143.99167
  0
ARC
  8
0
  6
CONTINUOUS
 62
     7
 10
-765.55432
 20
-125.29405
 40
4.5
 50
36.008324
 51
143.99167
  0
ARC
  8
0
  6
CONTINUOUS
 62
     7
 10
-765.55432
 20
-131.29405
 40
3
 50
216.00833
 51
323.99168
  0
ARC
  8
0
  6
CONTINUOUS
 62
     7
 10
-765.55432
 20
-131.29405
 40
4.5
 50
216.00833
 51
323.99168
  0
ARC
  8
0
  6
CONTINUOUS
 62
     7
 10
-761.42639
 20
-128.29405
 40
9.6028843
 50
143.99167
 51
175.52055
  0
ARC
  8
0
  6
CONTINUOUS
 62
     7
 10
-761.42639
 20
-128.29405
 40
8.1028843
 50
143.99167
 51
174.68912
  0
ARC
  8
0
  6
CONTINUOUS
 62
     7
 10
-769.68219
 20
-128.29405
 40
8.1028843
 50
323.99167
 51
36.008324
  0
ARC
  8
0
  6
CONTINUOUS
 62
     7
 10
-769.68219
 20
-128.29405
 40
9.6028843
 50
323.99167
 51
355.52055
  0
ARC
  8
0
  6
CONTINUOUS
 62
     7
 10
-772.49182
 20
-128.29405
 40
0.9375
 50
126.8699
 51
233.13009
  0
ARC
  8
0
  6
CONTINUOUS
 62
     7
 10
-766.11682
 20
-128.29405
 40
0.9375
 50
306.8699
 51
53.130102
  0
ARC
  8
0
  6
CONTINUOUS
 62
     7
 10
-758.61682
 20
-128.29405
 40
0.9375
 50
306.8699
 51
53.130102
  0
ARC
  8
0
  6
CONTINUOUS
 62
     7
 10
-761.42639
 20
-128.29405
 40
9.6028843
 50
184.47945
 51
216.00833
  0
ARC
  8
0
  6
CONTINUOUS
 62
     7
 10
-761.42639
 20
-128.29405
 40
8.1028843
 50
185.31088
 51
216.00833
  0
ARC
  8
0
  6
CONTINUOUS
 62
     7
 10
-769.68219
 20
-128.29405
 40
9.6028843
 50
4.4794472
 51
36.008324
  0
ARC
  8
0
  6
CONTINUOUS
 62
     7
 10
-659.7627
 20
-128.20042
 40
3
 50
36.008324
 51
143.99167
  0
ARC
  8
0
  6
CONTINUOUS
 62
     7
 10
-659.7627
 20
-128.20042
 40
4.5
 50
36.008324
 51
143.99167
  0
ARC
  8
0
  6
CONTINUOUS
 62
     7
 10
-659.7627
 20
-134.20042
 40
3
 50
216.00833
 51
323.99168
  0
ARC
  8
0
  6
CONTINUOUS
 62
     7
 10
-659.7627
 20
-134.20042
 40
4.5
 50
216.00833
 51
323.99168
  0
ARC
  8
0
  6
CONTINUOUS
 62
     7
 10
-655.63483
 20
-131.20042
 40
9.6028843
 50
143.99167
 51
175.52055
  0
ARC
  8
0
  6
CONTINUOUS
 62
     7
 10
-655.63483
 20
-131.20042
 40
8.1028843
 50
143.99167
 51
174.68912
  0
ARC
  8
0
  6
CONTINUOUS
 62
     7
 10
-663.89056
 20
-131.20042
 40
8.1028843
 50
323.99167
 51
36.008324
  0
ARC
  8
0
  6
CONTINUOUS
 62
     7
 10
-663.89056
 20
-131.20042
 40
9.6028843
 50
323.99167
 51
355.52055
  0
ARC
  8
0
  6
CONTINUOUS
 62
     7
 10
-666.7002
 20
-131.20042
 40
0.9375
 50
126.8699
 51
233.13009
  0
ARC
  8
0
  6
CONTINUOUS
 62
     7
 10
-660.3252
 20
-131.20042
 40
0.9375
 50
306.8699
 51
53.130102
  0
ARC
  8
0
  6
CONTINUOUS
 62
     7
 10
-652.8252
 20
-131.20042
 40
0.9375
 50
306.8699
 51
53.130102
  0
ARC
  8
0
  6
CONTINUOUS
 62
     7
 10
-655.63483
 20
-131.20042
 40
9.6028843
 50
184.47945
 51
216.00833
  0
ARC
  8
0
  6
CONTINUOUS
 62
     7
 10
-655.63483
 20
-131.20042
 40
8.1028843
 50
185.31088
 51
216.00833
  0
ARC
  8
0
  6
CONTINUOUS
 62
     7
 10
-663.89056
 20
-131.20042
 40
9.6028843
 50
4.4794472
 51
36.008324
  0
ARC
  8
0
  6
CONTINUOUS
 62
     7
 10
-549.32086
 20
-132.26933
 40
3
 50
36.008324
 51
143.99167
  0
ARC
  8
0
  6
CONTINUOUS
 62
     7
 10
-549.32086
 20
-132.26933
 40
4.5
 50
36.008324
 51
143.99167
  0
ARC
  8
0
  6
CONTINUOUS
 62
     7
 10
-549.32086
 20
-138.26933
 40
3
 50
216.00833
 51
323.99168
  0
ARC
  8
0
  6
CONTINUOUS
 62
     7
 10
-549.32086
 20
-138.26933
 40
4.5
 50
216.00833
 51
323.99168
  0
ARC
  8
0
  6
CONTINUOUS
 62
     7
 10
-545.19299
 20
-135.26933
 40
9.6028843
 50
143.99167
 51
175.52055
  0
ARC
  8
0
  6
CONTINUOUS
 62
     7
 10
-545.19299
 20
-135.26933
 40
8.1028843
 50
143.99167
 51
174.68912
  0
ARC
  8
0
  6
CONTINUOUS
 62
     7
 10
-553.44879
 20
-135.26933
 40
8.1028843
 50
323.99167
 51
36.008324
  0
ARC
  8
0
  6
CONTINUOUS
 62
     7
 10
-553.44879
 20
-135.26933
 40
9.6028843
 50
323.99167
 51
355.52055
  0
ARC
  8
0
  6
CONTINUOUS
 62
     7
 10
-556.25836
 20
-135.26933
 40
0.9375
 50
126.8699
 51
233.13009
  0
ARC
  8
0
  6
CONTINUOUS
 62
     7
 10
-549.88336
 20
-135.26933
 40
0.9375
 50
306.8699
 51
53.130102
  0
ARC
  8
0
  6
CONTINUOUS
 62
     7
 10
-542.38336
 20
-135.26933
 40
0.9375
 50
306.8699
 51
53.130102
  0
ARC
  8
0
  6
CONTINUOUS
 62
     7
 10
-545.19299
 20
-135.26933
 40
9.6028843
 50
184.47945
 51
216.00833
  0
ARC
  8
0
  6
CONTINUOUS
 62
     7
 10
-545.19299
 20
-135.26933
 40
8.1028843
 50
185.31088
 51
216.00833
  0
ARC
  8
0
  6
CONTINUOUS
 62
     7
 10
-553.44879
 20
-135.26933
 40
9.6028843
 50
4.4794472
 51
36.008324
  0
ARC
  8
0
  6
CONTINUOUS
 62
     7
 10
-436.26337
 20
-136.33824
 40
3
 50
36.008324
 51
143.99167
  0
ARC
  8
0
  6
CONTINUOUS
 62
     7
 10
-436.26337
 20
-136.33824
 40
4.5
 50
36.008324
 51
143.99167
  0
ARC
  8
0
  6
CONTINUOUS
 62
     7
 10
-436.26337
 20
-142.33824
 40
3
 50
216.00833
 51
323.99168
  0
ARC
  8
0
  6
CONTINUOUS
 62
     7
 10
-436.26337
 20
-142.33824
 40
4.5
 50
216.00833
 51
323.99168
  0
ARC
  8
0
  6
CONTINUOUS
 62
     7
 10
-432.13547
 20
-139.33824
 40
9.6028843
 50
143.99167
 51
175.52055
  0
ARC
  8
0
  6
CONTINUOUS
 62
     7
 10
-432.13547
 20
-139.33824
 40
8.1028843
 50
143.99167
 51
174.68912
  0
ARC
  8
0
  6
CONTINUOUS
 62
     7
 10
-440.39124
 20
-139.33824
 40
8.1028843
 50
323.99167
 51
36.008324
  0
ARC
  8
0
  6
CONTINUOUS
 62
     7
 10
-440.39124
 20
-139.33824
 40
9.6028843
 50
323.99167
 51
355.52055
  0
ARC
  8
0
  6
CONTINUOUS
 62
     7
 10
-443.20087
 20
-139.33824
 40
0.9375
 50
126.8699
 51
233.13009
  0
ARC
  8
0
  6
CONTINUOUS
 62
     7
 10
-436.82587
 20
-139.33824
 40
0.9375
 50
306.8699
 51
53.130102
  0
ARC
  8
0
  6
CONTINUOUS
 62
     7
 10
-429.32587
 20
-139.33824
 40
0.9375
 50
306.8699
 51
53.130102
  0
ARC
  8
0
  6
CONTINUOUS
 62
     7
 10
-432.13547
 20
-139.33824
 40
9.6028843
 50
184.47945
 51
216.00833
  0
ARC
  8
0
  6
CONTINUOUS
 62
     7
 10
-432.13547
 20
-139.33824
 40
8.1028843
 50
185.31088
 51
216.00833
  0
ARC
  8
0
  6
CONTINUOUS
 62
     7
 10
-440.39124
 20
-139.33824
 40
9.6028843
 50
4.4794472
 51
36.008324
  0
ARC
  8
0
  6
CONTINUOUS
 62
     7
 10
-880.54095
 20
105.84712
 40
3
 50
299.99983
 51
0
  0
ARC
  8
0
  6
CONTINUOUS
 62
     7
 10
-841.54095
 20
105.84711
 40
3
 50
179.99999
 51
239.99987
  0
ARC
  8
0
  6
CONTINUOUS
 62
     7
 10
-839.63904
 20
109.74902
 40
3
 50
29.99983
 51
90.000003
  0
ARC
  8
0
  6
CONTINUOUS
 62
     7
 10
-880.54095
 20
146.65091
 40
3
 50
0
 51
60.000166
  0
ARC
  8
0
  6
CONTINUOUS
 62
     7
 10
-841.54095
 20
146.65092
 40
3
 50
120.00013
 51
180.00001
  0
ARC
  8
0
  6
CONTINUOUS
 62
     7
 10
-839.63904
 20
142.74901
 40
3
 50
270
 51
330.00017
  0
ARC
  8
0
  6
CONTINUOUS
 62
     7
 10
-793.58197
 20
102.35598
 40
3
 50
300
 51
0
  0
ARC
  8
0
  6
CONTINUOUS
 62
     7
 10
-746.58197
 20
102.35597
 40
3
 50
179.99999
 51
239.99968
  0
ARC
  8
0
  6
CONTINUOUS
 62
     7
 10
-745.68005
 20
108.25789
 40
3
 50
30.000001
 51
90.000003
  0
ARC
  8
0
  6
CONTINUOUS
 62
     7
 10
-793.58197
 20
147.15981
 40
3
 50
0
 51
60.000002
  0
ARC
  8
0
  6
CONTINUOUS
 62
     7
 10
-746.58197
 20
147.15981
 40
3
 50
120.00033
 51
180.00001
  0
ARC
  8
0
  6
CONTINUOUS
 62
     7
 10
-745.68005
 20
141.25789
 40
3
 50
270
 51
330
  0
ARC
  8
0
  6
CONTINUOUS
 62
     7
 10
-683.98389
 20
93.645889
 40
3
 50
300
 51
0
  0
ARC
  8
0
  6
CONTINUOUS
 62
     7
 10
-636.98389
 20
93.645889
 40
3
 50
179.99999
 51
240.00001
  0
ARC
  8
0
  6
CONTINUOUS
 62
     7
 10
-634.08197
 20
98.547798
 40
3
 50
30.000168
 51
90.000003
  0
ARC
  8
0
  6
CONTINUOUS
 62
     7
 10
-683.98389
 20
142.44972
 40
3
 50
0
 51
60.000002
  0
ARC
  8
0
  6
CONTINUOUS
 62
     7
 10
-636.98389
 20
142.44972
 40
3
 50
120
 51
180.00001
  0
ARC
  8
0
  6
CONTINUOUS
 62
     7
 10
-634.08197
 20
137.54781
 40
3
 50
270
 51
329.99983
  0
ARC
  8
0
  6
CONTINUOUS
 62
     7
 10
-826.78046
 20
-19.934349
 40
3
 50
300
 51
0
  0
ARC
  8
0
  6
CONTINUOUS
 62
     7
 10
-514.02826
 20
102.29337
 40
3
 50
30.000001
 51
90.000003
  0
ARC
  8
0
  6
CONTINUOUS
 62
     7
 10
-770.78046
 20
-19.934359
 40
3
 50
179.99999
 51
239.99968
  0
ARC
  8
0
  6
CONTINUOUS
 62
     7
 10
-571.43018
 20
142.19528
 40
3
 50
0
 51
60.000002
  0
ARC
  8
0
  6
CONTINUOUS
 62
     7
 10
-515.43018
 20
142.19528
 40
3
 50
120.00033
 51
180.00001
  0
ARC
  8
0
  6
CONTINUOUS
 62
     7
 10
-514.02826
 20
135.29337
 40
3
 50
270
 51
330
  0
ARC
  8
0
  6
CONTINUOUS
 62
     7
 10
-571.43018
 20
95.391457
 40
3
 50
300
 51
0
  0
ARC
  8
0
  6
CONTINUOUS
 62
     7
 10
-515.43018
 20
95.391449
 40
3
 50
179.99999
 51
239.99968
  0
ARC
  8
0
  6
CONTINUOUS
 62
     7
 10
-908.41479
 20
-16.190531
 40
3
 50
300
 51
0
  0
ARC
  8
0
  6
CONTINUOUS
 62
     7
 10
-852.41479
 20
-16.19054
 40
3
 50
179.99999
 51
239.99968
  0
ARC
  8
0
  6
CONTINUOUS
 62
     7
 10
-908.41479
 20
38.613285
 40
3
 50
0
 51
60.000002
  0
ARC
  8
0
  6
CONTINUOUS
 62
     7
 10
-852.41479
 20
38.613297
 40
3
 50
120.00033
 51
180.00001
  0
ARC
  8
0
  6
CONTINUOUS
 62
     7
 10
-849.01288
 20
-8.2886219
 40
3
 50
29.999991
 51
90.000003
  0
ARC
  8
0
  6
CONTINUOUS
 62
     7
 10
-849.01288
 20
30.711378
 40
3
 50
270
 51
330.00001
  0
ARC
  8
0
  6
CONTINUOUS
 62
     7
 10
-766.37854
 20
-14.032439
 40
3
 50
29.99998
 51
90.000003
  0
ARC
  8
0
  6
CONTINUOUS
 62
     7
 10
-826.78046
 20
38.869469
 40
3
 50
0
 51
60.000002
  0
ARC
  8
0
  6
CONTINUOUS
 62
     7
 10
-770.78046
 20
38.869476
 40
3
 50
120.00033
 51
180.00001
  0
ARC
  8
0
  6
CONTINUOUS
 62
     7
 10
-766.37854
 20
32.96756
 40
3
 50
270
 51
330.00002
  0
ARC
  8
0
  6
CONTINUOUS
 62
     7
 10
-741.75208
 20
-8.4181242
 40
4
 50
299.99949
 51
360
  0
ARC
  8
0
  6
CONTINUOUS
 62
     7
 10
-677.75214
 20
-8.4181528
 40
4
 50
179.99999
 51
239.99968
  0
ARC
  8
0
  6
CONTINUOUS
 62
     7
 10
-676.35022
 20
-2.3822589
 40
3
 50
30.000021
 51
102.51535
  0
ARC
  8
0
  6
CONTINUOUS
 62
     7
 10
-741.75208
 20
36.65361
 40
4
 50
0
 51
60.000507
  0
ARC
  8
0
  6
CONTINUOUS
 62
     7
 10
-677.75214
 20
36.653637
 40
4
 50
120.00032
 51
180.00001
  0
ARC
  8
0
  6
CONTINUOUS
 62
     7
 10
-676.35022
 20
30.617743
 40
3
 50
257.48465
 51
329.99998
  0
ARC
  8
0
  6
CONTINUOUS
 62
     7
 10
-587.97992
 20
-14.324518
 40
4
 50
179.99999
 51
239.99962
  0
ARC
  8
0
  6
CONTINUOUS
 62
     7
 10
-651.97992
 20
-14.324488
 40
4
 50
299.99949
 51
360
  0
ARC
  8
0
  6
CONTINUOUS
 62
     7
 10
-585.57806
 20
-8.2886219
 40
3
 50
29.999991
 51
90.000003
  0
ARC
  8
0
  6
CONTINUOUS
 62
     7
 10
-651.97992
 20
36.747242
 40
4
 50
0
 51
60.000507
  0
ARC
  8
0
  6
CONTINUOUS
 62
     7
 10
-587.97992
 20
36.747272
 40
4
 50
120.00037
 51
180.00001
  0
ARC
  8
0
  6
CONTINUOUS
 62
     7
 10
-585.57806
 20
30.711378
 40
3
 50
270
 51
330.00001
  0
ARC
  8
0
  6
CONTINUOUS
 62
     7
 10
-561.23248
 20
-20.23085
 40
4
 50
299.99949
 51
0
  0
ARC
  8
0
  6
CONTINUOUS
 62
     7
 10
-497.23248
 20
-20.230886
 40
4
 50
179.99999
 51
239.99949
  0
ARC
  8
0
  6
CONTINUOUS
 62
     7
 10
-493.8306
 20
-15.194984
 40
3
 50
30.000001
 51
90.000003
  0
ARC
  8
0
  6
CONTINUOUS
 62
     7
 10
-561.23248
 20
36.840881
 40
4
 50
0
 51
60.000507
  0
ARC
  8
0
  6
CONTINUOUS
 62
     7
 10
-497.23248
 20
36.840916
 40
4
 50
120.00051
 51
180.00001
  0
ARC
  8
0
  6
CONTINUOUS
 62
     7
 10
-493.8306
 20
31.805016
 40
3
 50
270
 51
330
  0
ARC
  8
0
  6
CONTINUOUS
 62
     7
 10
-463.79068
 20
-28.299759
 40
4
 50
299.99949
 51
0
  0
ARC
  8
0
  6
CONTINUOUS
 62
     7
 10
-399.79071
 20
-28.299786
 40
4
 50
179.99999
 51
239.99976
  0
ARC
  8
0
  6
CONTINUOUS
 62
     7
 10
-394.38879
 20
-23.763893
 40
3
 50
30.000001
 51
90.000003
  0
ARC
  8
0
  6
CONTINUOUS
 62
     7
 10
-463.79068
 20
36.771973
 40
4
 50
0
 51
60.000507
  0
ARC
  8
0
  6
CONTINUOUS
 62
     7
 10
-399.79071
 20
36.771999
 40
4
 50
120.00025
 51
180.00001
  0
ARC
  8
0
  6
CONTINUOUS
 62
     7
 10
-394.38879
 20
32.236107
 40
3
 50
270
 51
330
  0
ARC
  8
0
  6
CONTINUOUS
 62
     7
 10
-904.61444
 20
-148.92357
 40
4
 50
299.99975
 51
0
  0
ARC
  8
0
  6
CONTINUOUS
 62
     7
 10
-827.61444
 20
-148.92358
 40
4
 50
179.99999
 51
239.99976
  0
ARC
  8
0
  6
CONTINUOUS
 62
     7
 10
-804.05426
 20
-154.82991
 40
4
 50
299.99949
 51
0
  0
ARC
  8
0
  6
CONTINUOUS
 62
     7
 10
-727.05426
 20
-154.82994
 40
4
 50
179.99999
 51
239.99962
  0
ARC
  8
0
  6
CONTINUOUS
 62
     7
 10
-698.2627
 20
-160.7363
 40
4
 50
300.00003
 51
0
  0
ARC
  8
0
  6
CONTINUOUS
 62
     7
 10
-621.2627
 20
-160.7363
 40
4
 50
179.99999
 51
239.99987
  0
ARC
  8
0
  6
CONTINUOUS
 62
     7
 10
-587.82086
 20
-168.80524
 40
4
 50
299.99994
 51
0
  0
ARC
  8
0
  6
CONTINUOUS
 62
     7
 10
-510.82089
 20
-168.80524
 40
4
 50
179.99999
 51
240.00001
  0
ARC
  8
0
  6
CONTINUOUS
 62
     7
 10
-474.76337
 20
-176.87411
 40
4
 50
300
 51
0
  0
ARC
  8
0
  6
CONTINUOUS
 62
     7
 10
-397.76337
 20
-176.87411
 40
4
 50
179.99999
 51
240.00001
  0
ARC
  8
0
  6
CONTINUOUS
 62
     7
 10
-826.71252
 20
-141.8877
 40
3
 50
30.000001
 51
90.000003
  0
ARC
  8
0
  6
CONTINUOUS
 62
     7
 10
-725.1524
 20
-147.79405
 40
3
 50
29.99983
 51
90.000003
  0
ARC
  8
0
  6
CONTINUOUS
 62
     7
 10
-618.36078
 20
-154.70042
 40
3
 50
30.000001
 51
90.000003
  0
ARC
  8
0
  6
CONTINUOUS
 62
     7
 10
-505.91895
 20
-163.26933
 40
3
 50
30.000001
 51
90.000003
  0
ARC
  8
0
  6
CONTINUOUS
 62
     7
 10
-393.72745
 20
-171.33826
 40
4
 50
30.000254
 51
90.000003
  0
ARC
  8
0
  6
CONTINUOUS
 62
     7
 10
-474.76337
 20
-101.80235
 40
4
 50
0
 51
60.000002
  0
ARC
  8
0
  6
CONTINUOUS
 62
     7
 10
-397.76337
 20
-101.80235
 40
4
 50
120
 51
180.00001
  0
ARC
  8
0
  6
CONTINUOUS
 62
     7
 10
-393.72745
 20
-107.33822
 40
4
 50
270
 51
329.99975
  0
ARC
  8
0
  6
CONTINUOUS
 62
     7
 10
-587.82086
 20
-101.73341
 40
4
 50
0
 51
60.000063
  0
ARC
  8
0
  6
CONTINUOUS
 62
     7
 10
-510.82089
 20
-101.73341
 40
4
 50
120
 51
180.00001
  0
ARC
  8
0
  6
CONTINUOUS
 62
     7
 10
-505.91895
 20
-107.26933
 40
3
 50
270
 51
330
  0
ARC
  8
0
  6
CONTINUOUS
 62
     7
 10
-698.2627
 20
-101.66454
 40
4
 50
0
 51
59.999968
  0
ARC
  8
0
  6
CONTINUOUS
 62
     7
 10
-621.2627
 20
-101.66453
 40
4
 50
120.00013
 51
180.00001
  0
ARC
  8
0
  6
CONTINUOUS
 62
     7
 10
-618.36078
 20
-107.70042
 40
3
 50
270
 51
330
  0
ARC
  8
0
  6
CONTINUOUS
 62
     7
 10
-804.05426
 20
-101.75819
 40
4
 50
0
 51
60.000507
  0
ARC
  8
0
  6
CONTINUOUS
 62
     7
 10
-727.05426
 20
-101.75816
 40
4
 50
120.00037
 51
180.00001
  0
ARC
  8
0
  6
CONTINUOUS
 62
     7
 10
-725.1524
 20
-108.79406
 40
3
 50
270
 51
330.00017
  0
ARC
  8
0
  6
CONTINUOUS
 62
     7
 10
-904.61444
 20
-101.85181
 40
4
 50
0
 51
60.000254
  0
ARC
  8
0
  6
CONTINUOUS
 62
     7
 10
-827.61444
 20
-101.8518
 40
4
 50
120.00025
 51
180.00001
  0
ARC
  8
0
  6
CONTINUOUS
 62
     7
 10
-826.71252
 20
-108.88769
 40
3
 50
270
 51
330
  0
TEXT
  8
0
  6
CONTINUOUS
 62
     7
 10
-250.74139
 20
162.29854
 40
5
 41
1.0062112
  1
21/2X1/2
  0
TEXT
  8
0
  6
CONTINUOUS
 62
     7
 10
-151.73852
 20
162.29852
 40
5
 41
1.0062112
  1
21/2X3/4
  0
TEXT
  8
0
  6
CONTINUOUS
 62
     7
 10
-39.708391
 20
161.62958
 40
5
 41
1.0084034
  1
21/2X1
  0
TEXT
  8
0
  6
CONTINUOUS
 62
     7
 10
67.848997
 20
162.96745
 40
5
 41
1.0054945
  1
21/2X11/4
  0
TEXT
  8
0
  6
CONTINUOUS
 62
     7
 10
191.60259
 20
162.96745
 40
5
 41
1.0054945
  1
21/2X11/2
  0
TEXT
  8
0
  6
CONTINUOUS
 62
     7
 10
-215.06803
 20
-20.955133
 40
5
 41
1.0084034
  1
21/2X2
  0
TEXT
  8
0
  6
CONTINUOUS
 62
     7
 10
-47.67927
 20
-13.77562
 40
5
 41
1.0102042
  1
3X1/2
  0
TEXT
  8
0
  6
CONTINUOUS
 62
     7
 10
62.695555
 20
-14.444558
 40
5
 41
1.0102042
  1
3X3/4
  0
TEXT
  8
0
  6
CONTINUOUS
 62
     7
 10
184.09083
 20
-14.444558
 40
5
 41
1.0178573
  1
3X1
  0
TEXT
  8
0
  6
CONTINUOUS
 62
     7
 10
379.12996
 20
167.22552
 40
5
 41
1.0084034
  1
3X11/4
  0
TEXT
  8
0
  6
CONTINUOUS
 62
     7
 10
509.68834
 20
166.43903
 40
5
 41
1.0084034
  1
3X11/2
  0
TEXT
  8
0
  6
CONTINUOUS
 62
     7
 10
656.00493
 20
166.43903
 40
5
 41
1.0178573
  1
3X2
  0
TEXT
  8
0
  6
CONTINUOUS
 62
     7
 10
800.69201
 20
166.43903
 40
5
 41
1.0084034
  1
3X21/2
  0
TEXT
  8
0
  6
CONTINUOUS
 62
     7
 10
386.34893
 20
-8.3200974
 40
5
 41
1.0102042
  1
4X1/2
  0
TEXT
  8
0
  6
CONTINUOUS
 62
     7
 10
515.33434
 20
-9.1065936
 40
5
 41
1.0102042
  1
4X3/4
  0
TEXT
  8
0
  6
CONTINUOUS
 62
     7
 10
655.61168
 20
-9.8930898
 40
5
 41
1.0178573
  1
4X1
  0
TEXT
  8
0
  6
CONTINUOUS
 62
     7
 10
789.68108
 20
-9.8930898
 40
5
 41
1.0084034
  1
4X11/4
  0
TEXT
  8
0
  6
CONTINUOUS
 62
     7
 10
-196.58537
 20
-260.78543
 40
5
 41
1.0084034
  1
4X11/2
  0
TEXT
  8
0
  6
CONTINUOUS
 62
     7
 10
-31.392851
 20
-261.57193
 40
5
 41
1.0178573
  1
4X2
  0
TEXT
  8
0
  6
CONTINUOUS
 62
     7
 10
135.70934
 20
-260.78543
 40
5
 41
1.0084034
  1
4X21/2
  0
TEXT
  8
0
  6
CONTINUOUS
 62
     7
 10
-181.61366
 20
-447.97156
 40
5
 41
1.0178573
  1
4X3
  0
TEXT
  8
0
  6
CONTINUOUS
 62
     7
 10
12.650944
 20
-439.19052
 40
5
 41
1.0178573
  1
5X1
  0
TEXT
  8
0
  6
CONTINUOUS
 62
     7
 10
163.23672
 20
-437.61752
 40
5
 41
1.0084034
  1
5X11/4
  0
TEXT
  8
0
  6
CONTINUOUS
 62
     7
 10
389.85641
 20
-250.00502
 40
5
 41
1.0084034
  1
5X11/2
  0
TEXT
  8
0
  6
CONTINUOUS
 62
     7
 10
581.95501
 20
-250.00504
 40
5
 41
1.0178573
  1
5X2
  0
TEXT
  8
0
  6
CONTINUOUS
 62
     7
 10
775.69774
 20
-250.76163
 40
5
 41
1.0084034
  1
5X21/2
  0
TEXT
  8
0
  6
CONTINUOUS
 62
     7
 10
460.1502
 20
-443.68231
 40
5
 41
1.0178573
  1
5X3
  0
TEXT
  8
0
  6
CONTINUOUS
 62
     7
 10
691.65502
 20
-439.14301
 40
5
 41
1.0178573
  1
5X4
  0
TEXT
  8
0
  6
CONTINUOUS
 62
     7
 10
-211.19265
 20
-748.25354
 40
5
 41
1.0178573
  1
6X1
  0
TEXT
  8
0
  6
CONTINUOUS
 62
     7
 10
-32.830191
 20
-747.48236
 40
5
 41
1.0084034
  1
6X11/4
  0
TEXT
  8
0
  6
CONTINUOUS
 62
     7
 10
156.88834
 20
-747.48236
 40
5
 41
1.0084034
  1
6X11/2
  0
TEXT
  8
0
  6
CONTINUOUS
 62
     7
 10
399.51104
 20
-762.8175
 40
5
 41
1.0178573
  1
6X2
  0
TEXT
  8
0
  6
CONTINUOUS
 62
     7
 10
575.14159
 20
-762.08032
 40
5
 41
1.0084034
  1
6X21/2
  0
TEXT
  8
0
  6
CONTINUOUS
 62
     7
 10
799.04101
 20
-761.3432
 40
5
 41
1.0178573
  1
6X3
  0
TEXT
  8
0
  6
CONTINUOUS
 62
     7
 10
-152.02696
 20
-1188.609
 40
5
 41
1.0178573
  1
6X4
  0
TEXT
  8
0
  6
CONTINUOUS
 62
     7
 10
123.73061
 20
-1187.8452
 40
5
 41
1.0178573
  1
6X5
  0
TEXT
  8
0
  6
CONTINUOUS
 62
     7
 10
-57.907515
 20
184.49304
 40
10
 41
0.84260544
  1
径違いチーズ２１／２×１／２～３×１
  0
TEXT
  8
0
  6
CONTINUOUS
 62
     7
 10
505.62454
 20
183.26558
 40
10
 41
0.84248387
  1
径違いチーズ３×１１／４～４×１１／４
  0
TEXT
  8
0
  6
CONTINUOUS
 62
     7
 10
-117.45806
 20
-236.85022
 40
10
 41
0.84248387
  1
径違いチーズ４×１１／２～５×１１／４
  0
TEXT
  8
0
  6
CONTINUOUS
 62
     7
 10
506.11199
 20
-226.56343
 40
10
 41
0.84289514
  1
径違いチーズ５×１１／２～５×４
  0
TEXT
  8
0
  6
CONTINUOUS
 62
     7
 10
-85.165381
 20
-718.83075
 40
10
 41
0.84289514
  1
径違いチーズ６×１～６×１１／２
  0
TEXT
  8
0
  6
CONTINUOUS
 62
     7
 10
528.66348
 20
-717.27283
 40
10
 41
0.84350121
  1
径違いチーズ６×２～６×３
  0
TEXT
  8
0
  6
CONTINUOUS
 62
     7
 10
-65.265211
 20
-1161.2423
 40
10
 41
0.84350121
  1
径違いチーズ６×４～６×５
  0
TEXT
  8
0
  6
CONTINUOUS
 62
     7
 10
231.65195
 20
222.90187
 40
15
 41
0.84408766
  1
径違いチーズ（枝径小）
  0
TEXT
  8
0
  6
CONTINUOUS
 62
     7
 10
-877.82667
 20
167.74901
 40
5
 41
1.0071429
  1
3/4X1/2
  0
TEXT
  8
0
  6
CONTINUOUS
 62
     7
 10
-781.86769
 20
169.25787
 40
5
 41
1.0102042
  1
1X1/2
  0
TEXT
  8
0
  6
CONTINUOUS
 62
     7
 10
-672.2696
 20
164.54779
 40
5
 41
1.0102042
  1
1X3/4
  0
TEXT
  8
0
  6
CONTINUOUS
 62
     7
 10
-562.71589
 20
165.29335
 40
5
 41
1.0062112
  1
11/4X1/2
  0
TEXT
  8
0
  6
CONTINUOUS
 62
     7
 10
-899.70051
 20
61.711365
 40
5
 41
1.0062112
  1
11/4X3/4
  0
TEXT
  8
0
  6
CONTINUOUS
 62
     7
 10
-813.06617
 20
61.967545
 40
5
 41
1.0084034
  1
11/4X1
  0
TEXT
  8
0
  6
CONTINUOUS
 62
     7
 10
-729.03785
 20
61.617729
 40
5
 41
1.0062112
  1
11/2X1/2
  0
TEXT
  8
0
  6
CONTINUOUS
 62
     7
 10
-639.2657
 20
61.711365
 40
5
 41
1.0062112
  1
11/2X3/4
  0
TEXT
  8
0
  6
CONTINUOUS
 62
     7
 10
-543.51826
 20
61.805
 40
5
 41
1.0084034
  1
11/2X1
  0
TEXT
  8
0
  6
CONTINUOUS
 62
     7
 10
-453.57643
 20
61.736092
 40
5
 41
1.0054945
  1
11/2X11/4
  0
TEXT
  8
0
  6
CONTINUOUS
 62
     7
 10
-877.90016
 20
-74.887703
 40
5
 41
1.0102042
  1
2X1/2
  0
TEXT
  8
0
  6
CONTINUOUS
 62
     7
 10
-777.34004
 20
-74.794067
 40
5
 41
1.0102042
  1
2X3/4
  0
TEXT
  8
0
  6
CONTINUOUS
 62
     7
 10
-666.54841
 20
-74.700424
 40
5
 41
1.0178573
  1
2X1
  0
TEXT
  8
0
  6
CONTINUOUS
 62
     7
 10
-563.60658
 20
-74.769302
 40
5
 41
1.0084034
  1
2X11/4
  0
TEXT
  8
0
  6
CONTINUOUS
 62
     7
 10
-450.54908
 20
-74.838234
 40
5
 41
1.0084034
  1
2X11/2
  0
TEXT
  8
0
  6
CONTINUOUS
 62
     7
 10
-694.6428
 20
178.14899
 40
10
 41
0.84409467
  1
径違いチーズ（枝径小）
  0
ENDSEC
  0
EOF
