  0
SECTION
  2
HEADER
  9
$EXTMAX
 10
297.25922
 20
211.66544
  9
$EXTMIN
 10
-297.25922
 20
-210.82214
  0
ENDSEC
  0
SECTION
  2
TABLES
  0
TABLE
  2
LTYPE
 70
    22
  0
LTYPE
  2
CONTINUOUS
 70
    64
  3
Solid line
 72
    65
 73
     0
 40
0.000000
  0
LTYPE
  2
DASHED
 70
    64
  3
__ __ __ __ __ __ __ __ __ __ __ __ __ __ __
 72
    65
 73
     2
 40
3.500000
 49
2.000000
 49
-1.500000
  0
LTYPE
  2
CENTER
 70
    64
  3
____ _ ____ _ ____ _ ____ _ ____ _ ____ _ ____
 72
    65
 73
     4
 40
17.500000
 49
13.000000
 49
-1.500000
 49
1.500000
 49
-1.500000
  0
LTYPE
  2
PHANTOM
 70
    64
  3
_____ _ _ _____ _ _ _____ _ _ _____ _ _ ____  
 72
    65
 73
     6
 40
15.500000
 49
8.000000
 49
-1.500000
 49
1.500000
 49
-1.500000
 49
1.500000
 49
-1.500000
  0
LTYPE
  2
DOT
 70
    64
  3
. . . . . . . . . . . . . . . . . . . . . . . .
 72
    65
 73
     2
 40
0.25
 49
0.0
 49
-0.25
  0
ENDTAB
  0
TABLE
  2
LAYER
 70
     1
  0
LAYER
  2
0
 70
     0
 62
     7
  6
CONTINUOUS
  0
ENDTAB
  0
TABLE
  2
STYLE
 70
     1
  0
STYLE
  2
STANDARD
 70
     0
 40
0.000000
 41
1.000000
 50
0.000000
 71
     0
 42
0.200000
  3
txt
  4
BIGFONT
  0
ENDTAB
  0
TABLE
  2
VIEW
 70
     0
  0
ENDTAB
  0
ENDSEC
  0
SECTION
  2
BLOCKS
  0
ENDSEC
  0
SECTION
  2
ENTITIES
  0
POINT
  8
0
  6
CONTINUOUS
 62
     7
 10
-243.85263
 20
106.31579
  0
POINT
  8
0
  6
CONTINUOUS
 62
     7
 10
-166.32001
 20
106.31579
  0
POINT
  8
0
  6
CONTINUOUS
 62
     7
 10
-92.122108
 20
109.65053
  0
POINT
  8
0
  6
CONTINUOUS
 62
     7
 10
-7.9200001
 20
112.15158
  0
POINT
  8
0
  6
CONTINUOUS
 62
     7
 10
-241.35158
 20
4.6063156
  0
POINT
  8
0
  6
CONTINUOUS
 62
     7
 10
-142.14316
 20
5.4400001
  0
POINT
  8
0
  6
CONTINUOUS
 62
     7
 10
-38.766315
 20
5.4400001
  0
POINT
  8
0
  6
CONTINUOUS
 62
     7
 10
73.781052
 20
111.31789
  0
POINT
  8
0
  6
CONTINUOUS
 62
     7
 10
57.107368
 20
4.6063156
  0
POINT
  8
0
  6
CONTINUOUS
 62
     7
 10
185.49474
 20
5.4400001
  0
POINT
  8
0
  6
CONTINUOUS
 62
     7
 10
172.98947
 20
107.14948
  0
POINT
  8
0
  6
CONTINUOUS
 62
     7
 10
-238.01685
 20
-116.29895
  0
POINT
  8
0
  6
CONTINUOUS
 62
     7
 10
-117.13263
 20
-115.46526
  0
POINT
  8
0
  6
CONTINUOUS
 62
     7
 10
7.0863156
 20
-112.96421
  0
POINT
  8
0
  6
CONTINUOUS
 62
     7
 10
150.48
 20
-112.13052
  0
POINT
  8
0
  6
CONTINUOUS
 62
     7
 10
398.16599
 20
121.21228
  0
POINT
  8
0
  6
CONTINUOUS
 62
     7
 10
546.97449
 20
121.95262
  0
POINT
  8
0
  6
CONTINUOUS
 62
     7
 10
683.1972
 20
120.47194
  0
POINT
  8
0
  6
CONTINUOUS
 62
     7
 10
809.05511
 20
119.7316
  0
POINT
  8
0
  6
CONTINUOUS
 62
     7
 10
806.83411
 20
-3.1649761
  0
POINT
  8
0
  6
CONTINUOUS
 62
     7
 10
671.35175
 20
-2.4246352
  0
POINT
  8
0
  6
CONTINUOUS
 62
     7
 10
524.02393
 20
10.161159
  0
POINT
  8
0
  6
CONTINUOUS
 62
     7
 10
378.17679
 20
12.382181
  0
POINT
  8
0
  6
CONTINUOUS
 62
     7
 10
371.5137
 20
-126.80189
  0
POINT
  8
0
  6
CONTINUOUS
 62
     7
 10
498.85233
 20
-129.76326
  0
POINT
  8
0
  6
CONTINUOUS
 62
     7
 10
633.59436
 20
-131.98428
  0
POINT
  8
0
  6
CONTINUOUS
 62
     7
 10
783.14319
 20
-128.28258
  0
POINT
  8
0
  6
CONTINUOUS
 62
     7
 10
-214.54086
 20
-319.23703
  0
POINT
  8
0
  6
CONTINUOUS
 62
     7
 10
-44.080738
 20
-331.46738
  0
POINT
  8
0
  6
CONTINUOUS
 62
     7
 10
150.84004
 20
-326.11661
  0
POINT
  8
0
  6
CONTINUOUS
 62
     7
 10
-214.54086
 20
-527.15253
  0
POINT
  8
0
  6
CONTINUOUS
 62
     7
 10
28.536806
 20
-522.56616
  0
POINT
  8
0
  6
CONTINUOUS
 62
     7
 10
725.49469
 20
-324.00275
  0
POINT
  8
0
  6
CONTINUOUS
 62
     7
 10
405.39932
 20
-330.47659
  0
POINT
  8
0
  6
CONTINUOUS
 62
     7
 10
503.22623
 20
-498.07709
  0
LINE
  8
0
  6
CONTINUOUS
 62
     7
 10
287
 20
200
 11
287
 21
-200
  0
LINE
  8
0
  6
CONTINUOUS
 62
     7
 10
-287
 20
200
 11
287
 21
200
  0
LINE
  8
0
  6
CONTINUOUS
 62
     7
 10
-287
 20
200
 11
-287
 21
-200
  0
LINE
  8
0
  6
CONTINUOUS
 62
     7
 10
-287
 20
-200
 11
287
 21
-200
  0
LINE
  8
0
  6
CONTINUOUS
 62
     7
 10
-227.35263
 20
88.815804
 11
-227.35263
 21
85.913879
  0
LINE
  8
0
  6
CONTINUOUS
 62
     7
 10
-260.35263
 20
88.815804
 11
-260.35263
 21
85.913887
  0
LINE
  8
0
  6
CONTINUOUS
 62
     7
 10
-229.35263
 20
119.81579
 11
-222.45071
 21
119.81579
  0
LINE
  8
0
  6
CONTINUOUS
 62
     7
 10
-223.35263
 20
92.815788
 11
-222.45071
 21
92.815788
  0
LINE
  8
0
  6
CENTER
 62
     7
 10
-226.03439
 20
106.31579
 11
-209.65263
 21
106.31579
  0
LINE
  8
0
  6
CENTER
 62
     7
 10
-243.85263
 20
88.497566
 11
-243.85263
 21
73.115807
  0
LINE
  8
0
  6
CONTINUOUS
 62
     7
 10
-213.85263
 20
121.31579
 11
-213.85263
 21
91.315788
  0
LINE
  8
0
  6
CONTINUOUS
 62
     7
 10
-261.85263
 20
77.315804
 11
-225.85263
 21
77.315804
  0
LINE
  8
0
  6
CONTINUOUS
 62
     7
 10
-261.85263
 20
83.315804
 11
-261.85263
 21
77.315804
  0
LINE
  8
0
  6
CONTINUOUS
 62
     7
 10
-225.85263
 20
83.315804
 11
-225.85263
 21
77.315804
  0
LINE
  8
0
  6
CONTINUOUS
 62
     7
 10
-261.85263
 20
83.315804
 11
-225.85263
 21
83.315804
  0
LINE
  8
0
  6
CONTINUOUS
 62
     7
 10
-219.85263
 20
121.31579
 11
-219.85263
 21
91.315788
  0
LINE
  8
0
  6
CONTINUOUS
 62
     7
 10
-219.85263
 20
121.31579
 11
-213.85263
 21
121.31579
  0
LINE
  8
0
  6
CONTINUOUS
 62
     7
 10
-219.85263
 20
91.315788
 11
-213.85263
 21
91.315788
  0
LINE
  8
0
  6
CONTINUOUS
 62
     7
 10
-145.82001
 20
87.815804
 11
-145.82001
 21
83.913879
  0
LINE
  8
0
  6
CENTER
 62
     7
 10
-149.74942
 20
106.31579
 11
-129.12001
 21
106.31579
  0
LINE
  8
0
  6
CENTER
 62
     7
 10
-166.32001
 20
89.745155
 11
-166.32001
 21
70.115807
  0
LINE
  8
0
  6
CONTINUOUS
 62
     7
 10
-157.82001
 20
119.81579
 11
-141.91808
 21
119.81579
  0
LINE
  8
0
  6
CONTINUOUS
 62
     7
 10
-186.81999
 20
90.815804
 11
-186.81999
 21
83.913887
  0
LINE
  8
0
  6
CONTINUOUS
 62
     7
 10
-133.32001
 20
121.31579
 11
-133.32001
 21
91.315788
  0
LINE
  8
0
  6
CONTINUOUS
 62
     7
 10
-188.32001
 20
74.315804
 11
-144.32001
 21
74.315804
  0
LINE
  8
0
  6
CONTINUOUS
 62
     7
 10
-188.32001
 20
81.315804
 11
-188.32001
 21
74.315804
  0
LINE
  8
0
  6
CONTINUOUS
 62
     7
 10
-144.32001
 20
81.315804
 11
-144.32001
 21
74.315804
  0
LINE
  8
0
  6
CONTINUOUS
 62
     7
 10
-139.32001
 20
121.31579
 11
-133.32001
 21
121.31579
  0
LINE
  8
0
  6
CONTINUOUS
 62
     7
 10
-139.32001
 20
91.315788
 11
-133.32001
 21
91.315788
  0
LINE
  8
0
  6
CONTINUOUS
 62
     7
 10
-139.32001
 20
121.31579
 11
-139.32001
 21
91.315788
  0
LINE
  8
0
  6
CONTINUOUS
 62
     7
 10
-188.32001
 20
81.315804
 11
-144.32001
 21
81.315804
  0
LINE
  8
0
  6
CENTER
 62
     7
 10
-92.122108
 20
91.000534
 11
-92.122108
 21
71.450531
  0
LINE
  8
0
  6
CENTER
 62
     7
 10
-73.472046
 20
109.65053
 11
-52.922108
 21
109.65053
  0
LINE
  8
0
  6
CONTINUOUS
 62
     7
 10
-66.622108
 20
93.150528
 11
-65.720184
 21
93.150528
  0
LINE
  8
0
  6
CONTINUOUS
 62
     7
 10
-78.622108
 20
126.15053
 11
-65.720184
 21
126.15053
  0
LINE
  8
0
  6
CONTINUOUS
 62
     7
 10
-71.622108
 20
88.150528
 11
-71.622108
 21
85.248604
  0
LINE
  8
0
  6
CONTINUOUS
 62
     7
 10
-112.62211
 20
92.150528
 11
-112.62211
 21
85.248604
  0
LINE
  8
0
  6
CONTINUOUS
 62
     7
 10
-114.12211
 20
75.650528
 11
-70.122108
 21
75.650528
  0
LINE
  8
0
  6
CONTINUOUS
 62
     7
 10
-57.122105
 20
127.65053
 11
-57.122105
 21
91.650528
  0
LINE
  8
0
  6
CONTINUOUS
 62
     7
 10
-114.12211
 20
82.650528
 11
-114.12211
 21
75.650528
  0
LINE
  8
0
  6
CONTINUOUS
 62
     7
 10
-70.122108
 20
82.650528
 11
-70.122108
 21
75.650528
  0
LINE
  8
0
  6
CONTINUOUS
 62
     7
 10
-114.12211
 20
82.650528
 11
-70.122108
 21
82.650528
  0
LINE
  8
0
  6
CONTINUOUS
 62
     7
 10
-63.122105
 20
127.65053
 11
-57.122105
 21
127.65053
  0
LINE
  8
0
  6
CONTINUOUS
 62
     7
 10
-63.122105
 20
91.650528
 11
-57.122105
 21
91.650528
  0
LINE
  8
0
  6
CONTINUOUS
 62
     7
 10
-63.122105
 20
127.65053
 11
-63.122105
 21
91.650528
  0
LINE
  8
0
  6
CONTINUOUS
 62
     7
 10
17.08
 20
93.651596
 11
17.08
 21
88.749672
  0
LINE
  8
0
  6
CENTER
 62
     7
 10
11.801481
 20
112.15158
 11
34.279999
 21
112.15158
  0
LINE
  8
0
  6
CENTER
 62
     7
 10
-7.9200001
 20
92.430115
 11
-7.9200001
 21
73.751587
  0
LINE
  8
0
  6
CONTINUOUS
 62
     7
 10
-0.92000002
 20
125.65158
 11
21.481924
 21
125.65158
  0
LINE
  8
0
  6
CONTINUOUS
 62
     7
 10
-32.919983
 20
93.651596
 11
-32.919983
 21
88.74968
  0
LINE
  8
0
  6
CONTINUOUS
 62
     7
 10
30.08
 20
127.15158
 11
30.08
 21
97.151581
  0
LINE
  8
0
  6
CONTINUOUS
 62
     7
 10
-34.419998
 20
78.151596
 11
18.58
 21
78.151596
  0
LINE
  8
0
  6
CONTINUOUS
 62
     7
 10
-34.419998
 20
86.151596
 11
-34.419998
 21
78.151596
  0
LINE
  8
0
  6
CONTINUOUS
 62
     7
 10
18.58
 20
86.151596
 11
18.58
 21
78.151596
  0
LINE
  8
0
  6
CONTINUOUS
 62
     7
 10
24.08
 20
127.15158
 11
30.08
 21
127.15158
  0
LINE
  8
0
  6
CONTINUOUS
 62
     7
 10
24.08
 20
97.151581
 11
30.08
 21
97.151581
  0
LINE
  8
0
  6
CONTINUOUS
 62
     7
 10
24.08
 20
127.15158
 11
24.08
 21
97.151581
  0
LINE
  8
0
  6
CONTINUOUS
 62
     7
 10
-34.419998
 20
86.151596
 11
18.58
 21
86.151596
  0
LINE
  8
0
  6
CONTINUOUS
 62
     7
 10
48.781052
 20
90.817894
 11
48.781052
 21
83.915962
  0
LINE
  8
0
  6
CONTINUOUS
 62
     7
 10
107.78105
 20
129.3179
 11
113.78105
 21
129.3179
  0
LINE
  8
0
  6
CONTINUOUS
 62
     7
 10
47.281052
 20
81.317894
 11
47.281052
 21
73.317894
  0
LINE
  8
0
  6
CONTINUOUS
 62
     7
 10
100.28105
 20
81.317894
 11
100.28105
 21
73.317894
  0
LINE
  8
0
  6
CONTINUOUS
 62
     7
 10
85.781052
 20
127.81789
 11
105.18298
 21
127.81789
  0
LINE
  8
0
  6
CONTINUOUS
 62
     7
 10
107.78105
 20
93.317894
 11
113.78105
 21
93.317894
  0
LINE
  8
0
  6
CONTINUOUS
 62
     7
 10
102.78105
 20
94.817894
 11
105.18298
 21
94.817894
  0
LINE
  8
0
  6
CONTINUOUS
 62
     7
 10
98.781052
 20
90.817894
 11
98.781052
 21
83.915962
  0
LINE
  8
0
  6
CENTER
 62
     7
 10
73.781052
 20
91.556206
 11
73.781052
 21
68.425117
  0
LINE
  8
0
  6
CENTER
 62
     7
 10
93.54274
 20
111.31789
 11
117.04035
 21
111.31789
  0
LINE
  8
0
  6
CONTINUOUS
 62
     7
 10
113.78105
 20
129.3179
 11
113.78105
 21
93.317894
  0
LINE
  8
0
  6
CONTINUOUS
 62
     7
 10
107.78105
 20
129.3179
 11
107.78105
 21
93.317894
  0
LINE
  8
0
  6
CONTINUOUS
 62
     7
 10
47.281052
 20
81.317894
 11
100.28105
 21
81.317894
  0
LINE
  8
0
  6
CONTINUOUS
 62
     7
 10
47.281052
 20
73.317894
 11
100.28105
 21
73.317894
  0
LINE
  8
0
  6
CONTINUOUS
 62
     7
 10
147.98947
 20
82.649475
 11
147.98947
 21
77.747543
  0
LINE
  8
0
  6
CONTINUOUS
 62
     7
 10
146.48947
 20
75.149475
 11
146.48947
 21
67.149475
  0
LINE
  8
0
  6
CONTINUOUS
 62
     7
 10
199.48947
 20
75.149475
 11
199.48947
 21
67.149475
  0
LINE
  8
0
  6
CONTINUOUS
 62
     7
 10
197.98947
 20
82.649475
 11
197.98947
 21
77.747543
  0
LINE
  8
0
  6
CONTINUOUS
 62
     7
 10
207.98947
 20
85.149475
 11
214.98947
 21
85.149475
  0
LINE
  8
0
  6
CONTINUOUS
 62
     7
 10
207.98947
 20
129.14948
 11
214.98947
 21
129.14948
  0
LINE
  8
0
  6
CONTINUOUS
 62
     7
 10
192.98947
 20
127.64948
 11
205.3914
 21
127.64948
  0
LINE
  8
0
  6
CONTINUOUS
 62
     7
 10
201.98947
 20
86.649475
 11
205.3914
 21
86.649475
  0
LINE
  8
0
  6
CENTER
 62
     7
 10
172.98947
 20
83.970016
 11
172.98947
 21
60.549469
  0
LINE
  8
0
  6
CENTER
 62
     7
 10
196.16893
 20
107.14948
 11
221.38948
 21
107.14948
  0
LINE
  8
0
  6
CONTINUOUS
 62
     7
 10
214.98947
 20
129.14948
 11
214.98947
 21
85.149475
  0
LINE
  8
0
  6
CONTINUOUS
 62
     7
 10
207.98947
 20
129.14948
 11
207.98947
 21
85.149475
  0
LINE
  8
0
  6
CONTINUOUS
 62
     7
 10
146.48947
 20
67.149475
 11
199.48947
 21
67.149475
  0
LINE
  8
0
  6
CONTINUOUS
 62
     7
 10
146.48947
 20
75.149475
 11
199.48947
 21
75.149475
  0
LINE
  8
0
  6
CONTINUOUS
 62
     7
 10
-211.35158
 20
-21.393684
 11
-211.35158
 21
-30.393684
  0
LINE
  8
0
  6
CONTINUOUS
 62
     7
 10
-271.35159
 20
-21.393684
 11
-271.35159
 21
-30.393684
  0
LINE
  8
0
  6
CONTINUOUS
 62
     7
 10
-213.35158
 20
-12.893684
 11
-213.35158
 21
-17.929588
  0
LINE
  8
0
  6
CONTINUOUS
 62
     7
 10
-269.35159
 20
-12.893684
 11
-269.35159
 21
-17.929588
  0
LINE
  8
0
  6
CONTINUOUS
 62
     7
 10
-205.35158
 20
19.606316
 11
-199.35158
 21
19.606316
  0
LINE
  8
0
  6
CONTINUOUS
 62
     7
 10
-209.35158
 20
-8.8936844
 11
-207.94966
 21
-8.8936844
  0
LINE
  8
0
  6
CONTINUOUS
 62
     7
 10
-238.35158
 20
18.106316
 11
-207.94966
 21
18.106316
  0
LINE
  8
0
  6
CONTINUOUS
 62
     7
 10
-205.35158
 20
-10.393684
 11
-199.35158
 21
-10.393684
  0
LINE
  8
0
  6
CENTER
 62
     7
 10
-222.42299
 20
4.6063156
 11
-194.35158
 21
4.6063156
  0
LINE
  8
0
  6
CENTER
 62
     7
 10
-241.35158
 20
-14.322334
 11
-241.35158
 21
-35.393684
  0
LINE
  8
0
  6
CONTINUOUS
 62
     7
 10
-199.35158
 20
19.606316
 11
-199.35158
 21
-10.393684
  0
LINE
  8
0
  6
CONTINUOUS
 62
     7
 10
-205.35158
 20
19.606316
 11
-205.35158
 21
-10.393684
  0
LINE
  8
0
  6
CONTINUOUS
 62
     7
 10
-271.35159
 20
-21.393684
 11
-211.35158
 21
-21.393684
  0
LINE
  8
0
  6
CONTINUOUS
 62
     7
 10
-271.35159
 20
-30.393684
 11
-211.35158
 21
-30.393684
  0
LINE
  8
0
  6
CONTINUOUS
 62
     7
 10
-112.14316
 20
-23.559999
 11
-112.14316
 21
-32.560001
  0
LINE
  8
0
  6
CONTINUOUS
 62
     7
 10
-172.14316
 20
-23.559999
 11
-172.14316
 21
-32.560001
  0
LINE
  8
0
  6
CONTINUOUS
 62
     7
 10
-114.14316
 20
-15.06
 11
-114.14316
 21
-20.095903
  0
LINE
  8
0
  6
CONTINUOUS
 62
     7
 10
-170.14316
 20
-15.06
 11
-170.14316
 21
-20.095903
  0
LINE
  8
0
  6
CONTINUOUS
 62
     7
 10
-110.14316
 20
-11.06
 11
-107.74124
 21
-11.06
  0
LINE
  8
0
  6
CONTINUOUS
 62
     7
 10
-105.14316
 20
-12.56
 11
-99.143158
 21
-12.56
  0
LINE
  8
0
  6
CONTINUOUS
 62
     7
 10
-105.14316
 20
23.440001
 11
-99.143158
 21
23.440001
  0
LINE
  8
0
  6
CONTINUOUS
 62
     7
 10
-133.14316
 20
21.940001
 11
-107.74124
 21
21.940001
  0
LINE
  8
0
  6
CENTER
 62
     7
 10
-142.14316
 20
-15.020663
 11
-142.14316
 21
-37.560001
  0
LINE
  8
0
  6
CENTER
 62
     7
 10
-121.6825
 20
5.4400001
 11
-95.143158
 21
5.4400001
  0
LINE
  8
0
  6
CONTINUOUS
 62
     7
 10
-172.14316
 20
-23.559999
 11
-112.14316
 21
-23.559999
  0
LINE
  8
0
  6
CONTINUOUS
 62
     7
 10
-112.14316
 20
-32.560001
 11
-172.14316
 21
-32.560001
  0
LINE
  8
0
  6
CONTINUOUS
 62
     7
 10
-99.143158
 20
23.440001
 11
-99.143158
 21
-12.56
  0
LINE
  8
0
  6
CONTINUOUS
 62
     7
 10
-105.14317
 20
23.440001
 11
-105.14317
 21
-12.56
  0
LINE
  8
0
  6
CONTINUOUS
 62
     7
 10
-0.76631582
 20
27.440001
 11
6.2336841
 21
27.440001
  0
LINE
  8
0
  6
CONTINUOUS
 62
     7
 10
-8.7663155
 20
-26.559999
 11
-8.7663155
 21
-35.560001
  0
LINE
  8
0
  6
CONTINUOUS
 62
     7
 10
-68.766319
 20
-26.559999
 11
-68.766319
 21
-35.560001
  0
LINE
  8
0
  6
CONTINUOUS
 62
     7
 10
-10.766315
 20
-19.059999
 11
-10.766315
 21
-23.095903
  0
LINE
  8
0
  6
CONTINUOUS
 62
     7
 10
-66.766319
 20
-19.059999
 11
-66.766319
 21
-23.095903
  0
LINE
  8
0
  6
CONTINUOUS
 62
     7
 10
-21.766315
 20
25.940001
 11
-3.3643992
 21
25.940001
  0
LINE
  8
0
  6
CONTINUOUS
 62
     7
 10
-6.7663159
 20
-15.06
 11
-3.3643992
 21
-15.06
  0
LINE
  8
0
  6
CONTINUOUS
 62
     7
 10
-0.76631582
 20
-16.559999
 11
6.2336841
 21
-16.559999
  0
LINE
  8
0
  6
CENTER
 62
     7
 10
-38.766315
 20
-17.943651
 11
-38.766315
 21
-40.560001
  0
LINE
  8
0
  6
CENTER
 62
     7
 10
-15.382587
 20
5.4400001
 11
12.174404
 21
5.4400001
  0
LINE
  8
0
  6
CONTINUOUS
 62
     7
 10
6.2336841
 20
27.440001
 11
6.2336841
 21
-16.559999
  0
LINE
  8
0
  6
CONTINUOUS
 62
     7
 10
-0.76631582
 20
-16.559999
 11
-0.76631582
 21
27.440001
  0
LINE
  8
0
  6
CONTINUOUS
 62
     7
 10
-68.766319
 20
-26.559999
 11
-8.7663155
 21
-26.559999
  0
LINE
  8
0
  6
CONTINUOUS
 62
     7
 10
-8.7663155
 20
-35.560001
 11
-68.766319
 21
-35.560001
  0
LINE
  8
0
  6
CONTINUOUS
 62
     7
 10
87.107368
 20
-31.393684
 11
87.107368
 21
-40.393684
  0
LINE
  8
0
  6
CONTINUOUS
 62
     7
 10
27.107368
 20
-31.393684
 11
27.107368
 21
-40.393684
  0
LINE
  8
0
  6
CONTINUOUS
 62
     7
 10
85.107368
 20
-24.393684
 11
85.107368
 21
-27.929588
  0
LINE
  8
0
  6
CONTINUOUS
 62
     7
 10
29.107368
 20
-24.393684
 11
29.107368
 21
-27.929588
  0
LINE
  8
0
  6
CENTER
 62
     7
 10
84.790001
 20
4.6063156
 11
111.70737
 21
4.6063156
  0
LINE
  8
0
  6
CONTINUOUS
 62
     7
 10
89.107368
 20
-20.393684
 11
94.509285
 21
-20.393684
  0
LINE
  8
0
  6
CONTINUOUS
 62
     7
 10
97.107368
 20
-21.893684
 11
105.10737
 21
-21.893684
  0
LINE
  8
0
  6
CONTINUOUS
 62
     7
 10
97.107368
 20
31.106316
 11
105.10737
 21
31.106316
  0
LINE
  8
0
  6
CONTINUOUS
 62
     7
 10
83.107368
 20
29.606316
 11
94.509285
 21
29.606316
  0
LINE
  8
0
  6
CENTER
 62
     7
 10
57.107368
 20
-23.076393
 11
57.107368
 21
-45.393684
  0
LINE
  8
0
  6
CONTINUOUS
 62
     7
 10
105.10737
 20
31.106316
 11
105.10737
 21
-21.893684
  0
LINE
  8
0
  6
CONTINUOUS
 62
     7
 10
97.479683
 20
-21.893684
 11
97.479683
 21
31.106316
  0
LINE
  8
0
  6
CONTINUOUS
 62
     7
 10
27.107368
 20
-31.393684
 11
87.107368
 21
-31.393684
  0
LINE
  8
0
  6
CONTINUOUS
 62
     7
 10
27.107368
 20
-40.393684
 11
87.107368
 21
-40.393684
  0
LINE
  8
0
  6
CENTER
 62
     7
 10
212.60385
 20
5.4400001
 11
237.69473
 21
5.4400001
  0
LINE
  8
0
  6
CENTER
 62
     7
 10
185.49474
 20
-21.669107
 11
185.49474
 21
-36.16
  0
LINE
  8
0
  6
CONTINUOUS
 62
     7
 10
184.49474
 20
18.940001
 11
224.89667
 21
18.940001
  0
LINE
  8
0
  6
CONTINUOUS
 62
     7
 10
219.99474
 20
-13.06
 11
219.99474
 21
-17.095898
  0
LINE
  8
0
  6
CONTINUOUS
 62
     7
 10
150.99474
 20
-14.56
 11
150.99474
 21
-17.095898
  0
LINE
  8
0
  6
CONTINUOUS
 62
     7
 10
224.89667
 20
-8.0600004
 11
224.99474
 21
-8.0600004
  0
LINE
  8
0
  6
CONTINUOUS
 62
     7
 10
227.49474
 20
-9.5600004
 11
233.49474
 21
-9.5600004
  0
LINE
  8
0
  6
CONTINUOUS
 62
     7
 10
227.49474
 20
20.440001
 11
233.49474
 21
20.440001
  0
LINE
  8
0
  6
CONTINUOUS
 62
     7
 10
221.99474
 20
-20.559999
 11
221.99474
 21
-31.559999
  0
LINE
  8
0
  6
CONTINUOUS
 62
     7
 10
148.99474
 20
-20.559999
 11
148.99474
 21
-31.559999
  0
LINE
  8
0
  6
CONTINUOUS
 62
     7
 10
233.49474
 20
20.440001
 11
233.49474
 21
-9.5600004
  0
LINE
  8
0
  6
CONTINUOUS
 62
     7
 10
148.99474
 20
-31.559999
 11
221.99474
 21
-31.559999
  0
LINE
  8
0
  6
CONTINUOUS
 62
     7
 10
227.49474
 20
20.440001
 11
227.49474
 21
-9.5600004
  0
LINE
  8
0
  6
CONTINUOUS
 62
     7
 10
148.99474
 20
-20.559999
 11
221.99474
 21
-20.559999
  0
LINE
  8
0
  6
CONTINUOUS
 62
     7
 10
-199.51685
 20
-132.79895
 11
-197.61493
 21
-132.79895
  0
LINE
  8
0
  6
CONTINUOUS
 62
     7
 10
-195.01685
 20
-98.29895
 11
-189.01685
 21
-98.29895
  0
LINE
  8
0
  6
CONTINUOUS
 62
     7
 10
-235.51685
 20
-99.79895
 11
-197.61493
 21
-99.79895
  0
LINE
  8
0
  6
CONTINUOUS
 62
     7
 10
-272.51685
 20
-136.79895
 11
-272.51685
 21
-142.83485
  0
LINE
  8
0
  6
CONTINUOUS
 62
     7
 10
-274.51685
 20
-146.29895
 11
-274.51685
 21
-157.29895
  0
LINE
  8
0
  6
CONTINUOUS
 62
     7
 10
-201.51685
 20
-146.29895
 11
-201.51685
 21
-157.29895
  0
LINE
  8
0
  6
CONTINUOUS
 62
     7
 10
-203.51685
 20
-136.79895
 11
-203.51685
 21
-142.83485
  0
LINE
  8
0
  6
CONTINUOUS
 62
     7
 10
-195.01685
 20
-134.29895
 11
-189.01685
 21
-134.29895
  0
LINE
  8
0
  6
CENTER
 62
     7
 10
-238.01685
 20
-139.62567
 11
-238.01685
 21
-163.89894
  0
LINE
  8
0
  6
CENTER
 62
     7
 10
-214.69019
 20
-116.29895
 11
-182.61685
 21
-116.29895
  0
LINE
  8
0
  6
CONTINUOUS
 62
     7
 10
-274.51685
 20
-146.29895
 11
-201.51685
 21
-146.29895
  0
LINE
  8
0
  6
CONTINUOUS
 62
     7
 10
-201.51685
 20
-157.29895
 11
-274.51685
 21
-157.29895
  0
LINE
  8
0
  6
CONTINUOUS
 62
     7
 10
-189.01685
 20
-98.29895
 11
-189.01685
 21
-134.29895
  0
LINE
  8
0
  6
CONTINUOUS
 62
     7
 10
-195.01685
 20
-134.29895
 11
-195.01685
 21
-98.29895
  0
LINE
  8
0
  6
CENTER
 62
     7
 10
-117.13263
 20
-140.01895
 11
-117.13263
 21
-166.06525
  0
LINE
  8
0
  6
CONTINUOUS
 62
     7
 10
-106.63263
 20
-94.965263
 11
-75.730713
 21
-94.965263
  0
LINE
  8
0
  6
CENTER
 62
     7
 10
-92.578873
 20
-115.46526
 11
-59.732639
 21
-115.46526
  0
LINE
  8
0
  6
CONTINUOUS
 62
     7
 10
-151.63263
 20
-139.96526
 11
-151.63263
 21
-145.00116
  0
LINE
  8
0
  6
CONTINUOUS
 62
     7
 10
-153.63263
 20
-148.46526
 11
-153.63263
 21
-159.46526
  0
LINE
  8
0
  6
CONTINUOUS
 62
     7
 10
-80.632629
 20
-148.46526
 11
-80.632629
 21
-159.46526
  0
LINE
  8
0
  6
CONTINUOUS
 62
     7
 10
-82.632629
 20
-139.96526
 11
-82.632629
 21
-145.00116
  0
LINE
  8
0
  6
CONTINUOUS
 62
     7
 10
-73.132629
 20
-93.465263
 11
-66.132629
 21
-93.465263
  0
LINE
  8
0
  6
CONTINUOUS
 62
     7
 10
-73.132629
 20
-137.46526
 11
-66.132629
 21
-137.46526
  0
LINE
  8
0
  6
CONTINUOUS
 62
     7
 10
-78.632629
 20
-135.96526
 11
-75.730713
 21
-135.96526
  0
LINE
  8
0
  6
CONTINUOUS
 62
     7
 10
-66.132629
 20
-93.465263
 11
-66.132629
 21
-137.46526
  0
LINE
  8
0
  6
CONTINUOUS
 62
     7
 10
-73.132629
 20
-137.46526
 11
-73.132629
 21
-93.465263
  0
LINE
  8
0
  6
CONTINUOUS
 62
     7
 10
-153.63263
 20
-159.46526
 11
-80.632629
 21
-159.46526
  0
LINE
  8
0
  6
CONTINUOUS
 62
     7
 10
-80.632629
 20
-148.46526
 11
-153.63263
 21
-148.46526
  0
LINE
  8
0
  6
CONTINUOUS
 62
     7
 10
-27.413685
 20
-142.96422
 11
-27.413685
 21
-146.50012
  0
LINE
  8
0
  6
CONTINUOUS
 62
     7
 10
-29.413685
 20
-149.96422
 11
-29.413685
 21
-160.96422
  0
LINE
  8
0
  6
CONTINUOUS
 62
     7
 10
43.586315
 20
-149.96422
 11
43.586315
 21
-160.96422
  0
LINE
  8
0
  6
CONTINUOUS
 62
     7
 10
41.586315
 20
-141.96422
 11
41.586315
 21
-146.50012
  0
LINE
  8
0
  6
CONTINUOUS
 62
     7
 10
53.086315
 20
-86.464211
 11
61.086315
 21
-86.464211
  0
LINE
  8
0
  6
CONTINUOUS
 62
     7
 10
27.586315
 20
-87.964211
 11
50.488232
 21
-87.964211
  0
LINE
  8
0
  6
CONTINUOUS
 62
     7
 10
53.086315
 20
-139.46422
 11
61.086315
 21
-139.46422
  0
LINE
  8
0
  6
CONTINUOUS
 62
     7
 10
45.586315
 20
-137.96422
 11
50.488232
 21
-137.96422
  0
LINE
  8
0
  6
CENTER
 62
     7
 10
7.0863156
 20
-141.76503
 11
7.0863156
 21
-167.56421
  0
LINE
  8
0
  6
CENTER
 62
     7
 10
35.887051
 20
-112.96421
 11
67.703796
 21
-112.96421
  0
LINE
  8
0
  6
CONTINUOUS
 62
     7
 10
-29.413685
 20
-149.96422
 11
43.586315
 21
-149.96422
  0
LINE
  8
0
  6
CONTINUOUS
 62
     7
 10
43.586315
 20
-160.96422
 11
-29.413685
 21
-160.96422
  0
LINE
  8
0
  6
CONTINUOUS
 62
     7
 10
61.086315
 20
-86.464211
 11
61.086315
 21
-139.46422
  0
LINE
  8
0
  6
CONTINUOUS
 62
     7
 10
53.086315
 20
-139.46422
 11
53.086315
 21
-86.464211
  0
LINE
  8
0
  6
CONTINUOUS
 62
     7
 10
115.98
 20
-144.13052
 11
115.98
 21
-149.66643
  0
LINE
  8
0
  6
CONTINUOUS
 62
     7
 10
113.98
 20
-153.13052
 11
113.98
 21
-164.13052
  0
LINE
  8
0
  6
CONTINUOUS
 62
     7
 10
196.48
 20
-142.13052
 11
205.48
 21
-142.13052
  0
LINE
  8
0
  6
CONTINUOUS
 62
     7
 10
186.98
 20
-153.13052
 11
186.98
 21
-164.13052
  0
LINE
  8
0
  6
CONTINUOUS
 62
     7
 10
184.98
 20
-144.13052
 11
184.98
 21
-149.66643
  0
LINE
  8
0
  6
CONTINUOUS
 62
     7
 10
196.48
 20
-82.130524
 11
205.48
 21
-82.130524
  0
LINE
  8
0
  6
CONTINUOUS
 62
     7
 10
175.98
 20
-84.130524
 11
193.0159
 21
-84.130524
  0
LINE
  8
0
  6
CONTINUOUS
 62
     7
 10
188.98
 20
-140.13052
 11
193.0159
 21
-140.13052
  0
LINE
  8
0
  6
CENTER
 62
     7
 10
150.48
 20
-143.20805
 11
150.48
 21
-170.73051
  0
LINE
  8
0
  6
CENTER
 62
     7
 10
181.55759
 20
-112.13052
 11
212.08
 21
-112.13052
  0
LINE
  8
0
  6
CONTINUOUS
 62
     7
 10
205.48
 20
-82.130524
 11
205.48
 21
-142.13052
  0
LINE
  8
0
  6
CONTINUOUS
 62
     7
 10
196.48
 20
-142.13052
 11
196.48
 21
-82.130524
  0
LINE
  8
0
  6
CONTINUOUS
 62
     7
 10
113.98
 20
-153.13052
 11
186.98
 21
-153.13052
  0
LINE
  8
0
  6
CONTINUOUS
 62
     7
 10
186.98
 20
-164.13052
 11
113.98
 21
-164.13052
  0
LINE
  8
0
  6
CONTINUOUS
 62
     7
 10
313
 20
200
 11
887
 21
200
  0
LINE
  8
0
  6
CONTINUOUS
 62
     7
 10
887
 20
200
 11
887
 21
-200
  0
LINE
  8
0
  6
CONTINUOUS
 62
     7
 10
313
 20
200
 11
313
 21
-200
  0
LINE
  8
0
  6
CONTINUOUS
 62
     7
 10
313
 20
-200
 11
887
 21
-200
  0
LINE
  8
0
  6
CONTINUOUS
 62
     7
 10
-287
 20
-230
 11
287
 21
-230
  0
LINE
  8
0
  6
CONTINUOUS
 62
     7
 10
287
 20
-230
 11
287
 21
-630
  0
LINE
  8
0
  6
CONTINUOUS
 62
     7
 10
-287
 20
-230
 11
-287
 21
-630
  0
LINE
  8
0
  6
CONTINUOUS
 62
     7
 10
-287
 20
-630
 11
287
 21
-630
  0
LINE
  8
0
  6
CONTINUOUS
 62
     7
 10
313
 20
-230
 11
887
 21
-230
  0
LINE
  8
0
  6
CONTINUOUS
 62
     7
 10
887
 20
-230
 11
887
 21
-630
  0
LINE
  8
0
  6
CONTINUOUS
 62
     7
 10
313
 20
-230
 11
313
 21
-630
  0
LINE
  8
0
  6
CONTINUOUS
 62
     7
 10
313
 20
-630
 11
887
 21
-630
  0
LINE
  8
0
  6
CONTINUOUS
 62
     7
 10
443.66599
 20
92.21228
 11
443.66599
 21
80.21228
  0
LINE
  8
0
  6
CONTINUOUS
 62
     7
 10
449.16599
 20
136.21228
 11
455.16599
 21
136.21228
  0
LINE
  8
0
  6
CONTINUOUS
 62
     7
 10
352.66599
 20
92.21228
 11
352.66599
 21
80.21228
  0
LINE
  8
0
  6
CONTINUOUS
 62
     7
 10
449.16599
 20
106.21228
 11
455.16599
 21
106.21228
  0
LINE
  8
0
  6
CONTINUOUS
 62
     7
 10
355.16599
 20
103.21228
 11
355.16599
 21
97.085678
  0
LINE
  8
0
  6
CONTINUOUS
 62
     7
 10
441.16599
 20
103.21228
 11
441.16599
 21
97.085678
  0
LINE
  8
0
  6
CONTINUOUS
 62
     7
 10
386.66599
 20
134.71228
 11
446.5679
 21
134.71228
  0
LINE
  8
0
  6
CONTINUOUS
 62
     7
 10
445.66599
 20
107.71228
 11
446.5679
 21
107.71228
  0
LINE
  8
0
  6
CONTINUOUS
 62
     7
 10
455.16599
 20
136.21228
 11
455.16599
 21
106.21228
  0
LINE
  8
0
  6
CENTER
 62
     7
 10
417.56598
 20
121.21228
 11
460.29099
 21
121.21228
  0
LINE
  8
0
  6
CONTINUOUS
 62
     7
 10
352.66599
 20
80.21228
 11
443.66599
 21
80.21228
  0
LINE
  8
0
  6
CENTER
 62
     7
 10
398.16599
 20
101.81228
 11
398.16599
 21
74.83728
  0
LINE
  8
0
  6
CONTINUOUS
 62
     7
 10
449.16599
 20
136.21228
 11
449.16599
 21
106.21228
  0
LINE
  8
0
  6
CONTINUOUS
 62
     7
 10
443.66599
 20
92.21228
 11
352.66599
 21
92.21228
  0
LINE
  8
0
  6
CONTINUOUS
 62
     7
 10
589.97449
 20
100.95262
 11
589.97449
 21
94.826019
  0
LINE
  8
0
  6
CONTINUOUS
 62
     7
 10
592.47449
 20
89.952621
 11
592.47449
 21
77.952621
  0
LINE
  8
0
  6
CONTINUOUS
 62
     7
 10
501.47449
 20
89.952621
 11
501.47449
 21
77.952621
  0
LINE
  8
0
  6
CONTINUOUS
 62
     7
 10
599.97449
 20
139.95262
 11
605.97449
 21
139.95262
  0
LINE
  8
0
  6
CONTINUOUS
 62
     7
 10
503.97449
 20
100.95262
 11
503.97449
 21
94.826019
  0
LINE
  8
0
  6
CENTER
 62
     7
 10
546.97449
 20
96.24118
 11
546.97449
 21
72.952621
  0
LINE
  8
0
  6
CENTER
 62
     7
 10
572.68591
 20
121.95262
 11
610.37445
 21
121.95262
  0
LINE
  8
0
  6
CONTINUOUS
 62
     7
 10
594.47449
 20
105.45262
 11
597.3764
 21
105.45262
  0
LINE
  8
0
  6
CONTINUOUS
 62
     7
 10
599.97449
 20
103.95262
 11
605.97449
 21
103.95262
  0
LINE
  8
0
  6
CONTINUOUS
 62
     7
 10
541.47449
 20
138.45262
 11
597.3764
 21
138.45262
  0
LINE
  8
0
  6
CONTINUOUS
 62
     7
 10
592.47449
 20
77.952621
 11
501.47449
 21
77.952621
  0
LINE
  8
0
  6
CONTINUOUS
 62
     7
 10
501.47449
 20
89.952621
 11
592.47449
 21
89.952621
  0
LINE
  8
0
  6
CONTINUOUS
 62
     7
 10
605.97449
 20
139.95262
 11
605.97449
 21
103.95262
  0
LINE
  8
0
  6
CONTINUOUS
 62
     7
 10
599.97449
 20
103.95262
 11
599.97449
 21
139.95262
  0
LINE
  8
0
  6
CONTINUOUS
 62
     7
 10
731.1972
 20
99.971939
 11
733.59912
 21
99.971939
  0
LINE
  8
0
  6
CONTINUOUS
 62
     7
 10
686.1972
 20
140.97194
 11
733.59912
 21
140.97194
  0
LINE
  8
0
  6
CONTINUOUS
 62
     7
 10
637.6972
 20
84.471939
 11
637.6972
 21
72.471939
  0
LINE
  8
0
  6
CENTER
 62
     7
 10
683.1972
 20
90.426773
 11
683.1972
 21
67.471939
  0
LINE
  8
0
  6
CONTINUOUS
 62
     7
 10
726.1972
 20
94.971939
 11
726.1972
 21
89.345337
  0
LINE
  8
0
  6
CONTINUOUS
 62
     7
 10
640.1972
 20
94.971939
 11
640.1972
 21
89.345337
  0
LINE
  8
0
  6
CENTER
 62
     7
 10
713.24249
 20
120.47194
 11
747.59717
 21
120.47194
  0
LINE
  8
0
  6
CONTINUOUS
 62
     7
 10
736.1972
 20
98.471939
 11
743.1972
 21
98.471939
  0
LINE
  8
0
  6
CONTINUOUS
 62
     7
 10
736.1972
 20
142.47194
 11
743.1972
 21
142.47194
  0
LINE
  8
0
  6
CONTINUOUS
 62
     7
 10
728.6972
 20
84.471939
 11
728.6972
 21
72.471939
  0
LINE
  8
0
  6
CONTINUOUS
 62
     7
 10
743.1972
 20
142.47194
 11
743.1972
 21
98.471939
  0
LINE
  8
0
  6
CONTINUOUS
 62
     7
 10
736.1972
 20
98.471939
 11
736.1972
 21
142.47194
  0
LINE
  8
0
  6
CONTINUOUS
 62
     7
 10
637.6972
 20
72.471939
 11
728.6972
 21
72.471939
  0
LINE
  8
0
  6
CONTINUOUS
 62
     7
 10
728.6972
 20
84.471939
 11
637.6972
 21
84.471939
  0
LINE
  8
0
  6
CONTINUOUS
 62
     7
 10
852.05511
 20
88.731598
 11
852.05511
 21
84.604996
  0
LINE
  8
0
  6
CONTINUOUS
 62
     7
 10
854.55511
 20
79.731598
 11
854.55511
 21
67.731598
  0
LINE
  8
0
  6
CENTER
 62
     7
 10
809.05511
 20
87.967163
 11
809.05511
 21
62.731598
  0
LINE
  8
0
  6
CONTINUOUS
 62
     7
 10
820.05511
 20
144.7316
 11
860.45703
 21
144.7316
  0
LINE
  8
0
  6
CONTINUOUS
 62
     7
 10
858.05511
 20
94.731598
 11
860.45703
 21
94.731598
  0
LINE
  8
0
  6
CONTINUOUS
 62
     7
 10
863.05511
 20
93.231598
 11
871.05511
 21
93.231598
  0
LINE
  8
0
  6
CENTER
 62
     7
 10
840.81958
 20
119.7316
 11
875.65515
 21
119.7316
  0
LINE
  8
0
  6
CONTINUOUS
 62
     7
 10
766.05511
 20
90.731598
 11
766.05511
 21
84.604996
  0
LINE
  8
0
  6
CONTINUOUS
 62
     7
 10
763.55511
 20
79.731598
 11
763.55511
 21
67.731598
  0
LINE
  8
0
  6
CONTINUOUS
 62
     7
 10
863.05511
 20
146.2316
 11
871.05511
 21
146.2316
  0
LINE
  8
0
  6
CONTINUOUS
 62
     7
 10
763.55511
 20
67.731598
 11
854.55511
 21
67.731598
  0
LINE
  8
0
  6
CONTINUOUS
 62
     7
 10
854.55511
 20
79.731598
 11
763.55511
 21
79.731598
  0
LINE
  8
0
  6
CONTINUOUS
 62
     7
 10
871.05511
 20
146.2316
 11
871.05511
 21
93.231598
  0
LINE
  8
0
  6
CONTINUOUS
 62
     7
 10
863.05511
 20
146.2316
 11
863.05511
 21
93.231598
  0
LINE
  8
0
  6
CENTER
 62
     7
 10
378.17679
 20
-20.104147
 11
378.17679
 21
-47.617821
  0
LINE
  8
0
  6
CONTINUOUS
 62
     7
 10
335.17679
 20
-19.117819
 11
335.17679
 21
-25.744421
  0
LINE
  8
0
  6
CONTINUOUS
 62
     7
 10
421.17679
 20
-20.617819
 11
421.17679
 21
-25.744421
  0
LINE
  8
0
  6
CENTER
 62
     7
 10
410.66318
 20
12.382181
 11
444.77679
 21
12.382181
  0
LINE
  8
0
  6
CONTINUOUS
 62
     7
 10
423.67679
 20
-30.617819
 11
423.67679
 21
-42.617821
  0
LINE
  8
0
  6
CONTINUOUS
 62
     7
 10
426.17679
 20
-15.617819
 11
427.71268
 21
-15.617819
  0
LINE
  8
0
  6
CONTINUOUS
 62
     7
 10
431.17679
 20
42.382179
 11
440.17679
 21
42.382179
  0
LINE
  8
0
  6
CONTINUOUS
 62
     7
 10
431.17679
 20
-17.617819
 11
440.17679
 21
-17.617819
  0
LINE
  8
0
  6
CONTINUOUS
 62
     7
 10
394.67679
 20
40.382179
 11
427.71268
 21
40.382179
  0
LINE
  8
0
  6
CONTINUOUS
 62
     7
 10
332.67679
 20
-30.617819
 11
332.67679
 21
-42.617821
  0
LINE
  8
0
  6
CONTINUOUS
 62
     7
 10
440.17679
 20
42.382179
 11
440.17679
 21
-17.617819
  0
LINE
  8
0
  6
CONTINUOUS
 62
     7
 10
431.17679
 20
-17.617819
 11
431.17679
 21
42.382179
  0
LINE
  8
0
  6
CONTINUOUS
 62
     7
 10
332.67679
 20
-42.617821
 11
423.67679
 21
-42.617821
  0
LINE
  8
0
  6
CONTINUOUS
 62
     7
 10
423.67679
 20
-30.617819
 11
332.67679
 21
-30.617819
  0
LINE
  8
0
  6
CONTINUOUS
 62
     7
 10
569.52393
 20
-37.83884
 11
569.52393
 21
-49.83884
  0
LINE
  8
0
  6
CENTER
 62
     7
 10
524.02393
 20
-31.330023
 11
524.02393
 21
-54.83884
  0
LINE
  8
0
  6
CONTINUOUS
 62
     7
 10
567.02393
 20
-30.338842
 11
567.02393
 21
-32.965443
  0
LINE
  8
0
  6
CONTINUOUS
 62
     7
 10
481.02393
 20
-30.338842
 11
481.02393
 21
-32.965443
  0
LINE
  8
0
  6
CONTINUOUS
 62
     7
 10
478.52393
 20
-37.83884
 11
478.52393
 21
-49.83884
  0
LINE
  8
0
  6
CENTER
 62
     7
 10
565.51508
 20
10.161159
 11
593.6239
 21
10.161159
  0
LINE
  8
0
  6
CONTINUOUS
 62
     7
 10
578.02393
 20
46.66116
 11
589.02393
 21
46.66116
  0
LINE
  8
0
  6
CONTINUOUS
 62
     7
 10
556.02393
 20
44.66116
 11
574.55981
 21
44.66116
  0
LINE
  8
0
  6
CONTINUOUS
 62
     7
 10
578.02393
 20
-26.338842
 11
589.02393
 21
-26.338842
  0
LINE
  8
0
  6
CONTINUOUS
 62
     7
 10
573.02393
 20
-24.338842
 11
574.55981
 21
-24.338842
  0
LINE
  8
0
  6
CONTINUOUS
 62
     7
 10
478.52393
 20
-49.83884
 11
569.52393
 21
-49.83884
  0
LINE
  8
0
  6
CONTINUOUS
 62
     7
 10
569.52393
 20
-37.83884
 11
478.52393
 21
-37.83884
  0
LINE
  8
0
  6
CONTINUOUS
 62
     7
 10
589.02393
 20
46.66116
 11
589.02393
 21
-26.338842
  0
LINE
  8
0
  6
CONTINUOUS
 62
     7
 10
578.02393
 20
46.66116
 11
578.02393
 21
-26.338842
  0
LINE
  8
0
  6
CENTER
 62
     7
 10
671.35175
 20
-21.347441
 11
671.35175
 21
-51.824631
  0
LINE
  8
0
  6
CENTER
 62
     7
 10
690.27454
 20
-2.4246352
 11
739.75171
 21
-2.4246352
  0
LINE
  8
0
  6
CONTINUOUS
 62
     7
 10
653.85175
 20
11.075365
 11
726.75366
 21
11.075365
  0
LINE
  8
0
  6
CONTINUOUS
 62
     7
 10
725.85175
 20
-15.924635
 11
726.75366
 21
-15.924635
  0
LINE
  8
0
  6
CONTINUOUS
 62
     7
 10
729.35175
 20
12.575365
 11
735.35175
 21
12.575365
  0
LINE
  8
0
  6
CONTINUOUS
 62
     7
 10
729.35175
 20
-17.424635
 11
735.35175
 21
-17.424635
  0
LINE
  8
0
  6
CONTINUOUS
 62
     7
 10
621.85175
 20
-20.924635
 11
621.85175
 21
-26.283201
  0
LINE
  8
0
  6
CONTINUOUS
 62
     7
 10
720.85175
 20
-20.924635
 11
720.85175
 21
-26.283201
  0
LINE
  8
0
  6
CONTINUOUS
 62
     7
 10
618.85175
 20
-33.424637
 11
618.85175
 21
-46.424637
  0
LINE
  8
0
  6
CONTINUOUS
 62
     7
 10
723.85175
 20
-33.424637
 11
723.85175
 21
-46.424637
  0
LINE
  8
0
  6
CONTINUOUS
 62
     7
 10
735.35175
 20
12.575365
 11
735.35175
 21
-17.424635
  0
LINE
  8
0
  6
CONTINUOUS
 62
     7
 10
729.35175
 20
-17.424635
 11
729.35175
 21
12.575365
  0
LINE
  8
0
  6
CONTINUOUS
 62
     7
 10
723.85175
 20
-33.424637
 11
618.85175
 21
-33.424637
  0
LINE
  8
0
  6
CONTINUOUS
 62
     7
 10
618.85175
 20
-46.424637
 11
723.85175
 21
-46.424637
  0
LINE
  8
0
  6
CENTER
 62
     7
 10
806.83411
 20
-21.591047
 11
806.83411
 21
-55.564976
  0
LINE
  8
0
  6
CONTINUOUS
 62
     7
 10
790.33411
 20
13.335024
 11
864.23602
 21
13.335024
  0
LINE
  8
0
  6
CONTINUOUS
 62
     7
 10
862.33411
 20
-19.664976
 11
864.23602
 21
-19.664976
  0
LINE
  8
0
  6
CONTINUOUS
 62
     7
 10
866.83411
 20
-21.164976
 11
872.83411
 21
-21.164976
  0
LINE
  8
0
  6
CENTER
 62
     7
 10
825.26019
 20
-3.1649761
 11
877.23413
 21
-3.1649761
  0
LINE
  8
0
  6
CONTINUOUS
 62
     7
 10
859.33411
 20
-37.164974
 11
859.33411
 21
-50.164974
  0
LINE
  8
0
  6
CONTINUOUS
 62
     7
 10
757.33411
 20
-19.664976
 11
757.33411
 21
-30.023542
  0
LINE
  8
0
  6
CONTINUOUS
 62
     7
 10
856.33411
 20
-25.664976
 11
856.33411
 21
-30.023542
  0
LINE
  8
0
  6
CONTINUOUS
 62
     7
 10
754.33411
 20
-37.164974
 11
754.33411
 21
-50.164974
  0
LINE
  8
0
  6
CONTINUOUS
 62
     7
 10
866.83411
 20
14.835024
 11
872.83411
 21
14.835024
  0
LINE
  8
0
  6
CONTINUOUS
 62
     7
 10
754.33411
 20
-50.164974
 11
859.33411
 21
-50.164974
  0
LINE
  8
0
  6
CONTINUOUS
 62
     7
 10
859.33411
 20
-37.164974
 11
754.33411
 21
-37.164974
  0
LINE
  8
0
  6
CONTINUOUS
 62
     7
 10
872.83411
 20
14.835024
 11
872.83411
 21
-21.164976
  0
LINE
  8
0
  6
CONTINUOUS
 62
     7
 10
866.83411
 20
-21.164976
 11
866.83411
 21
14.835024
  0
LINE
  8
0
  6
CENTER
 62
     7
 10
371.5137
 20
-162.50064
 11
371.5137
 21
-185.20189
  0
LINE
  8
0
  6
CONTINUOUS
 62
     7
 10
428.0137
 20
-147.3019
 11
429.91562
 21
-147.3019
  0
LINE
  8
0
  6
CENTER
 62
     7
 10
407.21246
 20
-126.80189
 11
445.9137
 21
-126.80189
  0
LINE
  8
0
  6
CONTINUOUS
 62
     7
 10
432.5137
 20
-104.80189
 11
439.5137
 21
-104.80189
  0
LINE
  8
0
  6
CONTINUOUS
 62
     7
 10
432.5137
 20
-148.8019
 11
439.5137
 21
-148.8019
  0
LINE
  8
0
  6
CONTINUOUS
 62
     7
 10
424.0137
 20
-164.8019
 11
424.0137
 21
-177.80188
  0
LINE
  8
0
  6
CONTINUOUS
 62
     7
 10
421.0137
 20
-154.3019
 11
421.0137
 21
-157.66046
  0
LINE
  8
0
  6
CONTINUOUS
 62
     7
 10
319.0137
 20
-164.8019
 11
319.0137
 21
-177.8019
  0
LINE
  8
0
  6
CONTINUOUS
 62
     7
 10
322.0137
 20
-154.3019
 11
322.0137
 21
-157.66046
  0
LINE
  8
0
  6
CONTINUOUS
 62
     7
 10
370.0137
 20
-106.30189
 11
429.91562
 21
-106.30189
  0
LINE
  8
0
  6
CONTINUOUS
 62
     7
 10
439.5137
 20
-104.80189
 11
439.5137
 21
-148.8019
  0
LINE
  8
0
  6
CONTINUOUS
 62
     7
 10
432.5137
 20
-148.8019
 11
432.5137
 21
-104.80189
  0
LINE
  8
0
  6
CONTINUOUS
 62
     7
 10
319.0137
 20
-177.8019
 11
424.0137
 21
-177.8019
  0
LINE
  8
0
  6
CONTINUOUS
 62
     7
 10
319.0137
 20
-164.8019
 11
424.0137
 21
-164.8019
  0
LINE
  8
0
  6
CONTINUOUS
 62
     7
 10
449.35233
 20
-159.76326
 11
449.35233
 21
-164.62183
  0
LINE
  8
0
  6
CENTER
 62
     7
 10
498.85233
 20
-164.00026
 11
498.85233
 21
-190.16325
  0
LINE
  8
0
  6
CONTINUOUS
 62
     7
 10
554.85236
 20
-154.76326
 11
558.25427
 21
-154.76326
  0
LINE
  8
0
  6
CONTINUOUS
 62
     7
 10
504.35233
 20
-104.76325
 11
558.25427
 21
-104.76325
  0
LINE
  8
0
  6
CENTER
 62
     7
 10
533.08936
 20
-129.76326
 11
573.45233
 21
-129.76326
  0
LINE
  8
0
  6
CONTINUOUS
 62
     7
 10
560.85236
 20
-103.26325
 11
568.85236
 21
-103.26325
  0
LINE
  8
0
  6
CONTINUOUS
 62
     7
 10
446.35233
 20
-171.76326
 11
446.35233
 21
-184.76326
  0
LINE
  8
0
  6
CONTINUOUS
 62
     7
 10
548.35236
 20
-161.26326
 11
548.35236
 21
-164.62183
  0
LINE
  8
0
  6
CONTINUOUS
 62
     7
 10
551.35236
 20
-171.76326
 11
551.35236
 21
-184.76324
  0
LINE
  8
0
  6
CONTINUOUS
 62
     7
 10
560.85236
 20
-156.26326
 11
568.85236
 21
-156.26326
  0
LINE
  8
0
  6
CONTINUOUS
 62
     7
 10
446.35233
 20
-184.76326
 11
551.35236
 21
-184.76326
  0
LINE
  8
0
  6
CONTINUOUS
 62
     7
 10
551.35236
 20
-171.76326
 11
446.35233
 21
-171.76326
  0
LINE
  8
0
  6
CONTINUOUS
 62
     7
 10
568.85236
 20
-103.26325
 11
568.85236
 21
-156.26326
  0
LINE
  8
0
  6
CONTINUOUS
 62
     7
 10
560.85236
 20
-156.26326
 11
560.85236
 21
-103.26325
  0
LINE
  8
0
  6
CONTINUOUS
 62
     7
 10
686.09436
 20
-175.98428
 11
686.09436
 21
-188.98427
  0
LINE
  8
0
  6
CENTER
 62
     7
 10
633.59436
 20
-166.6124
 11
633.59436
 21
-194.38428
  0
LINE
  8
0
  6
CONTINUOUS
 62
     7
 10
695.59436
 20
-161.98428
 11
704.59436
 21
-161.98428
  0
LINE
  8
0
  6
CONTINUOUS
 62
     7
 10
695.59436
 20
-101.98428
 11
704.59436
 21
-101.98428
  0
LINE
  8
0
  6
CENTER
 62
     7
 10
668.22241
 20
-131.98428
 11
709.19434
 21
-131.98428
  0
LINE
  8
0
  6
CONTINUOUS
 62
     7
 10
683.09436
 20
-165.98428
 11
683.09436
 21
-168.84285
  0
LINE
  8
0
  6
CONTINUOUS
 62
     7
 10
584.09436
 20
-165.98428
 11
584.09436
 21
-168.84285
  0
LINE
  8
0
  6
CONTINUOUS
 62
     7
 10
581.09436
 20
-175.98428
 11
581.09436
 21
-188.98428
  0
LINE
  8
0
  6
CONTINUOUS
 62
     7
 10
689.09436
 20
-159.98428
 11
692.13025
 21
-159.98428
  0
LINE
  8
0
  6
CONTINUOUS
 62
     7
 10
646.09436
 20
-103.98428
 11
692.13025
 21
-103.98428
  0
LINE
  8
0
  6
CONTINUOUS
 62
     7
 10
704.59436
 20
-101.98428
 11
704.59436
 21
-161.98428
  0
LINE
  8
0
  6
CONTINUOUS
 62
     7
 10
695.59436
 20
-161.98428
 11
695.59436
 21
-101.98428
  0
LINE
  8
0
  6
CONTINUOUS
 62
     7
 10
581.09436
 20
-188.98428
 11
686.09436
 21
-188.98428
  0
LINE
  8
0
  6
CONTINUOUS
 62
     7
 10
686.09436
 20
-175.98428
 11
581.09436
 21
-175.98428
  0
LINE
  8
0
  6
CONTINUOUS
 62
     7
 10
844.14319
 20
-91.78257
 11
855.14319
 21
-91.78257
  0
LINE
  8
0
  6
CENTER
 62
     7
 10
783.14319
 20
-168.98938
 11
783.14319
 21
-195.68257
  0
LINE
  8
0
  6
CENTER
 62
     7
 10
823.84998
 20
-128.28258
 11
859.74323
 21
-128.28258
  0
LINE
  8
0
  6
CONTINUOUS
 62
     7
 10
808.64319
 20
-93.78257
 11
840.67908
 21
-93.78257
  0
LINE
  8
0
  6
CONTINUOUS
 62
     7
 10
838.64319
 20
-162.78258
 11
840.67908
 21
-162.78258
  0
LINE
  8
0
  6
CONTINUOUS
 62
     7
 10
844.14319
 20
-164.78258
 11
855.14319
 21
-164.78258
  0
LINE
  8
0
  6
CONTINUOUS
 62
     7
 10
832.64319
 20
-168.78258
 11
832.64319
 21
-170.14114
  0
LINE
  8
0
  6
CONTINUOUS
 62
     7
 10
730.64319
 20
-177.28258
 11
730.64319
 21
-190.28258
  0
LINE
  8
0
  6
CONTINUOUS
 62
     7
 10
835.64319
 20
-177.28258
 11
835.64319
 21
-190.28256
  0
LINE
  8
0
  6
CONTINUOUS
 62
     7
 10
733.64319
 20
-168.78258
 11
733.64319
 21
-170.14114
  0
LINE
  8
0
  6
CONTINUOUS
 62
     7
 10
730.64319
 20
-190.28258
 11
835.64319
 21
-190.28258
  0
LINE
  8
0
  6
CONTINUOUS
 62
     7
 10
835.64319
 20
-177.28258
 11
730.64319
 21
-177.28258
  0
LINE
  8
0
  6
CONTINUOUS
 62
     7
 10
855.14319
 20
-91.78257
 11
855.14319
 21
-164.78258
  0
LINE
  8
0
  6
CONTINUOUS
 62
     7
 10
844.14319
 20
-164.78258
 11
844.14319
 21
-91.78257
  0
LINE
  8
0
  6
CENTER
 62
     7
 10
-214.54086
 20
-368.81711
 11
-214.54086
 21
-396.63705
  0
LINE
  8
0
  6
CENTER
 62
     7
 10
-164.9608
 20
-319.23703
 11
-134.54086
 21
-319.23703
  0
LINE
  8
0
  6
CONTINUOUS
 62
     7
 10
-162.04086
 20
-378.23703
 11
-162.04086
 21
-391.23703
  0
LINE
  8
0
  6
CONTINUOUS
 62
     7
 10
-264.04086
 20
-370.23703
 11
-264.04086
 21
-371.09561
  0
LINE
  8
0
  6
CONTINUOUS
 62
     7
 10
-151.54086
 20
-273.73703
 11
-139.54086
 21
-273.73703
  0
LINE
  8
0
  6
CONTINUOUS
 62
     7
 10
-170.04086
 20
-276.23703
 11
-156.41426
 21
-276.23703
  0
LINE
  8
0
  6
CONTINUOUS
 62
     7
 10
-158.04086
 20
-362.23703
 11
-156.41426
 21
-362.23703
  0
LINE
  8
0
  6
CONTINUOUS
 62
     7
 10
-165.04086
 20
-369.23703
 11
-165.04086
 21
-371.09561
  0
LINE
  8
0
  6
CONTINUOUS
 62
     7
 10
-267.04086
 20
-378.23703
 11
-267.04086
 21
-391.23706
  0
LINE
  8
0
  6
CONTINUOUS
 62
     7
 10
-151.54086
 20
-364.73703
 11
-139.54086
 21
-364.73703
  0
LINE
  8
0
  6
CONTINUOUS
 62
     7
 10
-139.54086
 20
-273.73703
 11
-139.54086
 21
-364.73703
  0
LINE
  8
0
  6
CONTINUOUS
 62
     7
 10
-151.54086
 20
-364.73703
 11
-151.54086
 21
-273.73703
  0
LINE
  8
0
  6
CONTINUOUS
 62
     7
 10
-267.04086
 20
-391.23706
 11
-162.04086
 21
-391.23706
  0
LINE
  8
0
  6
CONTINUOUS
 62
     7
 10
-162.04086
 20
-378.23703
 11
-267.04086
 21
-378.23703
  0
LINE
  8
0
  6
CENTER
 62
     7
 10
-44.080738
 20
-375.27545
 11
-44.080738
 21
-400.66736
  0
LINE
  8
0
  6
CENTER
 62
     7
 10
-0.27264848
 20
-331.46738
 11
46.519268
 21
-331.46738
  0
LINE
  8
0
  6
CONTINUOUS
 62
     7
 10
25.419262
 20
-359.46738
 11
29.455166
 21
-359.46738
  0
LINE
  8
0
  6
CONTINUOUS
 62
     7
 10
-110.58074
 20
-378.46738
 11
-110.58074
 21
-394.46738
  0
LINE
  8
0
  6
CONTINUOUS
 62
     7
 10
-107.58074
 20
-365.46738
 11
-107.58074
 21
-371.32596
  0
LINE
  8
0
  6
CONTINUOUS
 62
     7
 10
22.419262
 20
-378.46738
 11
22.419262
 21
-394.46735
  0
LINE
  8
0
  6
CONTINUOUS
 62
     7
 10
19.419262
 20
-365.46738
 11
19.419262
 21
-371.32593
  0
LINE
  8
0
  6
CONTINUOUS
 62
     7
 10
-45.580738
 20
-303.46738
 11
29.455166
 21
-303.46738
  0
LINE
  8
0
  6
CONTINUOUS
 62
     7
 10
32.919262
 20
-301.46738
 11
41.919262
 21
-301.46738
  0
LINE
  8
0
  6
CONTINUOUS
 62
     7
 10
32.919262
 20
-361.46738
 11
41.919262
 21
-361.46738
  0
LINE
  8
0
  6
CONTINUOUS
 62
     7
 10
-110.58074
 20
-394.46738
 11
22.419262
 21
-394.46738
  0
LINE
  8
0
  6
CONTINUOUS
 62
     7
 10
22.419262
 20
-378.46738
 11
-110.58074
 21
-378.46738
  0
LINE
  8
0
  6
CONTINUOUS
 62
     7
 10
41.919262
 20
-301.46738
 11
41.919262
 21
-361.46738
  0
LINE
  8
0
  6
CONTINUOUS
 62
     7
 10
32.919262
 20
-301.46738
 11
32.919262
 21
-361.46738
  0
LINE
  8
0
  6
CENTER
 62
     7
 10
150.84004
 20
-368.50793
 11
150.84004
 21
-401.31659
  0
LINE
  8
0
  6
CONTINUOUS
 62
     7
 10
227.84004
 20
-362.61661
 11
238.84004
 21
-362.61661
  0
LINE
  8
0
  6
CENTER
 62
     7
 10
193.23138
 20
-326.11661
 11
243.44005
 21
-326.11661
  0
LINE
  8
0
  6
CONTINUOUS
 62
     7
 10
157.34004
 20
-291.61661
 11
224.37595
 21
-291.61661
  0
LINE
  8
0
  6
CONTINUOUS
 62
     7
 10
221.34004
 20
-360.61661
 11
224.37595
 21
-360.61661
  0
LINE
  8
0
  6
CONTINUOUS
 62
     7
 10
84.340034
 20
-379.11661
 11
84.340034
 21
-395.11661
  0
LINE
  8
0
  6
CONTINUOUS
 62
     7
 10
87.340034
 20
-361.61661
 11
87.340034
 21
-371.97519
  0
LINE
  8
0
  6
CONTINUOUS
 62
     7
 10
227.84004
 20
-289.61661
 11
238.84004
 21
-289.61661
  0
LINE
  8
0
  6
CONTINUOUS
 62
     7
 10
217.34004
 20
-379.11661
 11
217.34004
 21
-395.11661
  0
LINE
  8
0
  6
CONTINUOUS
 62
     7
 10
214.34004
 20
-367.61661
 11
214.34004
 21
-371.97516
  0
LINE
  8
0
  6
CONTINUOUS
 62
     7
 10
238.84004
 20
-289.61661
 11
238.84004
 21
-362.61661
  0
LINE
  8
0
  6
CONTINUOUS
 62
     7
 10
227.84004
 20
-362.61661
 11
227.84004
 21
-289.61661
  0
LINE
  8
0
  6
CONTINUOUS
 62
     7
 10
84.340034
 20
-395.11661
 11
217.34004
 21
-395.11661
  0
LINE
  8
0
  6
CONTINUOUS
 62
     7
 10
217.34004
 20
-379.11661
 11
84.340034
 21
-379.11661
  0
LINE
  8
0
  6
CONTINUOUS
 62
     7
 10
-136.54086
 20
-572.65253
 11
-124.54087
 21
-572.65253
  0
LINE
  8
0
  6
CENTER
 62
     7
 10
-214.54086
 20
-575.9115
 11
-214.54086
 21
-611.35254
  0
LINE
  8
0
  6
CENTER
 62
     7
 10
-165.78192
 20
-527.15253
 11
-119.54087
 21
-527.15253
  0
LINE
  8
0
  6
CONTINUOUS
 62
     7
 10
-148.04086
 20
-589.15253
 11
-148.04086
 21
-605.15253
  0
LINE
  8
0
  6
CONTINUOUS
 62
     7
 10
-281.04086
 20
-589.15253
 11
-281.04086
 21
-605.15253
  0
LINE
  8
0
  6
CONTINUOUS
 62
     7
 10
-143.04086
 20
-570.15253
 11
-141.41426
 21
-570.15253
  0
LINE
  8
0
  6
CONTINUOUS
 62
     7
 10
-136.54086
 20
-481.65253
 11
-124.54087
 21
-481.65253
  0
LINE
  8
0
  6
CONTINUOUS
 62
     7
 10
-151.04086
 20
-578.15253
 11
-151.04086
 21
-582.01111
  0
LINE
  8
0
  6
CONTINUOUS
 62
     7
 10
-278.04086
 20
-574.15253
 11
-278.04086
 21
-582.01111
  0
LINE
  8
0
  6
CONTINUOUS
 62
     7
 10
-188.04086
 20
-484.15253
 11
-141.41426
 21
-484.15253
  0
LINE
  8
0
  6
CONTINUOUS
 62
     7
 10
-281.04086
 20
-605.15253
 11
-148.04086
 21
-605.15253
  0
LINE
  8
0
  6
CONTINUOUS
 62
     7
 10
-148.04086
 20
-589.15253
 11
-281.04086
 21
-589.15253
  0
LINE
  8
0
  6
CONTINUOUS
 62
     7
 10
-124.54087
 20
-481.65253
 11
-124.54087
 21
-572.65253
  0
LINE
  8
0
  6
CONTINUOUS
 62
     7
 10
-136.54086
 20
-572.65253
 11
-136.54086
 21
-481.65253
  0
LINE
  8
0
  6
CENTER
 62
     7
 10
28.536806
 20
-578.46741
 11
28.536806
 21
-611.76617
  0
LINE
  8
0
  6
CENTER
 62
     7
 10
84.438004
 20
-522.56616
 11
124.9368
 21
-522.56616
  0
LINE
  8
0
  6
CONTINUOUS
 62
     7
 10
106.5368
 20
-575.06616
 11
119.5368
 21
-575.06616
  0
LINE
  8
0
  6
CONTINUOUS
 62
     7
 10
68.036804
 20
-473.06616
 11
99.39537
 21
-473.06616
  0
LINE
  8
0
  6
CONTINUOUS
 62
     7
 10
106.5368
 20
-470.06616
 11
119.5368
 21
-470.06616
  0
LINE
  8
0
  6
CONTINUOUS
 62
     7
 10
-34.963196
 20
-576.06616
 11
-34.963196
 21
-582.42474
  0
LINE
  8
0
  6
CONTINUOUS
 62
     7
 10
92.036804
 20
-579.06616
 11
92.036804
 21
-582.42474
  0
LINE
  8
0
  6
CONTINUOUS
 62
     7
 10
-37.963196
 20
-589.56616
 11
-37.963196
 21
-605.56616
  0
LINE
  8
0
  6
CONTINUOUS
 62
     7
 10
95.036804
 20
-589.56616
 11
95.036804
 21
-605.56616
  0
LINE
  8
0
  6
CONTINUOUS
 62
     7
 10
119.5368
 20
-470.06616
 11
119.5368
 21
-575.06616
  0
LINE
  8
0
  6
CONTINUOUS
 62
     7
 10
106.5368
 20
-575.06616
 11
106.5368
 21
-470.06616
  0
LINE
  8
0
  6
CONTINUOUS
 62
     7
 10
-37.963196
 20
-605.56616
 11
95.036804
 21
-605.56616
  0
LINE
  8
0
  6
CONTINUOUS
 62
     7
 10
95.036804
 20
-589.56616
 11
-37.963196
 21
-589.56616
  0
LINE
  8
0
  6
CENTER
 62
     7
 10
405.39932
 20
-390.36557
 11
405.39932
 21
-423.67661
  0
LINE
  8
0
  6
CENTER
 62
     7
 10
465.28827
 20
-330.47659
 11
517.79926
 21
-330.47659
  0
LINE
  8
0
  6
CONTINUOUS
 62
     7
 10
499.39929
 20
-382.97659
 11
512.39929
 21
-382.97659
  0
LINE
  8
0
  6
CONTINUOUS
 62
     7
 10
499.39929
 20
-277.97659
 11
512.39929
 21
-277.97659
  0
LINE
  8
0
  6
CONTINUOUS
 62
     7
 10
328.39932
 20
-388.97659
 11
328.39932
 21
-391.87726
  0
LINE
  8
0
  6
CONTINUOUS
 62
     7
 10
436.39932
 20
-280.97659
 11
492.25787
 21
-280.97659
  0
LINE
  8
0
  6
CONTINUOUS
 62
     7
 10
490.89929
 20
-379.97659
 11
492.25787
 21
-379.97659
  0
LINE
  8
0
  6
CONTINUOUS
 62
     7
 10
485.89929
 20
-399.47659
 11
485.89929
 21
-417.47659
  0
LINE
  8
0
  6
CONTINUOUS
 62
     7
 10
324.89932
 20
-399.47662
 11
324.89932
 21
-417.47662
  0
LINE
  8
0
  6
CONTINUOUS
 62
     7
 10
482.39929
 20
-388.47659
 11
482.39929
 21
-391.87723
  0
LINE
  8
0
  6
CONTINUOUS
 62
     7
 10
324.89932
 20
-417.47662
 11
485.89929
 21
-417.47662
  0
LINE
  8
0
  6
CONTINUOUS
 62
     7
 10
485.89929
 20
-399.47659
 11
324.89932
 21
-399.47659
  0
LINE
  8
0
  6
CONTINUOUS
 62
     7
 10
512.39929
 20
-277.97659
 11
512.39929
 21
-382.97659
  0
LINE
  8
0
  6
CONTINUOUS
 62
     7
 10
499.39929
 20
-382.97659
 11
499.39929
 21
-277.97659
  0
LINE
  8
0
  6
CENTER
 62
     7
 10
725.49469
 20
-396.76895
 11
725.49469
 21
-433.20276
  0
LINE
  8
0
  6
CENTER
 62
     7
 10
798.26105
 20
-324.00275
 11
845.6947
 21
-324.00275
  0
LINE
  8
0
  6
CONTINUOUS
 62
     7
 10
820.49469
 20
-257.50275
 11
836.49469
 21
-257.50275
  0
LINE
  8
0
  6
CONTINUOUS
 62
     7
 10
784.49469
 20
-260.50275
 11
813.35327
 21
-260.50275
  0
LINE
  8
0
  6
CONTINUOUS
 62
     7
 10
802.49469
 20
-396.50275
 11
802.49469
 21
-398.40341
  0
LINE
  8
0
  6
CONTINUOUS
 62
     7
 10
820.49469
 20
-390.50275
 11
836.49469
 21
-390.50275
  0
LINE
  8
0
  6
CONTINUOUS
 62
     7
 10
811.49469
 20
-387.50275
 11
813.35327
 21
-387.50275
  0
LINE
  8
0
  6
CONTINUOUS
 62
     7
 10
805.99469
 20
-406.00275
 11
805.99469
 21
-424.00275
  0
LINE
  8
0
  6
CONTINUOUS
 62
     7
 10
648.49469
 20
-396.50275
 11
648.49469
 21
-398.40341
  0
LINE
  8
0
  6
CONTINUOUS
 62
     7
 10
644.99469
 20
-406.00275
 11
644.99469
 21
-424.00275
  0
LINE
  8
0
  6
CONTINUOUS
 62
     7
 10
836.49469
 20
-257.50275
 11
836.49469
 21
-390.50275
  0
LINE
  8
0
  6
CONTINUOUS
 62
     7
 10
820.49469
 20
-390.50275
 11
820.49469
 21
-257.50275
  0
LINE
  8
0
  6
CONTINUOUS
 62
     7
 10
644.99469
 20
-424.00275
 11
805.99469
 21
-424.00275
  0
LINE
  8
0
  6
CONTINUOUS
 62
     7
 10
805.99469
 20
-406.00275
 11
644.99469
 21
-406.00275
  0
LINE
  8
0
  6
CONTINUOUS
 62
     7
 10
632.2262
 20
-417.57709
 11
632.2262
 21
-578.57709
  0
LINE
  8
0
  6
CONTINUOUS
 62
     7
 10
408.72623
 20
-615.07709
 11
597.7262
 21
-615.07709
  0
LINE
  8
0
  6
CONTINUOUS
 62
     7
 10
614.2262
 20
-578.57709
 11
632.2262
 21
-578.57709
  0
LINE
  8
0
  6
CONTINUOUS
 62
     7
 10
614.2262
 20
-417.57709
 11
632.2262
 21
-417.57709
  0
LINE
  8
0
  6
CONTINUOUS
 62
     7
 10
614.2262
 20
-417.57709
 11
614.2262
 21
-578.57709
  0
LINE
  8
0
  6
CONTINUOUS
 62
     7
 10
408.72623
 20
-595.07709
 11
597.7262
 21
-595.07709
  0
LINE
  8
0
  6
CONTINUOUS
 62
     7
 10
597.7262
 20
-595.07709
 11
597.7262
 21
-615.07709
  0
LINE
  8
0
  6
CONTINUOUS
 62
     7
 10
408.72623
 20
-595.07709
 11
408.72623
 21
-615.07709
  0
LINE
  8
0
  6
CONTINUOUS
 62
     7
 10
604.2262
 20
-575.07709
 11
606.62689
 21
-575.07709
  0
LINE
  8
0
  6
CONTINUOUS
 62
     7
 10
576.2262
 20
-421.07709
 11
606.62689
 21
-421.07709
  0
LINE
  8
0
  6
CONTINUOUS
 62
     7
 10
412.22623
 20
-585.07709
 11
412.22623
 21
-587.47778
  0
LINE
  8
0
  6
CONTINUOUS
 62
     7
 10
594.2262
 20
-585.07709
 11
594.2262
 21
-587.47778
  0
LINE
  8
0
  6
CENTER
 62
     7
 10
503.22623
 20
-585.07709
 11
503.22623
 21
-629.76782
  0
LINE
  8
0
  6
CENTER
 62
     7
 10
590.2262
 20
-498.07709
 11
644.01691
 21
-498.07709
  0
LINE
  8
0
  6
CONTINUOUS
 62
     7
 10
-248.35159
 20
88.923279
 11
-247.119
 21
88.923279
  0
LINE
  8
0
  6
CONTINUOUS
 62
     7
 10
-248.35159
 20
88.023277
 11
-247.119
 21
88.023277
  0
LINE
  8
0
  6
CONTINUOUS
 62
     7
 10
-240.5842
 20
88.023277
 11
-239.35159
 21
88.023277
  0
LINE
  8
0
  6
CONTINUOUS
 62
     7
 10
-240.5842
 20
88.923279
 11
-239.35159
 21
88.923279
  0
LINE
  8
0
  6
CONTINUOUS
 62
     7
 10
-246.21573
 20
88.023277
 11
-243.85159
 21
88.023277
  0
LINE
  8
0
  6
CONTINUOUS
 62
     7
 10
-246.21573
 20
88.923279
 11
-243.85159
 21
88.923279
  0
LINE
  8
0
  6
CONTINUOUS
 62
     7
 10
-172.17499
 20
88.81694
 11
-170.53152
 21
88.81694
  0
LINE
  8
0
  6
CONTINUOUS
 62
     7
 10
-172.17499
 20
87.616936
 11
-170.53152
 21
87.616936
  0
LINE
  8
0
  6
CONTINUOUS
 62
     7
 10
-161.81845
 20
87.616936
 11
-160.17499
 21
87.616936
  0
LINE
  8
0
  6
CONTINUOUS
 62
     7
 10
-161.81845
 20
88.81694
 11
-160.17499
 21
88.81694
  0
LINE
  8
0
  6
CONTINUOUS
 62
     7
 10
-169.32716
 20
87.616936
 11
-166.17499
 21
87.616936
  0
LINE
  8
0
  6
CONTINUOUS
 62
     7
 10
-169.32716
 20
88.81694
 11
-166.17499
 21
88.81694
  0
LINE
  8
0
  6
CONTINUOUS
 62
     7
 10
-98.284454
 20
90.100365
 11
-96.640991
 21
90.100365
  0
LINE
  8
0
  6
CONTINUOUS
 62
     7
 10
-98.284454
 20
88.90036
 11
-96.640991
 21
88.90036
  0
LINE
  8
0
  6
CONTINUOUS
 62
     7
 10
-87.927925
 20
88.90036
 11
-86.284454
 21
88.90036
  0
LINE
  8
0
  6
CONTINUOUS
 62
     7
 10
-87.927925
 20
90.100365
 11
-86.284454
 21
90.100365
  0
LINE
  8
0
  6
CONTINUOUS
 62
     7
 10
-95.43663
 20
88.90036
 11
-92.284454
 21
88.90036
  0
LINE
  8
0
  6
CONTINUOUS
 62
     7
 10
-95.43663
 20
90.100365
 11
-92.284454
 21
90.100365
  0
LINE
  8
0
  6
CONTINUOUS
 62
     7
 10
-13.889805
 20
93.437698
 11
-12.246338
 21
93.437698
  0
LINE
  8
0
  6
CONTINUOUS
 62
     7
 10
-13.889805
 20
92.237694
 11
-12.246338
 21
92.237694
  0
LINE
  8
0
  6
CONTINUOUS
 62
     7
 10
-3.5332711
 20
92.237694
 11
-1.8898046
 21
92.237694
  0
LINE
  8
0
  6
CONTINUOUS
 62
     7
 10
-3.5332711
 20
93.437698
 11
-1.8898046
 21
93.437698
  0
LINE
  8
0
  6
CONTINUOUS
 62
     7
 10
-11.041977
 20
92.237694
 11
-7.8898048
 21
92.237694
  0
LINE
  8
0
  6
CONTINUOUS
 62
     7
 10
-11.041977
 20
93.437698
 11
-7.8898048
 21
93.437698
  0
LINE
  8
0
  6
CONTINUOUS
 62
     7
 10
67.956055
 20
89.342896
 11
69.599518
 21
89.342896
  0
LINE
  8
0
  6
CONTINUOUS
 62
     7
 10
67.956055
 20
88.142891
 11
69.599518
 21
88.142891
  0
LINE
  8
0
  6
CONTINUOUS
 62
     7
 10
78.312584
 20
88.142891
 11
79.956055
 21
88.142891
  0
LINE
  8
0
  6
CONTINUOUS
 62
     7
 10
78.312584
 20
89.342896
 11
79.956055
 21
89.342896
  0
LINE
  8
0
  6
CONTINUOUS
 62
     7
 10
70.803879
 20
88.142891
 11
73.956055
 21
88.142891
  0
LINE
  8
0
  6
CONTINUOUS
 62
     7
 10
70.803879
 20
89.342896
 11
73.956055
 21
89.342896
  0
LINE
  8
0
  6
CONTINUOUS
 62
     7
 10
167.16447
 20
83.774475
 11
168.80794
 21
83.774475
  0
LINE
  8
0
  6
CONTINUOUS
 62
     7
 10
167.16447
 20
82.574471
 11
168.80794
 21
82.574471
  0
LINE
  8
0
  6
CONTINUOUS
 62
     7
 10
177.52101
 20
82.574471
 11
179.16447
 21
82.574471
  0
LINE
  8
0
  6
CONTINUOUS
 62
     7
 10
177.52101
 20
83.774475
 11
179.16447
 21
83.774475
  0
LINE
  8
0
  6
CONTINUOUS
 62
     7
 10
170.0123
 20
82.574471
 11
173.16447
 21
82.574471
  0
LINE
  8
0
  6
CONTINUOUS
 62
     7
 10
170.0123
 20
83.774475
 11
173.16447
 21
83.774475
  0
LINE
  8
0
  6
CONTINUOUS
 62
     7
 10
-247.22702
 20
-14.264211
 11
-245.58356
 21
-14.264211
  0
LINE
  8
0
  6
CONTINUOUS
 62
     7
 10
-247.22702
 20
-15.464211
 11
-245.58356
 21
-15.464211
  0
LINE
  8
0
  6
CONTINUOUS
 62
     7
 10
-236.87048
 20
-15.464211
 11
-235.22702
 21
-15.464211
  0
LINE
  8
0
  6
CONTINUOUS
 62
     7
 10
-236.87048
 20
-14.264211
 11
-235.22702
 21
-14.264211
  0
LINE
  8
0
  6
CONTINUOUS
 62
     7
 10
-244.3792
 20
-15.464211
 11
-241.22702
 21
-15.464211
  0
LINE
  8
0
  6
CONTINUOUS
 62
     7
 10
-244.3792
 20
-14.264211
 11
-241.22702
 21
-14.264211
  0
LINE
  8
0
  6
CONTINUOUS
 62
     7
 10
-147.99052
 20
-15.74134
 11
-146.34706
 21
-15.74134
  0
LINE
  8
0
  6
CONTINUOUS
 62
     7
 10
-147.99052
 20
-16.941339
 11
-146.34706
 21
-16.941339
  0
LINE
  8
0
  6
CONTINUOUS
 62
     7
 10
-137.63399
 20
-16.941339
 11
-135.99052
 21
-16.941339
  0
LINE
  8
0
  6
CONTINUOUS
 62
     7
 10
-137.63399
 20
-15.74134
 11
-135.99052
 21
-15.74134
  0
LINE
  8
0
  6
CONTINUOUS
 62
     7
 10
-145.1427
 20
-16.941339
 11
-141.99052
 21
-16.941339
  0
LINE
  8
0
  6
CONTINUOUS
 62
     7
 10
-145.1427
 20
-15.74134
 11
-141.99052
 21
-15.74134
  0
LINE
  8
0
  6
CONTINUOUS
 62
     7
 10
-44.38208
 20
-18.648994
 11
-42.738613
 21
-18.648994
  0
LINE
  8
0
  6
CONTINUOUS
 62
     7
 10
-44.38208
 20
-19.848995
 11
-42.738613
 21
-19.848995
  0
LINE
  8
0
  6
CONTINUOUS
 62
     7
 10
-34.025547
 20
-19.848995
 11
-32.38208
 21
-19.848995
  0
LINE
  8
0
  6
CONTINUOUS
 62
     7
 10
-34.025547
 20
-18.648994
 11
-32.38208
 21
-18.648994
  0
LINE
  8
0
  6
CONTINUOUS
 62
     7
 10
-41.534252
 20
-19.848995
 11
-38.38208
 21
-19.848995
  0
LINE
  8
0
  6
CONTINUOUS
 62
     7
 10
-41.534252
 20
-18.648994
 11
-38.38208
 21
-18.648994
  0
LINE
  8
0
  6
CONTINUOUS
 62
     7
 10
51.282368
 20
-22.618685
 11
52.925835
 21
-22.618685
  0
LINE
  8
0
  6
CONTINUOUS
 62
     7
 10
51.282368
 20
-23.818684
 11
52.925835
 21
-23.818684
  0
LINE
  8
0
  6
CONTINUOUS
 62
     7
 10
61.638901
 20
-23.818684
 11
63.282368
 21
-23.818684
  0
LINE
  8
0
  6
CONTINUOUS
 62
     7
 10
61.638901
 20
-22.618685
 11
63.282368
 21
-22.618685
  0
LINE
  8
0
  6
CONTINUOUS
 62
     7
 10
54.130196
 20
-23.818684
 11
57.282368
 21
-23.818684
  0
LINE
  8
0
  6
CONTINUOUS
 62
     7
 10
54.130196
 20
-22.618685
 11
57.282368
 21
-22.618685
  0
LINE
  8
0
  6
CONTINUOUS
 62
     7
 10
179.05997
 20
-12.151894
 11
181.1143
 21
-12.151894
  0
LINE
  8
0
  6
CONTINUOUS
 62
     7
 10
179.05997
 20
-13.651894
 11
181.1143
 21
-13.651894
  0
LINE
  8
0
  6
CONTINUOUS
 62
     7
 10
192.00563
 20
-13.651894
 11
194.05997
 21
-13.651894
  0
LINE
  8
0
  6
CONTINUOUS
 62
     7
 10
192.00563
 20
-12.151894
 11
194.05997
 21
-12.151894
  0
LINE
  8
0
  6
CONTINUOUS
 62
     7
 10
182.61975
 20
-13.651894
 11
186.55997
 21
-13.651894
  0
LINE
  8
0
  6
CONTINUOUS
 62
     7
 10
182.61975
 20
-12.151894
 11
186.55997
 21
-12.151894
  0
LINE
  8
0
  6
CONTINUOUS
 62
     7
 10
-245.41808
 20
-137.37849
 11
-243.36374
 21
-137.37849
  0
LINE
  8
0
  6
CONTINUOUS
 62
     7
 10
-245.41808
 20
-138.87849
 11
-243.36374
 21
-138.87849
  0
LINE
  8
0
  6
CONTINUOUS
 62
     7
 10
-232.47241
 20
-138.87849
 11
-230.41808
 21
-138.87849
  0
LINE
  8
0
  6
CONTINUOUS
 62
     7
 10
-232.47241
 20
-137.37849
 11
-230.41808
 21
-137.37849
  0
LINE
  8
0
  6
CONTINUOUS
 62
     7
 10
-241.85829
 20
-138.87849
 11
-237.91808
 21
-138.87849
  0
LINE
  8
0
  6
CONTINUOUS
 62
     7
 10
-241.85829
 20
-137.37849
 11
-237.91808
 21
-137.37849
  0
LINE
  8
0
  6
CONTINUOUS
 62
     7
 10
-124.53421
 20
-138.95
 11
-122.47988
 21
-138.95
  0
LINE
  8
0
  6
CONTINUOUS
 62
     7
 10
-124.53421
 20
-140.45
 11
-122.47988
 21
-140.45
  0
LINE
  8
0
  6
CONTINUOUS
 62
     7
 10
-111.58855
 20
-140.45
 11
-109.53421
 21
-140.45
  0
LINE
  8
0
  6
CONTINUOUS
 62
     7
 10
-111.58855
 20
-138.95
 11
-109.53421
 21
-138.95
  0
LINE
  8
0
  6
CONTINUOUS
 62
     7
 10
-120.97443
 20
-140.45
 11
-117.03421
 21
-140.45
  0
LINE
  8
0
  6
CONTINUOUS
 62
     7
 10
-120.97443
 20
-138.95
 11
-117.03421
 21
-138.95
  0
LINE
  8
0
  6
CONTINUOUS
 62
     7
 10
-0.22891545
 20
-140.93205
 11
1.8254173
 21
-140.93205
  0
LINE
  8
0
  6
CONTINUOUS
 62
     7
 10
-0.22891545
 20
-142.43205
 11
1.8254173
 21
-142.43205
  0
LINE
  8
0
  6
CONTINUOUS
 62
     7
 10
12.716752
 20
-142.43205
 11
14.771085
 21
-142.43205
  0
LINE
  8
0
  6
CONTINUOUS
 62
     7
 10
12.716752
 20
-140.93205
 11
14.771085
 21
-140.93205
  0
LINE
  8
0
  6
CONTINUOUS
 62
     7
 10
3.330869
 20
-142.43205
 11
7.2710843
 21
-142.43205
  0
LINE
  8
0
  6
CONTINUOUS
 62
     7
 10
3.330869
 20
-140.93205
 11
7.2710843
 21
-140.93205
  0
LINE
  8
0
  6
CONTINUOUS
 62
     7
 10
142.89708
 20
-144.0788
 11
144.95142
 21
-144.0788
  0
LINE
  8
0
  6
CONTINUOUS
 62
     7
 10
142.89708
 20
-145.5788
 11
144.95142
 21
-145.5788
  0
LINE
  8
0
  6
CONTINUOUS
 62
     7
 10
155.84276
 20
-145.5788
 11
157.89708
 21
-145.5788
  0
LINE
  8
0
  6
CONTINUOUS
 62
     7
 10
155.84276
 20
-144.0788
 11
157.89708
 21
-144.0788
  0
LINE
  8
0
  6
CONTINUOUS
 62
     7
 10
146.45686
 20
-145.5788
 11
150.39708
 21
-145.5788
  0
LINE
  8
0
  6
CONTINUOUS
 62
     7
 10
146.45686
 20
-144.0788
 11
150.39708
 21
-144.0788
  0
LINE
  8
0
  6
CONTINUOUS
 62
     7
 10
391.19098
 20
101.13728
 11
393.24533
 21
101.13728
  0
LINE
  8
0
  6
CONTINUOUS
 62
     7
 10
391.19098
 20
99.637276
 11
393.24533
 21
99.637276
  0
LINE
  8
0
  6
CONTINUOUS
 62
     7
 10
404.13666
 20
99.637276
 11
406.19098
 21
99.637276
  0
LINE
  8
0
  6
CONTINUOUS
 62
     7
 10
404.13666
 20
101.13728
 11
406.19098
 21
101.13728
  0
LINE
  8
0
  6
CONTINUOUS
 62
     7
 10
394.75076
 20
99.637276
 11
398.69098
 21
99.637276
  0
LINE
  8
0
  6
CONTINUOUS
 62
     7
 10
394.75076
 20
101.13728
 11
398.69098
 21
101.13728
  0
LINE
  8
0
  6
CONTINUOUS
 62
     7
 10
538.94946
 20
100.12762
 11
541.00385
 21
100.12762
  0
LINE
  8
0
  6
CONTINUOUS
 62
     7
 10
538.94946
 20
98.627617
 11
541.00385
 21
98.627617
  0
LINE
  8
0
  6
CONTINUOUS
 62
     7
 10
551.89514
 20
98.627617
 11
553.94946
 21
98.627617
  0
LINE
  8
0
  6
CONTINUOUS
 62
     7
 10
551.89514
 20
100.12762
 11
553.94946
 21
100.12762
  0
LINE
  8
0
  6
CONTINUOUS
 62
     7
 10
542.50928
 20
98.627617
 11
546.44946
 21
98.627617
  0
LINE
  8
0
  6
CONTINUOUS
 62
     7
 10
542.50928
 20
100.12762
 11
546.44946
 21
100.12762
  0
LINE
  8
0
  6
CONTINUOUS
 62
     7
 10
675.87219
 20
94.796936
 11
677.92651
 21
94.796936
  0
LINE
  8
0
  6
CONTINUOUS
 62
     7
 10
675.87219
 20
93.296936
 11
677.92651
 21
93.296936
  0
LINE
  8
0
  6
CONTINUOUS
 62
     7
 10
688.81787
 20
93.296936
 11
690.87219
 21
93.296936
  0
LINE
  8
0
  6
CONTINUOUS
 62
     7
 10
688.81787
 20
94.796936
 11
690.87219
 21
94.796936
  0
LINE
  8
0
  6
CONTINUOUS
 62
     7
 10
679.43201
 20
93.296936
 11
683.37219
 21
93.296936
  0
LINE
  8
0
  6
CONTINUOUS
 62
     7
 10
679.43201
 20
94.796936
 11
683.37219
 21
94.796936
  0
LINE
  8
0
  6
CONTINUOUS
 62
     7
 10
801.38013
 20
89.506599
 11
803.43445
 21
89.506599
  0
LINE
  8
0
  6
CONTINUOUS
 62
     7
 10
801.38013
 20
88.006599
 11
803.43445
 21
88.006599
  0
LINE
  8
0
  6
CONTINUOUS
 62
     7
 10
814.32581
 20
88.006599
 11
816.38013
 21
88.006599
  0
LINE
  8
0
  6
CONTINUOUS
 62
     7
 10
814.32581
 20
89.506599
 11
816.38013
 21
89.506599
  0
LINE
  8
0
  6
CONTINUOUS
 62
     7
 10
804.93994
 20
88.006599
 11
808.88013
 21
88.006599
  0
LINE
  8
0
  6
CONTINUOUS
 62
     7
 10
804.93994
 20
89.506599
 11
808.88013
 21
89.506599
  0
LINE
  8
0
  6
CONTINUOUS
 62
     7
 10
370.50177
 20
-19.94282
 11
372.55612
 21
-19.94282
  0
LINE
  8
0
  6
CONTINUOUS
 62
     7
 10
370.50177
 20
-21.44282
 11
372.55612
 21
-21.44282
  0
LINE
  8
0
  6
CONTINUOUS
 62
     7
 10
383.44745
 20
-21.44282
 11
385.50177
 21
-21.44282
  0
LINE
  8
0
  6
CONTINUOUS
 62
     7
 10
383.44745
 20
-19.94282
 11
385.50177
 21
-19.94282
  0
LINE
  8
0
  6
CONTINUOUS
 62
     7
 10
374.06155
 20
-21.44282
 11
378.00177
 21
-21.44282
  0
LINE
  8
0
  6
CONTINUOUS
 62
     7
 10
374.06155
 20
-19.94282
 11
378.00177
 21
-19.94282
  0
LINE
  8
0
  6
CONTINUOUS
 62
     7
 10
517.39893
 20
-28.113842
 11
519.45325
 21
-28.113842
  0
LINE
  8
0
  6
CONTINUOUS
 62
     7
 10
517.39893
 20
-29.613842
 11
519.45325
 21
-29.613842
  0
LINE
  8
0
  6
CONTINUOUS
 62
     7
 10
530.3446
 20
-29.613842
 11
532.39893
 21
-29.613842
  0
LINE
  8
0
  6
CONTINUOUS
 62
     7
 10
530.3446
 20
-28.113842
 11
532.39893
 21
-28.113842
  0
LINE
  8
0
  6
CONTINUOUS
 62
     7
 10
520.95868
 20
-29.613842
 11
524.89893
 21
-29.613842
  0
LINE
  8
0
  6
CONTINUOUS
 62
     7
 10
520.95868
 20
-28.113842
 11
524.89893
 21
-28.113842
  0
LINE
  8
0
  6
CONTINUOUS
 62
     7
 10
662.87677
 20
-21.999636
 11
665.34192
 21
-21.999636
  0
LINE
  8
0
  6
CONTINUOUS
 62
     7
 10
662.87677
 20
-23.799635
 11
665.34192
 21
-23.799635
  0
LINE
  8
0
  6
CONTINUOUS
 62
     7
 10
678.41156
 20
-23.799635
 11
680.87677
 21
-23.799635
  0
LINE
  8
0
  6
CONTINUOUS
 62
     7
 10
678.41156
 20
-21.999636
 11
680.87677
 21
-21.999636
  0
LINE
  8
0
  6
CONTINUOUS
 62
     7
 10
667.1485
 20
-23.799635
 11
671.87677
 21
-23.799635
  0
LINE
  8
0
  6
CONTINUOUS
 62
     7
 10
667.1485
 20
-21.999636
 11
671.87677
 21
-21.999636
  0
LINE
  8
0
  6
CONTINUOUS
 62
     7
 10
797.65912
 20
-25.189976
 11
800.12433
 21
-25.189976
  0
LINE
  8
0
  6
CONTINUOUS
 62
     7
 10
797.65912
 20
-26.989977
 11
800.12433
 21
-26.989977
  0
LINE
  8
0
  6
CONTINUOUS
 62
     7
 10
813.19391
 20
-26.989977
 11
815.65912
 21
-26.989977
  0
LINE
  8
0
  6
CONTINUOUS
 62
     7
 10
813.19391
 20
-25.189976
 11
815.65912
 21
-25.189976
  0
LINE
  8
0
  6
CONTINUOUS
 62
     7
 10
801.93085
 20
-26.989977
 11
806.65912
 21
-26.989977
  0
LINE
  8
0
  6
CONTINUOUS
 62
     7
 10
801.93085
 20
-25.189976
 11
806.65912
 21
-25.189976
  0
LINE
  8
0
  6
CONTINUOUS
 62
     7
 10
363.3887
 20
-153.37689
 11
365.85391
 21
-153.37689
  0
LINE
  8
0
  6
CONTINUOUS
 62
     7
 10
363.3887
 20
-155.1769
 11
365.85391
 21
-155.1769
  0
LINE
  8
0
  6
CONTINUOUS
 62
     7
 10
378.92352
 20
-155.1769
 11
381.3887
 21
-155.1769
  0
LINE
  8
0
  6
CONTINUOUS
 62
     7
 10
378.92352
 20
-153.37689
 11
381.3887
 21
-153.37689
  0
LINE
  8
0
  6
CONTINUOUS
 62
     7
 10
367.66046
 20
-155.1769
 11
372.3887
 21
-155.1769
  0
LINE
  8
0
  6
CONTINUOUS
 62
     7
 10
367.66046
 20
-153.37689
 11
372.3887
 21
-153.37689
  0
LINE
  8
0
  6
CONTINUOUS
 62
     7
 10
491.07733
 20
-159.48825
 11
493.54254
 21
-159.48825
  0
LINE
  8
0
  6
CONTINUOUS
 62
     7
 10
491.07733
 20
-161.28825
 11
493.54254
 21
-161.28825
  0
LINE
  8
0
  6
CONTINUOUS
 62
     7
 10
506.61212
 20
-161.28825
 11
509.07733
 21
-161.28825
  0
LINE
  8
0
  6
CONTINUOUS
 62
     7
 10
506.61212
 20
-159.48825
 11
509.07733
 21
-159.48825
  0
LINE
  8
0
  6
CONTINUOUS
 62
     7
 10
495.34906
 20
-161.28825
 11
500.07733
 21
-161.28825
  0
LINE
  8
0
  6
CONTINUOUS
 62
     7
 10
495.34906
 20
-159.48825
 11
500.07733
 21
-159.48825
  0
LINE
  8
0
  6
CONTINUOUS
 62
     7
 10
624.41937
 20
-164.50928
 11
626.88458
 21
-164.50928
  0
LINE
  8
0
  6
CONTINUOUS
 62
     7
 10
624.41937
 20
-166.30928
 11
626.88458
 21
-166.30928
  0
LINE
  8
0
  6
CONTINUOUS
 62
     7
 10
639.95416
 20
-166.30928
 11
642.41937
 21
-166.30928
  0
LINE
  8
0
  6
CONTINUOUS
 62
     7
 10
639.95416
 20
-164.50928
 11
642.41937
 21
-164.50928
  0
LINE
  8
0
  6
CONTINUOUS
 62
     7
 10
628.6911
 20
-166.30928
 11
633.41937
 21
-166.30928
  0
LINE
  8
0
  6
CONTINUOUS
 62
     7
 10
628.6911
 20
-164.50928
 11
633.41937
 21
-164.50928
  0
LINE
  8
0
  6
CONTINUOUS
 62
     7
 10
774.66821
 20
-166.05757
 11
777.13342
 21
-166.05757
  0
LINE
  8
0
  6
CONTINUOUS
 62
     7
 10
774.66821
 20
-167.85757
 11
777.13342
 21
-167.85757
  0
LINE
  8
0
  6
CONTINUOUS
 62
     7
 10
790.203
 20
-167.85757
 11
792.66821
 21
-167.85757
  0
LINE
  8
0
  6
CONTINUOUS
 62
     7
 10
790.203
 20
-166.05757
 11
792.66821
 21
-166.05757
  0
LINE
  8
0
  6
CONTINUOUS
 62
     7
 10
778.93994
 20
-167.85757
 11
783.66821
 21
-167.85757
  0
LINE
  8
0
  6
CONTINUOUS
 62
     7
 10
778.93994
 20
-166.05757
 11
783.66821
 21
-166.05757
  0
LINE
  8
0
  6
CONTINUOUS
 62
     7
 10
-223.36588
 20
-367.16205
 11
-220.90067
 21
-367.16205
  0
LINE
  8
0
  6
CONTINUOUS
 62
     7
 10
-223.36588
 20
-368.96204
 11
-220.90067
 21
-368.96204
  0
LINE
  8
0
  6
CONTINUOUS
 62
     7
 10
-207.83107
 20
-368.96204
 11
-205.36588
 21
-368.96204
  0
LINE
  8
0
  6
CONTINUOUS
 62
     7
 10
-207.83107
 20
-367.16205
 11
-205.36588
 21
-367.16205
  0
LINE
  8
0
  6
CONTINUOUS
 62
     7
 10
-219.09413
 20
-368.96204
 11
-214.36588
 21
-368.96204
  0
LINE
  8
0
  6
CONTINUOUS
 62
     7
 10
-219.09413
 20
-367.16205
 11
-214.36588
 21
-367.16205
  0
LINE
  8
0
  6
CONTINUOUS
 62
     7
 10
-52.55574
 20
-366.79236
 11
-50.090538
 21
-366.79236
  0
LINE
  8
0
  6
CONTINUOUS
 62
     7
 10
-52.55574
 20
-368.59238
 11
-50.090538
 21
-368.59238
  0
LINE
  8
0
  6
CONTINUOUS
 62
     7
 10
-37.020939
 20
-368.59238
 11
-34.55574
 21
-368.59238
  0
LINE
  8
0
  6
CONTINUOUS
 62
     7
 10
-37.020939
 20
-366.79236
 11
-34.55574
 21
-366.79236
  0
LINE
  8
0
  6
CONTINUOUS
 62
     7
 10
-48.283997
 20
-368.59238
 11
-43.55574
 21
-368.59238
  0
LINE
  8
0
  6
CONTINUOUS
 62
     7
 10
-48.283997
 20
-366.79236
 11
-43.55574
 21
-366.79236
  0
LINE
  8
0
  6
CONTINUOUS
 62
     7
 10
141.66504
 20
-367.74161
 11
144.13023
 21
-367.74161
  0
LINE
  8
0
  6
CONTINUOUS
 62
     7
 10
141.66504
 20
-369.5416
 11
144.13023
 21
-369.5416
  0
LINE
  8
0
  6
CONTINUOUS
 62
     7
 10
157.19984
 20
-369.5416
 11
159.66504
 21
-369.5416
  0
LINE
  8
0
  6
CONTINUOUS
 62
     7
 10
157.19984
 20
-367.74161
 11
159.66504
 21
-367.74161
  0
LINE
  8
0
  6
CONTINUOUS
 62
     7
 10
145.93678
 20
-369.5416
 11
150.66504
 21
-369.5416
  0
LINE
  8
0
  6
CONTINUOUS
 62
     7
 10
145.93678
 20
-367.74161
 11
150.66504
 21
-367.74161
  0
LINE
  8
0
  6
CONTINUOUS
 62
     7
 10
-223.36588
 20
-576.47754
 11
-220.90067
 21
-576.47754
  0
LINE
  8
0
  6
CONTINUOUS
 62
     7
 10
-223.36588
 20
-578.27753
 11
-220.90067
 21
-578.27753
  0
LINE
  8
0
  6
CONTINUOUS
 62
     7
 10
-207.83107
 20
-578.27753
 11
-205.36588
 21
-578.27753
  0
LINE
  8
0
  6
CONTINUOUS
 62
     7
 10
-207.83107
 20
-576.47754
 11
-205.36588
 21
-576.47754
  0
LINE
  8
0
  6
CONTINUOUS
 62
     7
 10
-219.09413
 20
-578.27753
 11
-214.36588
 21
-578.27753
  0
LINE
  8
0
  6
CONTINUOUS
 62
     7
 10
-219.09413
 20
-576.47754
 11
-214.36588
 21
-576.47754
  0
LINE
  8
0
  6
CONTINUOUS
 62
     7
 10
19.011805
 20
-578.54114
 11
21.477005
 21
-578.54114
  0
LINE
  8
0
  6
CONTINUOUS
 62
     7
 10
19.011805
 20
-580.34119
 11
21.477005
 21
-580.34119
  0
LINE
  8
0
  6
CONTINUOUS
 62
     7
 10
34.546604
 20
-580.34119
 11
37.011806
 21
-580.34119
  0
LINE
  8
0
  6
CONTINUOUS
 62
     7
 10
34.546604
 20
-578.54114
 11
37.011806
 21
-578.54114
  0
LINE
  8
0
  6
CONTINUOUS
 62
     7
 10
23.283546
 20
-580.34119
 11
28.011805
 21
-580.34119
  0
LINE
  8
0
  6
CONTINUOUS
 62
     7
 10
23.283546
 20
-578.54114
 11
28.011805
 21
-578.54114
  0
LINE
  8
0
  6
CONTINUOUS
 62
     7
 10
393.2243
 20
-383.00159
 11
396.51126
 21
-383.00159
  0
LINE
  8
0
  6
CONTINUOUS
 62
     7
 10
393.2243
 20
-385.40158
 11
396.51126
 21
-385.40158
  0
LINE
  8
0
  6
CONTINUOUS
 62
     7
 10
413.93738
 20
-385.40158
 11
417.2243
 21
-385.40158
  0
LINE
  8
0
  6
CONTINUOUS
 62
     7
 10
413.93738
 20
-383.00159
 11
417.2243
 21
-383.00159
  0
LINE
  8
0
  6
CONTINUOUS
 62
     7
 10
398.91998
 20
-385.40158
 11
405.2243
 21
-385.40158
  0
LINE
  8
0
  6
CONTINUOUS
 62
     7
 10
398.91998
 20
-383.00159
 11
405.2243
 21
-383.00159
  0
LINE
  8
0
  6
CONTINUOUS
 62
     7
 10
713.66968
 20
-390.87775
 11
716.95667
 21
-390.87775
  0
LINE
  8
0
  6
CONTINUOUS
 62
     7
 10
713.66968
 20
-393.27774
 11
716.95667
 21
-393.27774
  0
LINE
  8
0
  6
CONTINUOUS
 62
     7
 10
734.38275
 20
-393.27774
 11
737.66968
 21
-393.27774
  0
LINE
  8
0
  6
CONTINUOUS
 62
     7
 10
734.38275
 20
-390.87775
 11
737.66968
 21
-390.87775
  0
LINE
  8
0
  6
CONTINUOUS
 62
     7
 10
719.36536
 20
-393.27774
 11
725.66968
 21
-393.27774
  0
LINE
  8
0
  6
CONTINUOUS
 62
     7
 10
719.36536
 20
-390.87775
 11
725.66968
 21
-390.87775
  0
LINE
  8
0
  6
CONTINUOUS
 62
     7
 10
491.40121
 20
-579.30212
 11
494.68814
 21
-579.30212
  0
LINE
  8
0
  6
CONTINUOUS
 62
     7
 10
491.40121
 20
-581.70209
 11
494.68814
 21
-581.70209
  0
LINE
  8
0
  6
CONTINUOUS
 62
     7
 10
512.11432
 20
-581.70209
 11
515.40125
 21
-581.70209
  0
LINE
  8
0
  6
CONTINUOUS
 62
     7
 10
512.11432
 20
-579.30212
 11
515.40125
 21
-579.30212
  0
LINE
  8
0
  6
CONTINUOUS
 62
     7
 10
497.09686
 20
-581.70209
 11
503.40121
 21
-581.70209
  0
LINE
  8
0
  6
CONTINUOUS
 62
     7
 10
497.09686
 20
-579.30212
 11
503.40121
 21
-579.30212
  0
ARC
  8
0
  6
CONTINUOUS
 62
     7
 10
-229.35262
 20
88.815804
 40
31
 50
89.999996
 51
179.99998
  0
ARC
  8
0
  6
CONTINUOUS
 62
     7
 10
-223.35262
 20
88.815804
 40
4
 50
89.999996
 51
179.99998
  0
ARC
  8
0
  6
CENTER
 62
     7
 10
-226.03438
 20
88.497566
 40
17.818237
 50
89.999996
 51
179.99998
  0
ARC
  8
0
  6
CONTINUOUS
 62
     7
 10
-224.35263
 20
85.913879
 40
3
 50
179.99999
 51
240.00001
  0
ARC
  8
0
  6
CONTINUOUS
 62
     7
 10
-263.35263
 20
85.913887
 40
3
 50
299.99966
 51
0
  0
ARC
  8
0
  6
CONTINUOUS
 62
     7
 10
-222.45071
 20
122.81579
 40
3
 50
270
 51
330
  0
ARC
  8
0
  6
CONTINUOUS
 62
     7
 10
-222.45071
 20
89.815788
 40
3
 50
30.000001
 51
90.000003
  0
ARC
  8
0
  6
CONTINUOUS
 62
     7
 10
-157.81999
 20
90.815804
 40
29
 50
89.999996
 51
179.99998
  0
ARC
  8
0
  6
CONTINUOUS
 62
     7
 10
-140.81999
 20
87.815804
 40
5
 50
118.21478
 51
179.99998
  0
ARC
  8
0
  6
CENTER
 62
     7
 10
-149.7494
 20
89.745155
 40
16.570648
 50
89.999996
 51
179.99998
  0
ARC
  8
0
  6
CONTINUOUS
 62
     7
 10
-141.91808
 20
122.81579
 40
3
 50
270
 51
330
  0
ARC
  8
0
  6
CONTINUOUS
 62
     7
 10
-141.76553
 20
89.578171
 40
3
 50
35.394805
 51
118.21478
  0
ARC
  8
0
  6
CONTINUOUS
 62
     7
 10
-142.82001
 20
83.913879
 40
3
 50
179.99999
 51
240.00001
  0
ARC
  8
0
  6
CONTINUOUS
 62
     7
 10
-189.81999
 20
83.913887
 40
3
 50
299.99966
 51
0
  0
ARC
  8
0
  6
CONTINUOUS
 62
     7
 10
-78.622108
 20
92.150528
 40
34
 50
89.999982
 51
179.99996
  0
ARC
  8
0
  6
CENTER
 62
     7
 10
-73.472046
 20
91.000534
 40
18.649994
 50
89.999982
 51
179.99996
  0
ARC
  8
0
  6
CONTINUOUS
 62
     7
 10
-66.622108
 20
88.150528
 40
5
 50
89.999982
 51
179.99996
  0
ARC
  8
0
  6
CONTINUOUS
 62
     7
 10
-65.720184
 20
129.15053
 40
3
 50
270
 51
330
  0
ARC
  8
0
  6
CONTINUOUS
 62
     7
 10
-65.720184
 20
90.150528
 40
3
 50
30.000001
 51
90.000003
  0
ARC
  8
0
  6
CONTINUOUS
 62
     7
 10
-68.622108
 20
85.248604
 40
3
 50
179.99999
 51
240.00001
  0
ARC
  8
0
  6
CONTINUOUS
 62
     7
 10
-115.62211
 20
85.248604
 40
3
 50
300
 51
0
  0
ARC
  8
0
  6
CONTINUOUS
 62
     7
 10
-0.91998476
 20
93.651596
 40
32
 50
89.999996
 51
179.99998
  0
ARC
  8
0
  6
CENTER
 62
     7
 10
11.801497
 20
92.430115
 40
19.721481
 50
89.999996
 51
179.99998
  0
ARC
  8
0
  6
CONTINUOUS
 62
     7
 10
22.080015
 20
93.651596
 40
5
 50
93.866777
 51
179.99998
  0
ARC
  8
0
  6
CONTINUOUS
 62
     7
 10
21.481924
 20
128.65158
 40
3
 50
270
 51
330
  0
ARC
  8
0
  6
CONTINUOUS
 62
     7
 10
21.481924
 20
95.651581
 40
3
 50
30.000001
 51
85.010727
  0
ARC
  8
0
  6
CONTINUOUS
 62
     7
 10
20.08
 20
88.749672
 40
3
 50
179.99999
 51
240.00001
  0
ARC
  8
0
  6
CONTINUOUS
 62
     7
 10
-35.919983
 20
88.74968
 40
3
 50
299.99966
 51
0
  0
ARC
  8
0
  6
CONTINUOUS
 62
     7
 10
105.18298
 20
91.817894
 40
3
 50
30.000001
 51
90.000003
  0
ARC
  8
0
  6
CONTINUOUS
 62
     7
 10
102.78105
 20
90.817894
 40
4
 50
89.999982
 51
179.99996
  0
ARC
  8
0
  6
CONTINUOUS
 62
     7
 10
85.781052
 20
90.817894
 40
37
 50
89.999982
 51
179.99996
  0
ARC
  8
0
  6
CONTINUOUS
 62
     7
 10
105.18298
 20
130.8179
 40
3
 50
270
 51
329.99999
  0
ARC
  8
0
  6
CONTINUOUS
 62
     7
 10
45.781052
 20
83.915977
 40
3
 50
300.00001
 51
6.8301892E-006
  0
ARC
  8
0
  6
CONTINUOUS
 62
     7
 10
101.78105
 20
83.915977
 40
3
 50
180.00001
 51
240
  0
ARC
  8
0
  6
CENTER
 62
     7
 10
93.54274
 20
91.556206
 40
19.761688
 50
89.999982
 51
179.99996
  0
ARC
  8
0
  6
CONTINUOUS
 62
     7
 10
205.3914
 20
130.64948
 40
3
 50
270
 51
329.99999
  0
ARC
  8
0
  6
CONTINUOUS
 62
     7
 10
205.3914
 20
83.649475
 40
3
 50
30.000001
 51
90.000003
  0
ARC
  8
0
  6
CONTINUOUS
 62
     7
 10
144.98947
 20
77.747559
 40
3
 50
300.00001
 51
6.8301892E-006
  0
ARC
  8
0
  6
CONTINUOUS
 62
     7
 10
200.98947
 20
77.747559
 40
3
 50
180.00001
 51
240
  0
ARC
  8
0
  6
CENTER
 62
     7
 10
196.16893
 20
83.970016
 40
23.179459
 50
89.999982
 51
179.99996
  0
ARC
  8
0
  6
CONTINUOUS
 62
     7
 10
201.98947
 20
82.649475
 40
4
 50
89.999982
 51
179.99996
  0
ARC
  8
0
  6
CONTINUOUS
 62
     7
 10
192.98947
 20
82.649475
 40
45
 50
89.999982
 51
179.99996
  0
ARC
  8
0
  6
CONTINUOUS
 62
     7
 10
-209.35158
 20
-12.893684
 40
4
 50
89.999982
 51
179.99996
  0
ARC
  8
0
  6
CONTINUOUS
 62
     7
 10
-209.35158
 20
-17.929573
 40
4
 50
180.00001
 51
240
  0
ARC
  8
0
  6
CONTINUOUS
 62
     7
 10
-273.35159
 20
-17.929588
 40
4
 50
300.00001
 51
6.8301892E-006
  0
ARC
  8
0
  6
CONTINUOUS
 62
     7
 10
-238.35158
 20
-12.893684
 40
31
 50
89.999982
 51
179.99996
  0
ARC
  8
0
  6
CONTINUOUS
 62
     7
 10
-207.94966
 20
21.106316
 40
3
 50
270
 51
329.99999
  0
ARC
  8
0
  6
CONTINUOUS
 62
     7
 10
-207.94966
 20
-11.893684
 40
3
 50
30.000001
 51
90.000003
  0
ARC
  8
0
  6
CENTER
 62
     7
 10
-222.42299
 20
-14.322334
 40
18.92865
 50
89.999982
 51
179.99996
  0
ARC
  8
0
  6
CONTINUOUS
 62
     7
 10
-110.14316
 20
-20.095888
 40
4
 50
180.00001
 51
240
  0
ARC
  8
0
  6
CONTINUOUS
 62
     7
 10
-174.14316
 20
-20.095903
 40
4
 50
300.00001
 51
6.8301892E-006
  0
ARC
  8
0
  6
CONTINUOUS
 62
     7
 10
-107.74124
 20
24.940001
 40
3
 50
270
 51
329.99999
  0
ARC
  8
0
  6
CONTINUOUS
 62
     7
 10
-133.14316
 20
-15.06
 40
37
 50
89.999982
 51
179.99996
  0
ARC
  8
0
  6
CONTINUOUS
 62
     7
 10
-110.14316
 20
-15.06
 40
4
 50
89.999982
 51
179.99996
  0
ARC
  8
0
  6
CONTINUOUS
 62
     7
 10
-107.74124
 20
-14.06
 40
3
 50
30.000001
 51
90.000003
  0
ARC
  8
0
  6
CENTER
 62
     7
 10
-121.6825
 20
-15.020663
 40
20.460663
 50
89.999982
 51
179.99996
  0
ARC
  8
0
  6
CONTINUOUS
 62
     7
 10
-6.7663159
 20
-23.095888
 40
4
 50
180.00001
 51
240
  0
ARC
  8
0
  6
CONTINUOUS
 62
     7
 10
-70.766319
 20
-23.095903
 40
4
 50
300.00001
 51
6.8301892E-006
  0
ARC
  8
0
  6
CONTINUOUS
 62
     7
 10
-21.766315
 20
-19.059999
 40
45
 50
89.999982
 51
179.99996
  0
ARC
  8
0
  6
CONTINUOUS
 62
     7
 10
-6.7663159
 20
-19.059999
 40
4
 50
89.999982
 51
179.99996
  0
ARC
  8
0
  6
CONTINUOUS
 62
     7
 10
-3.3643992
 20
28.940001
 40
3
 50
270
 51
329.99999
  0
ARC
  8
0
  6
CENTER
 62
     7
 10
-15.382587
 20
-17.943651
 40
23.383652
 50
89.999982
 51
179.99996
  0
ARC
  8
0
  6
CONTINUOUS
 62
     7
 10
-3.3643992
 20
-18.059999
 40
3
 50
30.000001
 51
90.000003
  0
ARC
  8
0
  6
CONTINUOUS
 62
     7
 10
89.107368
 20
-27.929573
 40
4
 50
180.00001
 51
240
  0
ARC
  8
0
  6
CONTINUOUS
 62
     7
 10
25.107368
 20
-27.929588
 40
4
 50
300.00001
 51
6.8301892E-006
  0
ARC
  8
0
  6
CONTINUOUS
 62
     7
 10
94.509285
 20
-23.393684
 40
3
 50
30.000001
 51
90.000003
  0
ARC
  8
0
  6
CONTINUOUS
 62
     7
 10
94.509285
 20
32.606316
 40
3
 50
270
 51
329.99999
  0
ARC
  8
0
  6
CONTINUOUS
 62
     7
 10
89.107368
 20
-24.393684
 40
4
 50
89.999982
 51
179.99996
  0
ARC
  8
0
  6
CONTINUOUS
 62
     7
 10
83.107368
 20
-24.393684
 40
54
 50
89.999982
 51
179.99996
  0
ARC
  8
0
  6
CENTER
 62
     7
 10
84.790001
 20
-23.076393
 40
27.682709
 50
89.999982
 51
179.99996
  0
ARC
  8
0
  6
CONTINUOUS
 62
     7
 10
184.49474
 20
-14.56
 40
33.5
 50
90.000037
 51
180.00002
  0
ARC
  8
0
  6
CONTINUOUS
 62
     7
 10
224.99474
 20
-13.06
 40
5
 50
90.000037
 51
180.00002
  0
ARC
  8
0
  6
CENTER
 62
     7
 10
212.60385
 20
-21.669107
 40
27.109108
 50
90.000037
 51
180.00002
  0
ARC
  8
0
  6
CONTINUOUS
 62
     7
 10
224.89667
 20
21.940001
 40
3
 50
270
 51
330
  0
ARC
  8
0
  6
CONTINUOUS
 62
     7
 10
224.89667
 20
-11.06
 40
3
 50
30.000001
 51
90.000003
  0
ARC
  8
0
  6
CONTINUOUS
 62
     7
 10
223.99474
 20
-17.095898
 40
4
 50
179.99999
 51
240.00001
  0
ARC
  8
0
  6
CONTINUOUS
 62
     7
 10
146.99474
 20
-17.095898
 40
4
 50
300
 51
0
  0
ARC
  8
0
  6
CONTINUOUS
 62
     7
 10
-276.51685
 20
-142.83485
 40
4
 50
300.00001
 51
6.8301892E-006
  0
ARC
  8
0
  6
CONTINUOUS
 62
     7
 10
-197.61493
 20
-96.79895
 40
3
 50
270
 51
329.99999
  0
ARC
  8
0
  6
CONTINUOUS
 62
     7
 10
-199.51685
 20
-136.79895
 40
4
 50
89.999982
 51
179.99996
  0
ARC
  8
0
  6
CONTINUOUS
 62
     7
 10
-235.51685
 20
-136.79895
 40
37
 50
89.999982
 51
179.99996
  0
ARC
  8
0
  6
CONTINUOUS
 62
     7
 10
-199.51685
 20
-142.83484
 40
4
 50
180.00001
 51
240
  0
ARC
  8
0
  6
CONTINUOUS
 62
     7
 10
-197.61493
 20
-135.79895
 40
3
 50
30.000001
 51
90.000003
  0
ARC
  8
0
  6
CENTER
 62
     7
 10
-214.69019
 20
-139.62567
 40
23.326721
 50
89.999982
 51
179.99996
  0
ARC
  8
0
  6
CONTINUOUS
 62
     7
 10
-155.63263
 20
-145.00116
 40
4
 50
300.00001
 51
6.8301892E-006
  0
ARC
  8
0
  6
CENTER
 62
     7
 10
-92.578873
 20
-140.01895
 40
24.553696
 50
89.999982
 51
179.99996
  0
ARC
  8
0
  6
CONTINUOUS
 62
     7
 10
-78.632629
 20
-139.96526
 40
4
 50
89.999982
 51
179.99996
  0
ARC
  8
0
  6
CONTINUOUS
 62
     7
 10
-78.632629
 20
-145.00114
 40
4
 50
180.00001
 51
240
  0
ARC
  8
0
  6
CONTINUOUS
 62
     7
 10
-106.63263
 20
-139.96526
 40
45
 50
89.999982
 51
179.99996
  0
ARC
  8
0
  6
CONTINUOUS
 62
     7
 10
-75.730713
 20
-91.965263
 40
3
 50
270
 51
329.99999
  0
ARC
  8
0
  6
CONTINUOUS
 62
     7
 10
-75.730713
 20
-138.96526
 40
3
 50
30.000001
 51
90.000003
  0
ARC
  8
0
  6
CONTINUOUS
 62
     7
 10
-31.413685
 20
-146.50012
 40
4
 50
300.00001
 51
6.8301892E-006
  0
ARC
  8
0
  6
CONTINUOUS
 62
     7
 10
27.586315
 20
-142.96422
 40
55
 50
89.999982
 51
179.99996
  0
ARC
  8
0
  6
CONTINUOUS
 62
     7
 10
50.488232
 20
-84.964211
 40
3
 50
270
 51
329.99999
  0
ARC
  8
0
  6
CONTINUOUS
 62
     7
 10
45.586315
 20
-141.96422
 40
4
 50
89.999982
 51
179.99996
  0
ARC
  8
0
  6
CONTINUOUS
 62
     7
 10
45.586315
 20
-146.50011
 40
4
 50
180.00001
 51
240
  0
ARC
  8
0
  6
CONTINUOUS
 62
     7
 10
50.488232
 20
-140.96422
 40
3
 50
30.000001
 51
90.000003
  0
ARC
  8
0
  6
CENTER
 62
     7
 10
35.887051
 20
-141.76503
 40
28.800812
 50
89.999982
 51
179.99996
  0
ARC
  8
0
  6
CONTINUOUS
 62
     7
 10
111.98
 20
-149.66643
 40
4
 50
300.00001
 51
6.8301892E-006
  0
ARC
  8
0
  6
CONTINUOUS
 62
     7
 10
175.98
 20
-144.13052
 40
60
 50
89.999982
 51
179.99996
  0
ARC
  8
0
  6
CENTER
 62
     7
 10
181.55759
 20
-143.20805
 40
31.07753
 50
89.999982
 51
179.99996
  0
ARC
  8
0
  6
CONTINUOUS
 62
     7
 10
193.0159
 20
-80.130524
 40
4
 50
270
 51
329.99999
  0
ARC
  8
0
  6
CONTINUOUS
 62
     7
 10
188.98
 20
-144.13052
 40
4
 50
89.999982
 51
179.99996
  0
ARC
  8
0
  6
CONTINUOUS
 62
     7
 10
188.98
 20
-149.66641
 40
4
 50
180.00001
 51
240
  0
ARC
  8
0
  6
CONTINUOUS
 62
     7
 10
193.0159
 20
-144.13052
 40
4
 50
30.000001
 51
90.000003
  0
ARC
  8
0
  6
CONTINUOUS
 62
     7
 10
386.66599
 20
103.21228
 40
31.5
 50
89.999982
 51
179.99996
  0
ARC
  8
0
  6
CONTINUOUS
 62
     7
 10
446.5679
 20
137.71228
 40
3
 50
270
 51
329.99999
  0
ARC
  8
0
  6
CONTINUOUS
 62
     7
 10
445.66599
 20
103.21228
 40
4.5
 50
89.999982
 51
179.99996
  0
ARC
  8
0
  6
CONTINUOUS
 62
     7
 10
446.5679
 20
104.71228
 40
3
 50
30.000001
 51
90.000003
  0
ARC
  8
0
  6
CONTINUOUS
 62
     7
 10
447.16599
 20
97.085678
 40
6
 50
180.00001
 51
234.31468
  0
ARC
  8
0
  6
CONTINUOUS
 62
     7
 10
349.16599
 20
97.085678
 40
6
 50
305.68534
 51
6.8301892E-006
  0
ARC
  8
0
  6
CENTER
 62
     7
 10
417.56598
 20
101.81228
 40
19.4
 50
90.000003
 51
180.00001
  0
ARC
  8
0
  6
CONTINUOUS
 62
     7
 10
594.47449
 20
100.95262
 40
4.5
 50
89.999982
 51
179.99996
  0
ARC
  8
0
  6
CENTER
 62
     7
 10
572.68591
 20
96.24118
 40
25.711441
 50
89.999982
 51
179.99996
  0
ARC
  8
0
  6
CONTINUOUS
 62
     7
 10
597.3764
 20
102.45262
 40
3
 50
30.000001
 51
90.000003
  0
ARC
  8
0
  6
CONTINUOUS
 62
     7
 10
597.3764
 20
141.45262
 40
3
 50
270
 51
329.99999
  0
ARC
  8
0
  6
CONTINUOUS
 62
     7
 10
595.97449
 20
94.826019
 40
6
 50
180.00001
 51
234.31468
  0
ARC
  8
0
  6
CONTINUOUS
 62
     7
 10
497.97449
 20
94.826019
 40
6
 50
305.68534
 51
6.8301892E-006
  0
ARC
  8
0
  6
CONTINUOUS
 62
     7
 10
541.47449
 20
100.95262
 40
37.5
 50
89.999982
 51
179.99996
  0
ARC
  8
0
  6
CONTINUOUS
 62
     7
 10
733.59912
 20
96.971939
 40
3
 50
30.000001
 51
90.000003
  0
ARC
  8
0
  6
CONTINUOUS
 62
     7
 10
686.1972
 20
94.971939
 40
46
 50
89.999982
 51
179.99996
  0
ARC
  8
0
  6
CONTINUOUS
 62
     7
 10
732.1972
 20
89.345337
 40
6
 50
180.00001
 51
234.31468
  0
ARC
  8
0
  6
CENTER
 62
     7
 10
713.24249
 20
90.426773
 40
30.045273
 50
89.999982
 51
179.99996
  0
ARC
  8
0
  6
CONTINUOUS
 62
     7
 10
731.1972
 20
94.971939
 40
5
 50
89.999982
 51
179.99996
  0
ARC
  8
0
  6
CONTINUOUS
 62
     7
 10
634.1972
 20
89.345337
 40
6
 50
305.68534
 51
6.8301892E-006
  0
ARC
  8
0
  6
CONTINUOUS
 62
     7
 10
733.59912
 20
143.97194
 40
3
 50
270
 51
329.99999
  0
ARC
  8
0
  6
CONTINUOUS
 62
     7
 10
820.05511
 20
90.731598
 40
54
 50
89.999982
 51
179.99996
  0
ARC
  8
0
  6
CONTINUOUS
 62
     7
 10
860.45703
 20
147.7316
 40
3
 50
270
 51
329.99999
  0
ARC
  8
0
  6
CONTINUOUS
 62
     7
 10
860.45703
 20
91.731598
 40
3
 50
30.000001
 51
90.000003
  0
ARC
  8
0
  6
CENTER
 62
     7
 10
840.81958
 20
87.967163
 40
31.764435
 50
89.999982
 51
179.99996
  0
ARC
  8
0
  6
CONTINUOUS
 62
     7
 10
858.05511
 20
84.604996
 40
6
 50
180.00001
 51
234.31468
  0
ARC
  8
0
  6
CONTINUOUS
 62
     7
 10
760.05511
 20
84.604996
 40
6
 50
305.68534
 51
6.8301892E-006
  0
ARC
  8
0
  6
CONTINUOUS
 62
     7
 10
858.05511
 20
88.731598
 40
6
 50
89.999982
 51
179.99996
  0
ARC
  8
0
  6
CONTINUOUS
 62
     7
 10
427.17679
 20
-25.744421
 40
6
 50
180.00001
 51
234.31468
  0
ARC
  8
0
  6
CONTINUOUS
 62
     7
 10
329.17679
 20
-25.744421
 40
6
 50
305.68534
 51
6.8301892E-006
  0
ARC
  8
0
  6
CONTINUOUS
 62
     7
 10
427.71268
 20
44.382179
 40
4
 50
270
 51
329.99999
  0
ARC
  8
0
  6
CONTINUOUS
 62
     7
 10
427.71268
 20
-19.617819
 40
4
 50
30.000001
 51
90.000003
  0
ARC
  8
0
  6
CONTINUOUS
 62
     7
 10
394.67679
 20
-19.117819
 40
59.5
 50
89.999982
 51
179.99996
  0
ARC
  8
0
  6
CENTER
 62
     7
 10
410.66318
 20
-20.104147
 40
32.486328
 50
89.999982
 51
179.99996
  0
ARC
  8
0
  6
CONTINUOUS
 62
     7
 10
426.17679
 20
-20.617819
 40
5
 50
89.999982
 51
179.99996
  0
ARC
  8
0
  6
CONTINUOUS
 62
     7
 10
574.55981
 20
48.66116
 40
4
 50
270
 51
329.99999
  0
ARC
  8
0
  6
CONTINUOUS
 62
     7
 10
573.02393
 20
-32.965443
 40
6
 50
180.00001
 51
234.31468
  0
ARC
  8
0
  6
CONTINUOUS
 62
     7
 10
574.55981
 20
-28.338842
 40
4
 50
30.000001
 51
90.000003
  0
ARC
  8
0
  6
CONTINUOUS
 62
     7
 10
556.02393
 20
-30.338842
 40
75
 50
89.999982
 51
179.99996
  0
ARC
  8
0
  6
CONTINUOUS
 62
     7
 10
475.02393
 20
-32.965443
 40
6
 50
305.68534
 51
6.8301892E-006
  0
ARC
  8
0
  6
CONTINUOUS
 62
     7
 10
573.02393
 20
-30.338842
 40
6
 50
89.999982
 51
179.99996
  0
ARC
  8
0
  6
CENTER
 62
     7
 10
565.51508
 20
-31.330023
 40
41.49118
 50
89.999982
 51
179.99996
  0
ARC
  8
0
  6
CONTINUOUS
 62
     7
 10
726.75366
 20
-18.924635
 40
3
 50
30.000001
 51
90.000003
  0
ARC
  8
0
  6
CONTINUOUS
 62
     7
 10
730.85175
 20
-26.283201
 40
10
 50
180.00001
 51
225.573
  0
ARC
  8
0
  6
CONTINUOUS
 62
     7
 10
726.75366
 20
14.075365
 40
3
 50
270
 51
329.99999
  0
ARC
  8
0
  6
CONTINUOUS
 62
     7
 10
611.85175
 20
-26.283216
 40
10
 50
314.42701
 51
6.8301891E-006
  0
ARC
  8
0
  6
CENTER
 62
     7
 10
690.27454
 20
-21.347441
 40
18.922821
 50
89.999982
 51
179.99996
  0
ARC
  8
0
  6
CONTINUOUS
 62
     7
 10
725.85175
 20
-20.924635
 40
5
 50
89.999982
 51
179.99996
  0
ARC
  8
0
  6
CONTINUOUS
 62
     7
 10
653.85175
 20
-20.924635
 40
32
 50
89.999982
 51
179.99996
  0
ARC
  8
0
  6
CENTER
 62
     7
 10
825.26019
 20
-21.591047
 40
18.426086
 50
89.999982
 51
179.99996
  0
ARC
  8
0
  6
CONTINUOUS
 62
     7
 10
864.23602
 20
16.335024
 40
3
 50
270
 51
329.99999
  0
ARC
  8
0
  6
CONTINUOUS
 62
     7
 10
790.33411
 20
-19.664976
 40
33
 50
89.999982
 51
179.99996
  0
ARC
  8
0
  6
CONTINUOUS
 62
     7
 10
864.23602
 20
-22.664976
 40
3
 50
30.000001
 51
90.000003
  0
ARC
  8
0
  6
CONTINUOUS
 62
     7
 10
862.33411
 20
-25.664976
 40
6
 50
89.999982
 51
179.99996
  0
ARC
  8
0
  6
CONTINUOUS
 62
     7
 10
866.33411
 20
-30.023542
 40
10
 50
180.00001
 51
225.573
  0
ARC
  8
0
  6
CONTINUOUS
 62
     7
 10
747.33411
 20
-30.023558
 40
10
 50
314.42701
 51
6.8301891E-006
  0
ARC
  8
0
  6
CENTER
 62
     7
 10
407.21246
 20
-162.50064
 40
35.698746
 50
89.999982
 51
179.99996
  0
ARC
  8
0
  6
CONTINUOUS
 62
     7
 10
429.91562
 20
-103.30189
 40
3
 50
270
 51
329.99999
  0
ARC
  8
0
  6
CONTINUOUS
 62
     7
 10
370.0137
 20
-154.3019
 40
48
 50
89.999982
 51
179.99996
  0
ARC
  8
0
  6
CONTINUOUS
 62
     7
 10
312.0137
 20
-157.66048
 40
10
 50
314.42701
 51
6.8301892E-006
  0
ARC
  8
0
  6
CONTINUOUS
 62
     7
 10
428.0137
 20
-154.3019
 40
7
 50
89.999982
 51
179.99996
  0
ARC
  8
0
  6
CONTINUOUS
 62
     7
 10
431.0137
 20
-157.66046
 40
10
 50
180.00001
 51
225.573
  0
ARC
  8
0
  6
CONTINUOUS
 62
     7
 10
429.91562
 20
-150.3019
 40
3
 50
30.000001
 51
90.000003
  0
ARC
  8
0
  6
CONTINUOUS
 62
     7
 10
554.85236
 20
-161.26326
 40
6.5
 50
89.999982
 51
179.99996
  0
ARC
  8
0
  6
CENTER
 62
     7
 10
533.08936
 20
-164.00026
 40
34.237
 50
89.999982
 51
179.99996
  0
ARC
  8
0
  6
CONTINUOUS
 62
     7
 10
439.35233
 20
-164.62184
 40
10
 50
314.42701
 51
6.8301892E-006
  0
ARC
  8
0
  6
CONTINUOUS
 62
     7
 10
504.35233
 20
-159.76326
 40
55
 50
89.999982
 51
179.99996
  0
ARC
  8
0
  6
CONTINUOUS
 62
     7
 10
558.25427
 20
-101.76325
 40
3
 50
270
 51
329.99999
  0
ARC
  8
0
  6
CONTINUOUS
 62
     7
 10
558.25427
 20
-157.76326
 40
3
 50
30.000001
 51
90.000003
  0
ARC
  8
0
  6
CONTINUOUS
 62
     7
 10
558.35236
 20
-164.62183
 40
10
 50
180.00001
 51
225.573
  0
ARC
  8
0
  6
CONTINUOUS
 62
     7
 10
646.09436
 20
-165.98428
 40
62
 50
89.999982
 51
179.99996
  0
ARC
  8
0
  6
CONTINUOUS
 62
     7
 10
693.09436
 20
-168.84285
 40
10
 50
180.00001
 51
225.573
  0
ARC
  8
0
  6
CONTINUOUS
 62
     7
 10
692.13025
 20
-163.98428
 40
4
 50
30.000001
 51
90.000003
  0
ARC
  8
0
  6
CONTINUOUS
 62
     7
 10
574.09436
 20
-168.84286
 40
10
 50
314.42701
 51
6.8301892E-006
  0
ARC
  8
0
  6
CONTINUOUS
 62
     7
 10
689.09436
 20
-165.98428
 40
6
 50
89.999982
 51
179.99996
  0
ARC
  8
0
  6
CONTINUOUS
 62
     7
 10
692.13025
 20
-99.984276
 40
4
 50
270
 51
329.99999
  0
ARC
  8
0
  6
CENTER
 62
     7
 10
668.22241
 20
-166.6124
 40
34.628113
 50
89.999982
 51
179.99996
  0
ARC
  8
0
  6
CONTINUOUS
 62
     7
 10
838.64319
 20
-168.78258
 40
6
 50
89.999982
 51
179.99996
  0
ARC
  8
0
  6
CONTINUOUS
 62
     7
 10
840.67908
 20
-166.78258
 40
4
 50
30.000001
 51
90.000003
  0
ARC
  8
0
  6
CONTINUOUS
 62
     7
 10
723.64319
 20
-170.14116
 40
10
 50
314.42701
 51
6.8301892E-006
  0
ARC
  8
0
  6
CENTER
 62
     7
 10
823.84998
 20
-168.98938
 40
40.706802
 50
89.999982
 51
179.99996
  0
ARC
  8
0
  6
CONTINUOUS
 62
     7
 10
840.67908
 20
-89.78257
 40
4
 50
270
 51
329.99999
  0
ARC
  8
0
  6
CONTINUOUS
 62
     7
 10
808.64319
 20
-168.78258
 40
75
 50
89.999982
 51
179.99996
  0
ARC
  8
0
  6
CONTINUOUS
 62
     7
 10
842.64319
 20
-170.14114
 40
10
 50
180.00001
 51
225.573
  0
ARC
  8
0
  6
CONTINUOUS
 62
     7
 10
-170.04086
 20
-370.23703
 40
94
 50
89.999982
 51
179.99996
  0
ARC
  8
0
  6
CONTINUOUS
 62
     7
 10
-156.41426
 20
-270.23703
 40
6
 50
270
 51
324.31468
  0
ARC
  8
0
  6
CONTINUOUS
 62
     7
 10
-274.04086
 20
-371.09561
 40
10
 50
314.42701
 51
6.8301892E-006
  0
ARC
  8
0
  6
CONTINUOUS
 62
     7
 10
-158.04086
 20
-369.23703
 40
7
 50
89.999982
 51
179.99996
  0
ARC
  8
0
  6
CONTINUOUS
 62
     7
 10
-156.41426
 20
-368.23703
 40
6
 50
35.685334
 51
90.000003
  0
ARC
  8
0
  6
CENTER
 62
     7
 10
-164.9608
 20
-368.81711
 40
49.580063
 50
89.999982
 51
179.99996
  0
ARC
  8
0
  6
CONTINUOUS
 62
     7
 10
-155.04086
 20
-371.09561
 40
10
 50
180.00001
 51
225.573
  0
ARC
  8
0
  6
CONTINUOUS
 62
     7
 10
-117.58074
 20
-371.32596
 40
10
 50
314.42701
 51
6.8301892E-006
  0
ARC
  8
0
  6
CONTINUOUS
 62
     7
 10
29.455166
 20
-299.46738
 40
4
 50
270
 51
329.99999
  0
ARC
  8
0
  6
CONTINUOUS
 62
     7
 10
-45.580738
 20
-365.46738
 40
62
 50
89.999982
 51
179.99996
  0
ARC
  8
0
  6
CONTINUOUS
 62
     7
 10
29.419262
 20
-371.32593
 40
10
 50
180.00001
 51
225.573
  0
ARC
  8
0
  6
CONTINUOUS
 62
     7
 10
25.419262
 20
-365.46738
 40
6
 50
89.999982
 51
179.99996
  0
ARC
  8
0
  6
CONTINUOUS
 62
     7
 10
29.455166
 20
-363.46738
 40
4
 50
30.000001
 51
90.000003
  0
ARC
  8
0
  6
CENTER
 62
     7
 10
-0.27264848
 20
-375.27545
 40
43.80809
 50
89.999982
 51
179.99996
  0
ARC
  8
0
  6
CENTER
 62
     7
 10
193.23138
 20
-368.50793
 40
42.391342
 50
89.999982
 51
179.99996
  0
ARC
  8
0
  6
CONTINUOUS
 62
     7
 10
224.37595
 20
-287.61661
 40
4
 50
270
 51
329.99999
  0
ARC
  8
0
  6
CONTINUOUS
 62
     7
 10
157.34004
 20
-361.61661
 40
70
 50
89.999982
 51
179.99996
  0
ARC
  8
0
  6
CONTINUOUS
 62
     7
 10
224.37595
 20
-364.61661
 40
4
 50
30.000001
 51
90.000003
  0
ARC
  8
0
  6
CONTINUOUS
 62
     7
 10
221.34004
 20
-367.61661
 40
7
 50
89.999982
 51
179.99996
  0
ARC
  8
0
  6
CONTINUOUS
 62
     7
 10
224.34004
 20
-371.97516
 40
10
 50
180.00001
 51
225.573
  0
ARC
  8
0
  6
CONTINUOUS
 62
     7
 10
77.340034
 20
-371.97519
 40
10
 50
314.42701
 51
6.8301892E-006
  0
ARC
  8
0
  6
CONTINUOUS
 62
     7
 10
-188.04086
 20
-574.15253
 40
90
 50
89.999982
 51
179.99996
  0
ARC
  8
0
  6
CENTER
 62
     7
 10
-165.78192
 20
-575.9115
 40
48.758942
 50
89.999982
 51
179.99996
  0
ARC
  8
0
  6
CONTINUOUS
 62
     7
 10
-143.04086
 20
-578.15253
 40
8
 50
89.999982
 51
179.99996
  0
ARC
  8
0
  6
CONTINUOUS
 62
     7
 10
-141.41426
 20
-576.15253
 40
6
 50
35.685334
 51
90.000003
  0
ARC
  8
0
  6
CONTINUOUS
 62
     7
 10
-141.41426
 20
-478.15253
 40
6
 50
270
 51
324.31468
  0
ARC
  8
0
  6
CONTINUOUS
 62
     7
 10
-288.04086
 20
-582.01111
 40
10
 50
314.42701
 51
6.8301892E-006
  0
ARC
  8
0
  6
CONTINUOUS
 62
     7
 10
-141.04086
 20
-582.01111
 40
10
 50
180.00001
 51
225.573
  0
ARC
  8
0
  6
CONTINUOUS
 62
     7
 10
99.39537
 20
-582.06616
 40
10
 50
44.427003
 51
90.000003
  0
ARC
  8
0
  6
CONTINUOUS
 62
     7
 10
99.036804
 20
-579.06616
 40
7
 50
89.999982
 51
179.99996
  0
ARC
  8
0
  6
CONTINUOUS
 62
     7
 10
99.39537
 20
-463.06616
 40
10
 50
270
 51
315.57299
  0
ARC
  8
0
  6
CENTER
 62
     7
 10
84.438004
 20
-578.46741
 40
55.901199
 50
89.999982
 51
179.99996
  0
ARC
  8
0
  6
CONTINUOUS
 62
     7
 10
102.0368
 20
-582.42474
 40
10
 50
180.00001
 51
225.573
  0
ARC
  8
0
  6
CONTINUOUS
 62
     7
 10
-44.963196
 20
-582.42474
 40
10
 50
314.42701
 51
6.8301892E-006
  0
ARC
  8
0
  6
CONTINUOUS
 62
     7
 10
68.036804
 20
-576.06616
 40
103
 50
89.999982
 51
179.99996
  0
ARC
  8
0
  6
CONTINUOUS
 62
     7
 10
318.39932
 20
-391.87726
 40
10
 50
310.54161
 51
6.8301892E-006
  0
ARC
  8
0
  6
CONTINUOUS
 62
     7
 10
492.39929
 20
-391.87726
 40
10
 50
180.00001
 51
229.45842
  0
ARC
  8
0
  6
CONTINUOUS
 62
     7
 10
492.25787
 20
-270.97659
 40
10
 50
270
 51
315.57299
  0
ARC
  8
0
  6
CONTINUOUS
 62
     7
 10
436.39932
 20
-388.97659
 40
108
 50
89.999982
 51
179.99996
  0
ARC
  8
0
  6
CONTINUOUS
 62
     7
 10
492.25787
 20
-389.97659
 40
10
 50
44.427003
 51
90.000003
  0
ARC
  8
0
  6
CONTINUOUS
 62
     7
 10
490.89929
 20
-388.47659
 40
8.5
 50
89.999982
 51
179.99996
  0
ARC
  8
0
  6
CENTER
 62
     7
 10
465.28827
 20
-390.36557
 40
59.888962
 50
89.999982
 51
179.99996
  0
ARC
  8
0
  6
CONTINUOUS
 62
     7
 10
784.49469
 20
-396.50275
 40
136
 50
89.999982
 51
179.99996
  0
ARC
  8
0
  6
CONTINUOUS
 62
     7
 10
813.35327
 20
-397.50275
 40
10
 50
44.427003
 51
90.000003
  0
ARC
  8
0
  6
CENTER
 62
     7
 10
798.26105
 20
-396.76895
 40
72.766357
 50
89.999982
 51
179.99996
  0
ARC
  8
0
  6
CONTINUOUS
 62
     7
 10
812.49469
 20
-398.40341
 40
10
 50
180.00001
 51
229.45842
  0
ARC
  8
0
  6
CONTINUOUS
 62
     7
 10
813.35327
 20
-250.50276
 40
10
 50
270
 51
315.57299
  0
ARC
  8
0
  6
CONTINUOUS
 62
     7
 10
638.49469
 20
-398.40341
 40
10
 50
310.54161
 51
6.8301892E-006
  0
ARC
  8
0
  6
CONTINUOUS
 62
     7
 10
811.49469
 20
-396.50275
 40
9
 50
89.999982
 51
179.99996
  0
ARC
  8
0
  6
CONTINUOUS
 62
     7
 10
576.2262
 20
-585.07709
 40
164
 50
90.000003
 51
180.00001
  0
ARC
  8
0
  6
CONTINUOUS
 62
     7
 10
606.62689
 20
-411.07709
 40
10
 50
270
 51
319.4584
  0
ARC
  8
0
  6
CONTINUOUS
 62
     7
 10
402.22623
 20
-587.47778
 40
10
 50
310.5416
 51
0
  0
ARC
  8
0
  6
CENTER
 62
     7
 10
590.2262
 20
-585.07709
 40
87
 50
90.000003
 51
180.00001
  0
ARC
  8
0
  6
CONTINUOUS
 62
     7
 10
604.2262
 20
-585.07709
 40
10
 50
90.000003
 51
180.00001
  0
ARC
  8
0
  6
CONTINUOUS
 62
     7
 10
606.62689
 20
-585.07709
 40
10
 50
40.541602
 51
90.000003
  0
ARC
  8
0
  6
CONTINUOUS
 62
     7
 10
604.2262
 20
-587.47778
 40
10
 50
179.99999
 51
229.4584
  0
ARC
  8
0
  6
CONTINUOUS
 62
     7
 10
-243.85159
 20
90.273277
 40
1.8
 50
36.008324
 51
143.99167
  0
ARC
  8
0
  6
CONTINUOUS
 62
     7
 10
-243.85159
 20
90.273277
 40
2.7
 50
36.008324
 51
143.99167
  0
ARC
  8
0
  6
CONTINUOUS
 62
     7
 10
-243.85159
 20
86.673279
 40
1.8
 50
216.00833
 51
323.99168
  0
ARC
  8
0
  6
CONTINUOUS
 62
     7
 10
-243.85159
 20
86.673279
 40
2.7
 50
216.00833
 51
323.99168
  0
ARC
  8
0
  6
CONTINUOUS
 62
     7
 10
-241.37486
 20
88.473282
 40
5.7617307
 50
143.99167
 51
175.52055
  0
ARC
  8
0
  6
CONTINUOUS
 62
     7
 10
-241.37486
 20
88.473282
 40
4.8617306
 50
143.99167
 51
174.68912
  0
ARC
  8
0
  6
CONTINUOUS
 62
     7
 10
-246.32832
 20
88.473282
 40
4.8617306
 50
323.99167
 51
36.008324
  0
ARC
  8
0
  6
CONTINUOUS
 62
     7
 10
-246.32832
 20
88.473282
 40
5.7617307
 50
323.99167
 51
355.52055
  0
ARC
  8
0
  6
CONTINUOUS
 62
     7
 10
-248.0141
 20
88.473282
 40
0.5625
 50
126.8699
 51
233.13009
  0
ARC
  8
0
  6
CONTINUOUS
 62
     7
 10
-244.1891
 20
88.473282
 40
0.5625
 50
306.8699
 51
53.130102
  0
ARC
  8
0
  6
CONTINUOUS
 62
     7
 10
-239.6891
 20
88.473282
 40
0.5625
 50
306.8699
 51
53.130102
  0
ARC
  8
0
  6
CONTINUOUS
 62
     7
 10
-241.37486
 20
88.473282
 40
5.7617307
 50
184.47945
 51
216.00833
  0
ARC
  8
0
  6
CONTINUOUS
 62
     7
 10
-241.37486
 20
88.473282
 40
4.8617306
 50
185.31088
 51
216.00833
  0
ARC
  8
0
  6
CONTINUOUS
 62
     7
 10
-246.32832
 20
88.473282
 40
5.7617307
 50
4.4794472
 51
36.008324
  0
ARC
  8
0
  6
CONTINUOUS
 62
     7
 10
-166.17499
 20
90.616936
 40
2.4000001
 50
36.008324
 51
143.99167
  0
ARC
  8
0
  6
CONTINUOUS
 62
     7
 10
-166.17499
 20
90.616936
 40
3.5999999
 50
36.008324
 51
143.99167
  0
ARC
  8
0
  6
CONTINUOUS
 62
     7
 10
-166.17499
 20
85.81694
 40
2.4000001
 50
216.00833
 51
323.99168
  0
ARC
  8
0
  6
CONTINUOUS
 62
     7
 10
-166.17499
 20
85.81694
 40
3.5999999
 50
216.00833
 51
323.99168
  0
ARC
  8
0
  6
CONTINUOUS
 62
     7
 10
-162.87268
 20
88.216942
 40
7.6823077
 50
143.99167
 51
175.52055
  0
ARC
  8
0
  6
CONTINUOUS
 62
     7
 10
-162.87268
 20
88.216942
 40
6.4823079
 50
143.99167
 51
174.68912
  0
ARC
  8
0
  6
CONTINUOUS
 62
     7
 10
-169.47729
 20
88.216942
 40
6.4823079
 50
323.99167
 51
36.008324
  0
ARC
  8
0
  6
CONTINUOUS
 62
     7
 10
-169.47729
 20
88.216942
 40
7.6823077
 50
323.99167
 51
355.52055
  0
ARC
  8
0
  6
CONTINUOUS
 62
     7
 10
-171.72499
 20
88.216942
 40
0.75
 50
126.8699
 51
233.13009
  0
ARC
  8
0
  6
CONTINUOUS
 62
     7
 10
-166.62498
 20
88.216942
 40
0.75
 50
306.8699
 51
53.130102
  0
ARC
  8
0
  6
CONTINUOUS
 62
     7
 10
-160.62498
 20
88.216942
 40
0.75
 50
306.8699
 51
53.130102
  0
ARC
  8
0
  6
CONTINUOUS
 62
     7
 10
-162.87268
 20
88.216942
 40
6.4823079
 50
185.31088
 51
216.00833
  0
ARC
  8
0
  6
CONTINUOUS
 62
     7
 10
-162.87268
 20
88.216942
 40
7.6823077
 50
184.47945
 51
216.00833
  0
ARC
  8
0
  6
CONTINUOUS
 62
     7
 10
-169.47729
 20
88.216942
 40
7.6823077
 50
4.4794472
 51
36.008324
  0
ARC
  8
0
  6
CONTINUOUS
 62
     7
 10
-92.284454
 20
91.90036
 40
2.4000001
 50
36.008324
 51
143.99167
  0
ARC
  8
0
  6
CONTINUOUS
 62
     7
 10
-92.284454
 20
91.90036
 40
3.5999999
 50
36.008324
 51
143.99167
  0
ARC
  8
0
  6
CONTINUOUS
 62
     7
 10
-92.284454
 20
87.100365
 40
2.4000001
 50
216.00833
 51
323.99168
  0
ARC
  8
0
  6
CONTINUOUS
 62
     7
 10
-92.284454
 20
87.100365
 40
3.5999999
 50
216.00833
 51
323.99168
  0
ARC
  8
0
  6
CONTINUOUS
 62
     7
 10
-88.982147
 20
89.500366
 40
7.6823077
 50
143.99167
 51
175.52055
  0
ARC
  8
0
  6
CONTINUOUS
 62
     7
 10
-88.982147
 20
89.500366
 40
6.4823079
 50
143.99167
 51
174.68912
  0
ARC
  8
0
  6
CONTINUOUS
 62
     7
 10
-95.586769
 20
89.500366
 40
6.4823079
 50
323.99167
 51
36.008324
  0
ARC
  8
0
  6
CONTINUOUS
 62
     7
 10
-95.586769
 20
89.500366
 40
7.6823077
 50
323.99167
 51
355.52055
  0
ARC
  8
0
  6
CONTINUOUS
 62
     7
 10
-97.834457
 20
89.500366
 40
0.75
 50
126.8699
 51
233.13009
  0
ARC
  8
0
  6
CONTINUOUS
 62
     7
 10
-92.734459
 20
89.500366
 40
0.75
 50
306.8699
 51
53.130102
  0
ARC
  8
0
  6
CONTINUOUS
 62
     7
 10
-86.734459
 20
89.500366
 40
0.75
 50
306.8699
 51
53.130102
  0
ARC
  8
0
  6
CONTINUOUS
 62
     7
 10
-88.982147
 20
89.500366
 40
6.4823079
 50
185.31088
 51
216.00833
  0
ARC
  8
0
  6
CONTINUOUS
 62
     7
 10
-88.982147
 20
89.500366
 40
7.6823077
 50
184.47945
 51
216.00833
  0
ARC
  8
0
  6
CONTINUOUS
 62
     7
 10
-95.586769
 20
89.500366
 40
7.6823077
 50
4.4794472
 51
36.008324
  0
ARC
  8
0
  6
CONTINUOUS
 62
     7
 10
-7.8898048
 20
95.237694
 40
2.4000001
 50
36.008324
 51
143.99167
  0
ARC
  8
0
  6
CONTINUOUS
 62
     7
 10
-7.8898048
 20
95.237694
 40
3.5999999
 50
36.008324
 51
143.99167
  0
ARC
  8
0
  6
CONTINUOUS
 62
     7
 10
-7.8898048
 20
90.437698
 40
2.4000001
 50
216.00833
 51
323.99168
  0
ARC
  8
0
  6
CONTINUOUS
 62
     7
 10
-7.8898048
 20
90.437698
 40
3.5999999
 50
216.00833
 51
323.99168
  0
ARC
  8
0
  6
CONTINUOUS
 62
     7
 10
-4.5874972
 20
92.8377
 40
7.6823077
 50
143.99167
 51
175.52055
  0
ARC
  8
0
  6
CONTINUOUS
 62
     7
 10
-4.5874972
 20
92.8377
 40
6.4823079
 50
143.99167
 51
174.68912
  0
ARC
  8
0
  6
CONTINUOUS
 62
     7
 10
-11.192112
 20
92.8377
 40
6.4823079
 50
323.99167
 51
36.008324
  0
ARC
  8
0
  6
CONTINUOUS
 62
     7
 10
-11.192112
 20
92.8377
 40
7.6823077
 50
323.99167
 51
355.52055
  0
ARC
  8
0
  6
CONTINUOUS
 62
     7
 10
-13.439805
 20
92.8377
 40
0.75
 50
126.8699
 51
233.13009
  0
ARC
  8
0
  6
CONTINUOUS
 62
     7
 10
-8.3398046
 20
92.8377
 40
0.75
 50
306.8699
 51
53.130102
  0
ARC
  8
0
  6
CONTINUOUS
 62
     7
 10
-2.3398044
 20
92.8377
 40
0.75
 50
306.8699
 51
53.130102
  0
ARC
  8
0
  6
CONTINUOUS
 62
     7
 10
-4.5874972
 20
92.8377
 40
6.4823079
 50
185.31088
 51
216.00833
  0
ARC
  8
0
  6
CONTINUOUS
 62
     7
 10
-4.5874972
 20
92.8377
 40
7.6823077
 50
184.47945
 51
216.00833
  0
ARC
  8
0
  6
CONTINUOUS
 62
     7
 10
-11.192112
 20
92.8377
 40
7.6823077
 50
4.4794472
 51
36.008324
  0
ARC
  8
0
  6
CONTINUOUS
 62
     7
 10
73.956055
 20
91.142899
 40
2.4000001
 50
36.008324
 51
143.99167
  0
ARC
  8
0
  6
CONTINUOUS
 62
     7
 10
73.956055
 20
91.142899
 40
3.5999999
 50
36.008324
 51
143.99167
  0
ARC
  8
0
  6
CONTINUOUS
 62
     7
 10
73.956055
 20
86.342896
 40
2.4000001
 50
216.00833
 51
323.99168
  0
ARC
  8
0
  6
CONTINUOUS
 62
     7
 10
73.956055
 20
86.342896
 40
3.5999999
 50
216.00833
 51
323.99168
  0
ARC
  8
0
  6
CONTINUOUS
 62
     7
 10
77.258362
 20
88.742897
 40
7.6823077
 50
143.99167
 51
175.52055
  0
ARC
  8
0
  6
CONTINUOUS
 62
     7
 10
77.258362
 20
88.742897
 40
6.4823079
 50
143.99167
 51
174.68912
  0
ARC
  8
0
  6
CONTINUOUS
 62
     7
 10
70.653748
 20
88.742897
 40
6.4823079
 50
323.99167
 51
36.008324
  0
ARC
  8
0
  6
CONTINUOUS
 62
     7
 10
70.653748
 20
88.742897
 40
7.6823077
 50
323.99167
 51
355.52055
  0
ARC
  8
0
  6
CONTINUOUS
 62
     7
 10
68.406052
 20
88.742897
 40
0.75
 50
126.8699
 51
233.13009
  0
ARC
  8
0
  6
CONTINUOUS
 62
     7
 10
73.50605
 20
88.742897
 40
0.75
 50
306.8699
 51
53.130102
  0
ARC
  8
0
  6
CONTINUOUS
 62
     7
 10
79.50605
 20
88.742897
 40
0.75
 50
306.8699
 51
53.130102
  0
ARC
  8
0
  6
CONTINUOUS
 62
     7
 10
77.258362
 20
88.742897
 40
6.4823079
 50
185.31088
 51
216.00833
  0
ARC
  8
0
  6
CONTINUOUS
 62
     7
 10
77.258362
 20
88.742897
 40
7.6823077
 50
184.47945
 51
216.00833
  0
ARC
  8
0
  6
CONTINUOUS
 62
     7
 10
70.653748
 20
88.742897
 40
7.6823077
 50
4.4794472
 51
36.008324
  0
ARC
  8
0
  6
CONTINUOUS
 62
     7
 10
173.16447
 20
85.574471
 40
2.4000001
 50
36.008324
 51
143.99167
  0
ARC
  8
0
  6
CONTINUOUS
 62
     7
 10
173.16447
 20
85.574471
 40
3.5999999
 50
36.008324
 51
143.99167
  0
ARC
  8
0
  6
CONTINUOUS
 62
     7
 10
173.16447
 20
80.774475
 40
2.4000001
 50
216.00833
 51
323.99168
  0
ARC
  8
0
  6
CONTINUOUS
 62
     7
 10
173.16447
 20
80.774475
 40
3.5999999
 50
216.00833
 51
323.99168
  0
ARC
  8
0
  6
CONTINUOUS
 62
     7
 10
176.46678
 20
83.174477
 40
7.6823077
 50
143.99167
 51
175.52055
  0
ARC
  8
0
  6
CONTINUOUS
 62
     7
 10
176.46678
 20
83.174477
 40
6.4823079
 50
143.99167
 51
174.68912
  0
ARC
  8
0
  6
CONTINUOUS
 62
     7
 10
169.86217
 20
83.174477
 40
6.4823079
 50
323.99167
 51
36.008324
  0
ARC
  8
0
  6
CONTINUOUS
 62
     7
 10
169.86217
 20
83.174477
 40
7.6823077
 50
323.99167
 51
355.52055
  0
ARC
  8
0
  6
CONTINUOUS
 62
     7
 10
167.61447
 20
83.174477
 40
0.75
 50
126.8699
 51
233.13009
  0
ARC
  8
0
  6
CONTINUOUS
 62
     7
 10
172.71448
 20
83.174477
 40
0.75
 50
306.8699
 51
53.130102
  0
ARC
  8
0
  6
CONTINUOUS
 62
     7
 10
178.71448
 20
83.174477
 40
0.75
 50
306.8699
 51
53.130102
  0
ARC
  8
0
  6
CONTINUOUS
 62
     7
 10
176.46678
 20
83.174477
 40
6.4823079
 50
185.31088
 51
216.00833
  0
ARC
  8
0
  6
CONTINUOUS
 62
     7
 10
176.46678
 20
83.174477
 40
7.6823077
 50
184.47945
 51
216.00833
  0
ARC
  8
0
  6
CONTINUOUS
 62
     7
 10
169.86217
 20
83.174477
 40
7.6823077
 50
4.4794472
 51
36.008324
  0
ARC
  8
0
  6
CONTINUOUS
 62
     7
 10
-241.22702
 20
-12.464211
 40
2.4000001
 50
36.008324
 51
143.99167
  0
ARC
  8
0
  6
CONTINUOUS
 62
     7
 10
-241.22702
 20
-12.464211
 40
3.5999999
 50
36.008324
 51
143.99167
  0
ARC
  8
0
  6
CONTINUOUS
 62
     7
 10
-241.22702
 20
-17.26421
 40
2.4000001
 50
216.00833
 51
323.99168
  0
ARC
  8
0
  6
CONTINUOUS
 62
     7
 10
-241.22702
 20
-17.26421
 40
3.5999999
 50
216.00833
 51
323.99168
  0
ARC
  8
0
  6
CONTINUOUS
 62
     7
 10
-237.92471
 20
-14.86421
 40
7.6823077
 50
143.99167
 51
175.52055
  0
ARC
  8
0
  6
CONTINUOUS
 62
     7
 10
-237.92471
 20
-14.86421
 40
6.4823079
 50
143.99167
 51
174.68912
  0
ARC
  8
0
  6
CONTINUOUS
 62
     7
 10
-244.52933
 20
-14.86421
 40
6.4823079
 50
323.99167
 51
36.008324
  0
ARC
  8
0
  6
CONTINUOUS
 62
     7
 10
-244.52933
 20
-14.86421
 40
7.6823077
 50
323.99167
 51
355.52055
  0
ARC
  8
0
  6
CONTINUOUS
 62
     7
 10
-246.77702
 20
-14.86421
 40
0.75
 50
126.8699
 51
233.13009
  0
ARC
  8
0
  6
CONTINUOUS
 62
     7
 10
-241.67702
 20
-14.86421
 40
0.75
 50
306.8699
 51
53.130102
  0
ARC
  8
0
  6
CONTINUOUS
 62
     7
 10
-235.67702
 20
-14.86421
 40
0.75
 50
306.8699
 51
53.130102
  0
ARC
  8
0
  6
CONTINUOUS
 62
     7
 10
-237.92471
 20
-14.86421
 40
6.4823079
 50
185.31088
 51
216.00833
  0
ARC
  8
0
  6
CONTINUOUS
 62
     7
 10
-237.92471
 20
-14.86421
 40
7.6823077
 50
184.47945
 51
216.00833
  0
ARC
  8
0
  6
CONTINUOUS
 62
     7
 10
-244.52933
 20
-14.86421
 40
7.6823077
 50
4.4794472
 51
36.008324
  0
ARC
  8
0
  6
CONTINUOUS
 62
     7
 10
-141.99052
 20
-13.941339
 40
2.4000001
 50
36.008324
 51
143.99167
  0
ARC
  8
0
  6
CONTINUOUS
 62
     7
 10
-141.99052
 20
-13.941339
 40
3.5999999
 50
36.008324
 51
143.99167
  0
ARC
  8
0
  6
CONTINUOUS
 62
     7
 10
-141.99052
 20
-18.741341
 40
2.4000001
 50
216.00833
 51
323.99168
  0
ARC
  8
0
  6
CONTINUOUS
 62
     7
 10
-141.99052
 20
-18.741341
 40
3.5999999
 50
216.00833
 51
323.99168
  0
ARC
  8
0
  6
CONTINUOUS
 62
     7
 10
-138.68822
 20
-16.341339
 40
7.6823077
 50
143.99167
 51
175.52055
  0
ARC
  8
0
  6
CONTINUOUS
 62
     7
 10
-138.68822
 20
-16.341339
 40
6.4823079
 50
143.99167
 51
174.68912
  0
ARC
  8
0
  6
CONTINUOUS
 62
     7
 10
-145.29283
 20
-16.341339
 40
6.4823079
 50
323.99167
 51
36.008324
  0
ARC
  8
0
  6
CONTINUOUS
 62
     7
 10
-145.29283
 20
-16.341339
 40
7.6823077
 50
323.99167
 51
355.52055
  0
ARC
  8
0
  6
CONTINUOUS
 62
     7
 10
-147.54053
 20
-16.341339
 40
0.75
 50
126.8699
 51
233.13009
  0
ARC
  8
0
  6
CONTINUOUS
 62
     7
 10
-142.44052
 20
-16.341339
 40
0.75
 50
306.8699
 51
53.130102
  0
ARC
  8
0
  6
CONTINUOUS
 62
     7
 10
-136.44052
 20
-16.341339
 40
0.75
 50
306.8699
 51
53.130102
  0
ARC
  8
0
  6
CONTINUOUS
 62
     7
 10
-138.68822
 20
-16.341339
 40
6.4823079
 50
185.31088
 51
216.00833
  0
ARC
  8
0
  6
CONTINUOUS
 62
     7
 10
-138.68822
 20
-16.341339
 40
7.6823077
 50
184.47945
 51
216.00833
  0
ARC
  8
0
  6
CONTINUOUS
 62
     7
 10
-145.29283
 20
-16.341339
 40
7.6823077
 50
4.4794472
 51
36.008324
  0
ARC
  8
0
  6
CONTINUOUS
 62
     7
 10
-38.38208
 20
-16.848995
 40
2.4000001
 50
36.008324
 51
143.99167
  0
ARC
  8
0
  6
CONTINUOUS
 62
     7
 10
-38.38208
 20
-16.848995
 40
3.5999999
 50
36.008324
 51
143.99167
  0
ARC
  8
0
  6
CONTINUOUS
 62
     7
 10
-38.38208
 20
-21.648994
 40
2.4000001
 50
216.00833
 51
323.99168
  0
ARC
  8
0
  6
CONTINUOUS
 62
     7
 10
-38.38208
 20
-21.648994
 40
3.5999999
 50
216.00833
 51
323.99168
  0
ARC
  8
0
  6
CONTINUOUS
 62
     7
 10
-35.079773
 20
-19.248995
 40
7.6823077
 50
143.99167
 51
175.52055
  0
ARC
  8
0
  6
CONTINUOUS
 62
     7
 10
-35.079773
 20
-19.248995
 40
6.4823079
 50
143.99167
 51
174.68912
  0
ARC
  8
0
  6
CONTINUOUS
 62
     7
 10
-41.684387
 20
-19.248995
 40
6.4823079
 50
323.99167
 51
36.008324
  0
ARC
  8
0
  6
CONTINUOUS
 62
     7
 10
-41.684387
 20
-19.248995
 40
7.6823077
 50
323.99167
 51
355.52055
  0
ARC
  8
0
  6
CONTINUOUS
 62
     7
 10
-43.932079
 20
-19.248995
 40
0.75
 50
126.8699
 51
233.13009
  0
ARC
  8
0
  6
CONTINUOUS
 62
     7
 10
-38.832081
 20
-19.248995
 40
0.75
 50
306.8699
 51
53.130102
  0
ARC
  8
0
  6
CONTINUOUS
 62
     7
 10
-32.832081
 20
-19.248995
 40
0.75
 50
306.8699
 51
53.130102
  0
ARC
  8
0
  6
CONTINUOUS
 62
     7
 10
-35.079773
 20
-19.248995
 40
6.4823079
 50
185.31088
 51
216.00833
  0
ARC
  8
0
  6
CONTINUOUS
 62
     7
 10
-35.079773
 20
-19.248995
 40
7.6823077
 50
184.47945
 51
216.00833
  0
ARC
  8
0
  6
CONTINUOUS
 62
     7
 10
-41.684387
 20
-19.248995
 40
7.6823077
 50
4.4794472
 51
36.008324
  0
ARC
  8
0
  6
CONTINUOUS
 62
     7
 10
57.282368
 20
-20.818684
 40
2.4000001
 50
36.008324
 51
143.99167
  0
ARC
  8
0
  6
CONTINUOUS
 62
     7
 10
57.282368
 20
-20.818684
 40
3.5999999
 50
36.008324
 51
143.99167
  0
ARC
  8
0
  6
CONTINUOUS
 62
     7
 10
57.282368
 20
-25.618685
 40
2.4000001
 50
216.00833
 51
323.99168
  0
ARC
  8
0
  6
CONTINUOUS
 62
     7
 10
57.282368
 20
-25.618685
 40
3.5999999
 50
216.00833
 51
323.99168
  0
ARC
  8
0
  6
CONTINUOUS
 62
     7
 10
60.584675
 20
-23.218685
 40
7.6823077
 50
143.99167
 51
175.52055
  0
ARC
  8
0
  6
CONTINUOUS
 62
     7
 10
60.584675
 20
-23.218685
 40
6.4823079
 50
143.99167
 51
174.68912
  0
ARC
  8
0
  6
CONTINUOUS
 62
     7
 10
53.980061
 20
-23.218685
 40
6.4823079
 50
323.99167
 51
36.008324
  0
ARC
  8
0
  6
CONTINUOUS
 62
     7
 10
53.980061
 20
-23.218685
 40
7.6823077
 50
323.99167
 51
355.52055
  0
ARC
  8
0
  6
CONTINUOUS
 62
     7
 10
51.732368
 20
-23.218685
 40
0.75
 50
126.8699
 51
233.13009
  0
ARC
  8
0
  6
CONTINUOUS
 62
     7
 10
56.832367
 20
-23.218685
 40
0.75
 50
306.8699
 51
53.130102
  0
ARC
  8
0
  6
CONTINUOUS
 62
     7
 10
62.832367
 20
-23.218685
 40
0.75
 50
306.8699
 51
53.130102
  0
ARC
  8
0
  6
CONTINUOUS
 62
     7
 10
60.584675
 20
-23.218685
 40
6.4823079
 50
185.31088
 51
216.00833
  0
ARC
  8
0
  6
CONTINUOUS
 62
     7
 10
60.584675
 20
-23.218685
 40
7.6823077
 50
184.47945
 51
216.00833
  0
ARC
  8
0
  6
CONTINUOUS
 62
     7
 10
53.980061
 20
-23.218685
 40
7.6823077
 50
4.4794472
 51
36.008324
  0
ARC
  8
0
  6
CONTINUOUS
 62
     7
 10
186.55997
 20
-9.9018936
 40
3
 50
36.008324
 51
143.99167
  0
ARC
  8
0
  6
CONTINUOUS
 62
     7
 10
186.55997
 20
-9.9018936
 40
4.5
 50
36.008324
 51
143.99167
  0
ARC
  8
0
  6
CONTINUOUS
 62
     7
 10
186.55997
 20
-15.901894
 40
3
 50
216.00833
 51
323.99168
  0
ARC
  8
0
  6
CONTINUOUS
 62
     7
 10
186.55997
 20
-15.901894
 40
4.5
 50
216.00833
 51
323.99168
  0
ARC
  8
0
  6
CONTINUOUS
 62
     7
 10
190.68785
 20
-12.901894
 40
9.6028843
 50
143.99167
 51
175.52055
  0
ARC
  8
0
  6
CONTINUOUS
 62
     7
 10
190.68785
 20
-12.901894
 40
8.1028843
 50
143.99167
 51
174.68912
  0
ARC
  8
0
  6
CONTINUOUS
 62
     7
 10
182.43208
 20
-12.901894
 40
8.1028843
 50
323.99167
 51
36.008324
  0
ARC
  8
0
  6
CONTINUOUS
 62
     7
 10
182.43208
 20
-12.901894
 40
9.6028843
 50
323.99167
 51
355.52055
  0
ARC
  8
0
  6
CONTINUOUS
 62
     7
 10
179.62247
 20
-12.901894
 40
0.9375
 50
126.8699
 51
233.13009
  0
ARC
  8
0
  6
CONTINUOUS
 62
     7
 10
185.99747
 20
-12.901894
 40
0.9375
 50
306.8699
 51
53.130102
  0
ARC
  8
0
  6
CONTINUOUS
 62
     7
 10
193.49747
 20
-12.901894
 40
0.9375
 50
306.8699
 51
53.130102
  0
ARC
  8
0
  6
CONTINUOUS
 62
     7
 10
190.68785
 20
-12.901894
 40
9.6028843
 50
184.47945
 51
216.00833
  0
ARC
  8
0
  6
CONTINUOUS
 62
     7
 10
190.68785
 20
-12.901894
 40
8.1028843
 50
185.31088
 51
216.00833
  0
ARC
  8
0
  6
CONTINUOUS
 62
     7
 10
182.43208
 20
-12.901894
 40
9.6028843
 50
4.4794472
 51
36.008324
  0
ARC
  8
0
  6
CONTINUOUS
 62
     7
 10
-237.91808
 20
-135.12849
 40
3
 50
36.008324
 51
143.99167
  0
ARC
  8
0
  6
CONTINUOUS
 62
     7
 10
-237.91808
 20
-135.12849
 40
4.5
 50
36.008324
 51
143.99167
  0
ARC
  8
0
  6
CONTINUOUS
 62
     7
 10
-237.91808
 20
-141.12849
 40
3
 50
216.00833
 51
323.99168
  0
ARC
  8
0
  6
CONTINUOUS
 62
     7
 10
-237.91808
 20
-141.12849
 40
4.5
 50
216.00833
 51
323.99168
  0
ARC
  8
0
  6
CONTINUOUS
 62
     7
 10
-233.79019
 20
-138.12849
 40
9.6028843
 50
143.99167
 51
175.52055
  0
ARC
  8
0
  6
CONTINUOUS
 62
     7
 10
-233.79019
 20
-138.12849
 40
8.1028843
 50
143.99167
 51
174.68912
  0
ARC
  8
0
  6
CONTINUOUS
 62
     7
 10
-242.04596
 20
-138.12849
 40
8.1028843
 50
323.99167
 51
36.008324
  0
ARC
  8
0
  6
CONTINUOUS
 62
     7
 10
-242.04596
 20
-138.12849
 40
9.6028843
 50
323.99167
 51
355.52055
  0
ARC
  8
0
  6
CONTINUOUS
 62
     7
 10
-244.85558
 20
-138.12849
 40
0.9375
 50
126.8699
 51
233.13009
  0
ARC
  8
0
  6
CONTINUOUS
 62
     7
 10
-238.48058
 20
-138.12849
 40
0.9375
 50
306.8699
 51
53.130102
  0
ARC
  8
0
  6
CONTINUOUS
 62
     7
 10
-230.98058
 20
-138.12849
 40
0.9375
 50
306.8699
 51
53.130102
  0
ARC
  8
0
  6
CONTINUOUS
 62
     7
 10
-233.79019
 20
-138.12849
 40
9.6028843
 50
184.47945
 51
216.00833
  0
ARC
  8
0
  6
CONTINUOUS
 62
     7
 10
-233.79019
 20
-138.12849
 40
8.1028843
 50
185.31088
 51
216.00833
  0
ARC
  8
0
  6
CONTINUOUS
 62
     7
 10
-242.04596
 20
-138.12849
 40
9.6028843
 50
4.4794472
 51
36.008324
  0
ARC
  8
0
  6
CONTINUOUS
 62
     7
 10
-117.03421
 20
-136.7
 40
3
 50
36.008324
 51
143.99167
  0
ARC
  8
0
  6
CONTINUOUS
 62
     7
 10
-117.03421
 20
-136.7
 40
4.5
 50
36.008324
 51
143.99167
  0
ARC
  8
0
  6
CONTINUOUS
 62
     7
 10
-117.03421
 20
-142.7
 40
3
 50
216.00833
 51
323.99168
  0
ARC
  8
0
  6
CONTINUOUS
 62
     7
 10
-117.03421
 20
-142.7
 40
4.5
 50
216.00833
 51
323.99168
  0
ARC
  8
0
  6
CONTINUOUS
 62
     7
 10
-112.90633
 20
-139.7
 40
9.6028843
 50
143.99167
 51
175.52055
  0
ARC
  8
0
  6
CONTINUOUS
 62
     7
 10
-112.90633
 20
-139.7
 40
8.1028843
 50
143.99167
 51
174.68912
  0
ARC
  8
0
  6
CONTINUOUS
 62
     7
 10
-121.16209
 20
-139.7
 40
8.1028843
 50
323.99167
 51
36.008324
  0
ARC
  8
0
  6
CONTINUOUS
 62
     7
 10
-121.16209
 20
-139.7
 40
9.6028843
 50
323.99167
 51
355.52055
  0
ARC
  8
0
  6
CONTINUOUS
 62
     7
 10
-123.97171
 20
-139.7
 40
0.9375
 50
126.8699
 51
233.13009
  0
ARC
  8
0
  6
CONTINUOUS
 62
     7
 10
-117.59671
 20
-139.7
 40
0.9375
 50
306.8699
 51
53.130102
  0
ARC
  8
0
  6
CONTINUOUS
 62
     7
 10
-110.09671
 20
-139.7
 40
0.9375
 50
306.8699
 51
53.130102
  0
ARC
  8
0
  6
CONTINUOUS
 62
     7
 10
-112.90633
 20
-139.7
 40
9.6028843
 50
184.47945
 51
216.00833
  0
ARC
  8
0
  6
CONTINUOUS
 62
     7
 10
-112.90633
 20
-139.7
 40
8.1028843
 50
185.31088
 51
216.00833
  0
ARC
  8
0
  6
CONTINUOUS
 62
     7
 10
-121.16209
 20
-139.7
 40
9.6028843
 50
4.4794472
 51
36.008324
  0
ARC
  8
0
  6
CONTINUOUS
 62
     7
 10
7.2710843
 20
-138.68205
 40
3
 50
36.008324
 51
143.99167
  0
ARC
  8
0
  6
CONTINUOUS
 62
     7
 10
7.2710843
 20
-138.68205
 40
4.5
 50
36.008324
 51
143.99167
  0
ARC
  8
0
  6
CONTINUOUS
 62
     7
 10
7.2710843
 20
-144.68205
 40
3
 50
216.00833
 51
323.99168
  0
ARC
  8
0
  6
CONTINUOUS
 62
     7
 10
7.2710843
 20
-144.68205
 40
4.5
 50
216.00833
 51
323.99168
  0
ARC
  8
0
  6
CONTINUOUS
 62
     7
 10
11.398969
 20
-141.68205
 40
9.6028843
 50
143.99167
 51
175.52055
  0
ARC
  8
0
  6
CONTINUOUS
 62
     7
 10
11.398969
 20
-141.68205
 40
8.1028843
 50
143.99167
 51
174.68912
  0
ARC
  8
0
  6
CONTINUOUS
 62
     7
 10
3.1432002
 20
-141.68205
 40
8.1028843
 50
323.99167
 51
36.008324
  0
ARC
  8
0
  6
CONTINUOUS
 62
     7
 10
3.1432002
 20
-141.68205
 40
9.6028843
 50
323.99167
 51
355.52055
  0
ARC
  8
0
  6
CONTINUOUS
 62
     7
 10
0.33358455
 20
-141.68205
 40
0.9375
 50
126.8699
 51
233.13009
  0
ARC
  8
0
  6
CONTINUOUS
 62
     7
 10
6.7085843
 20
-141.68205
 40
0.9375
 50
306.8699
 51
53.130102
  0
ARC
  8
0
  6
CONTINUOUS
 62
     7
 10
14.208585
 20
-141.68205
 40
0.9375
 50
306.8699
 51
53.130102
  0
ARC
  8
0
  6
CONTINUOUS
 62
     7
 10
11.398969
 20
-141.68205
 40
9.6028843
 50
184.47945
 51
216.00833
  0
ARC
  8
0
  6
CONTINUOUS
 62
     7
 10
11.398969
 20
-141.68205
 40
8.1028843
 50
185.31088
 51
216.00833
  0
ARC
  8
0
  6
CONTINUOUS
 62
     7
 10
3.1432002
 20
-141.68205
 40
9.6028843
 50
4.4794472
 51
36.008324
  0
ARC
  8
0
  6
CONTINUOUS
 62
     7
 10
150.39708
 20
-141.8288
 40
3
 50
36.008324
 51
143.99167
  0
ARC
  8
0
  6
CONTINUOUS
 62
     7
 10
150.39708
 20
-141.8288
 40
4.5
 50
36.008324
 51
143.99167
  0
ARC
  8
0
  6
CONTINUOUS
 62
     7
 10
150.39708
 20
-147.8288
 40
3
 50
216.00833
 51
323.99168
  0
ARC
  8
0
  6
CONTINUOUS
 62
     7
 10
150.39708
 20
-147.8288
 40
4.5
 50
216.00833
 51
323.99168
  0
ARC
  8
0
  6
CONTINUOUS
 62
     7
 10
154.52496
 20
-144.8288
 40
9.6028843
 50
143.99167
 51
175.52055
  0
ARC
  8
0
  6
CONTINUOUS
 62
     7
 10
154.52496
 20
-144.8288
 40
8.1028843
 50
143.99167
 51
174.68912
  0
ARC
  8
0
  6
CONTINUOUS
 62
     7
 10
146.2692
 20
-144.8288
 40
8.1028843
 50
323.99167
 51
36.008324
  0
ARC
  8
0
  6
CONTINUOUS
 62
     7
 10
146.2692
 20
-144.8288
 40
9.6028843
 50
323.99167
 51
355.52055
  0
ARC
  8
0
  6
CONTINUOUS
 62
     7
 10
143.45958
 20
-144.8288
 40
0.9375
 50
126.8699
 51
233.13009
  0
ARC
  8
0
  6
CONTINUOUS
 62
     7
 10
149.83458
 20
-144.8288
 40
0.9375
 50
306.8699
 51
53.130102
  0
ARC
  8
0
  6
CONTINUOUS
 62
     7
 10
157.33458
 20
-144.8288
 40
0.9375
 50
306.8699
 51
53.130102
  0
ARC
  8
0
  6
CONTINUOUS
 62
     7
 10
154.52496
 20
-144.8288
 40
9.6028843
 50
184.47945
 51
216.00833
  0
ARC
  8
0
  6
CONTINUOUS
 62
     7
 10
154.52496
 20
-144.8288
 40
8.1028843
 50
185.31088
 51
216.00833
  0
ARC
  8
0
  6
CONTINUOUS
 62
     7
 10
146.2692
 20
-144.8288
 40
9.6028843
 50
4.4794472
 51
36.008324
  0
ARC
  8
0
  6
CONTINUOUS
 62
     7
 10
398.69098
 20
103.38728
 40
3
 50
36.008324
 51
143.99167
  0
ARC
  8
0
  6
CONTINUOUS
 62
     7
 10
398.69098
 20
103.38728
 40
4.5
 50
36.008324
 51
143.99167
  0
ARC
  8
0
  6
CONTINUOUS
 62
     7
 10
398.69098
 20
97.387276
 40
3
 50
216.00833
 51
323.99168
  0
ARC
  8
0
  6
CONTINUOUS
 62
     7
 10
398.69098
 20
97.387276
 40
4.5
 50
216.00833
 51
323.99168
  0
ARC
  8
0
  6
CONTINUOUS
 62
     7
 10
402.81888
 20
100.38728
 40
9.6028843
 50
143.99167
 51
175.52055
  0
ARC
  8
0
  6
CONTINUOUS
 62
     7
 10
402.81888
 20
100.38728
 40
8.1028843
 50
143.99167
 51
174.68912
  0
ARC
  8
0
  6
CONTINUOUS
 62
     7
 10
394.56311
 20
100.38728
 40
8.1028843
 50
323.99167
 51
36.008324
  0
ARC
  8
0
  6
CONTINUOUS
 62
     7
 10
394.56311
 20
100.38728
 40
9.6028843
 50
323.99167
 51
355.52055
  0
ARC
  8
0
  6
CONTINUOUS
 62
     7
 10
391.75348
 20
100.38728
 40
0.9375
 50
126.8699
 51
233.13009
  0
ARC
  8
0
  6
CONTINUOUS
 62
     7
 10
398.12848
 20
100.38728
 40
0.9375
 50
306.8699
 51
53.130102
  0
ARC
  8
0
  6
CONTINUOUS
 62
     7
 10
405.62848
 20
100.38728
 40
0.9375
 50
306.8699
 51
53.130102
  0
ARC
  8
0
  6
CONTINUOUS
 62
     7
 10
402.81888
 20
100.38728
 40
9.6028843
 50
184.47945
 51
216.00833
  0
ARC
  8
0
  6
CONTINUOUS
 62
     7
 10
402.81888
 20
100.38728
 40
8.1028843
 50
185.31088
 51
216.00833
  0
ARC
  8
0
  6
CONTINUOUS
 62
     7
 10
394.56311
 20
100.38728
 40
9.6028843
 50
4.4794472
 51
36.008324
  0
ARC
  8
0
  6
CONTINUOUS
 62
     7
 10
546.44946
 20
102.37762
 40
3
 50
36.008324
 51
143.99167
  0
ARC
  8
0
  6
CONTINUOUS
 62
     7
 10
546.44946
 20
102.37762
 40
4.5
 50
36.008324
 51
143.99167
  0
ARC
  8
0
  6
CONTINUOUS
 62
     7
 10
546.44946
 20
96.377617
 40
3
 50
216.00833
 51
323.99168
  0
ARC
  8
0
  6
CONTINUOUS
 62
     7
 10
546.44946
 20
96.377617
 40
4.5
 50
216.00833
 51
323.99168
  0
ARC
  8
0
  6
CONTINUOUS
 62
     7
 10
550.57739
 20
99.377617
 40
9.6028843
 50
143.99167
 51
175.52055
  0
ARC
  8
0
  6
CONTINUOUS
 62
     7
 10
550.57739
 20
99.377617
 40
8.1028843
 50
143.99167
 51
174.68912
  0
ARC
  8
0
  6
CONTINUOUS
 62
     7
 10
542.32159
 20
99.377617
 40
8.1028843
 50
323.99167
 51
36.008324
  0
ARC
  8
0
  6
CONTINUOUS
 62
     7
 10
542.32159
 20
99.377617
 40
9.6028843
 50
323.99167
 51
355.52055
  0
ARC
  8
0
  6
CONTINUOUS
 62
     7
 10
539.51196
 20
99.377617
 40
0.9375
 50
126.8699
 51
233.13009
  0
ARC
  8
0
  6
CONTINUOUS
 62
     7
 10
545.88696
 20
99.377617
 40
0.9375
 50
306.8699
 51
53.130102
  0
ARC
  8
0
  6
CONTINUOUS
 62
     7
 10
553.38696
 20
99.377617
 40
0.9375
 50
306.8699
 51
53.130102
  0
ARC
  8
0
  6
CONTINUOUS
 62
     7
 10
550.57739
 20
99.377617
 40
9.6028843
 50
184.47945
 51
216.00833
  0
ARC
  8
0
  6
CONTINUOUS
 62
     7
 10
550.57739
 20
99.377617
 40
8.1028843
 50
185.31088
 51
216.00833
  0
ARC
  8
0
  6
CONTINUOUS
 62
     7
 10
542.32159
 20
99.377617
 40
9.6028843
 50
4.4794472
 51
36.008324
  0
ARC
  8
0
  6
CONTINUOUS
 62
     7
 10
683.37219
 20
97.046936
 40
3
 50
36.008324
 51
143.99167
  0
ARC
  8
0
  6
CONTINUOUS
 62
     7
 10
683.37219
 20
97.046936
 40
4.5
 50
36.008324
 51
143.99167
  0
ARC
  8
0
  6
CONTINUOUS
 62
     7
 10
683.37219
 20
91.046936
 40
3
 50
216.00833
 51
323.99168
  0
ARC
  8
0
  6
CONTINUOUS
 62
     7
 10
683.37219
 20
91.046936
 40
4.5
 50
216.00833
 51
323.99168
  0
ARC
  8
0
  6
CONTINUOUS
 62
     7
 10
687.50006
 20
94.046936
 40
9.6028843
 50
143.99167
 51
175.52055
  0
ARC
  8
0
  6
CONTINUOUS
 62
     7
 10
687.50006
 20
94.046936
 40
8.1028843
 50
143.99167
 51
174.68912
  0
ARC
  8
0
  6
CONTINUOUS
 62
     7
 10
679.24432
 20
94.046936
 40
8.1028843
 50
323.99167
 51
36.008324
  0
ARC
  8
0
  6
CONTINUOUS
 62
     7
 10
679.24432
 20
94.046936
 40
9.6028843
 50
323.99167
 51
355.52055
  0
ARC
  8
0
  6
CONTINUOUS
 62
     7
 10
676.43469
 20
94.046936
 40
0.9375
 50
126.8699
 51
233.13009
  0
ARC
  8
0
  6
CONTINUOUS
 62
     7
 10
682.80969
 20
94.046936
 40
0.9375
 50
306.8699
 51
53.130102
  0
ARC
  8
0
  6
CONTINUOUS
 62
     7
 10
690.30969
 20
94.046936
 40
0.9375
 50
306.8699
 51
53.130102
  0
ARC
  8
0
  6
CONTINUOUS
 62
     7
 10
687.50006
 20
94.046936
 40
9.6028843
 50
184.47945
 51
216.00833
  0
ARC
  8
0
  6
CONTINUOUS
 62
     7
 10
687.50006
 20
94.046936
 40
8.1028843
 50
185.31088
 51
216.00833
  0
ARC
  8
0
  6
CONTINUOUS
 62
     7
 10
679.24432
 20
94.046936
 40
9.6028843
 50
4.4794472
 51
36.008324
  0
ARC
  8
0
  6
CONTINUOUS
 62
     7
 10
808.88013
 20
91.756599
 40
3
 50
36.008324
 51
143.99167
  0
ARC
  8
0
  6
CONTINUOUS
 62
     7
 10
808.88013
 20
91.756599
 40
4.5
 50
36.008324
 51
143.99167
  0
ARC
  8
0
  6
CONTINUOUS
 62
     7
 10
808.88013
 20
85.756599
 40
3
 50
216.00833
 51
323.99168
  0
ARC
  8
0
  6
CONTINUOUS
 62
     7
 10
808.88013
 20
85.756599
 40
4.5
 50
216.00833
 51
323.99168
  0
ARC
  8
0
  6
CONTINUOUS
 62
     7
 10
813.008
 20
88.756599
 40
9.6028843
 50
143.99167
 51
175.52055
  0
ARC
  8
0
  6
CONTINUOUS
 62
     7
 10
813.008
 20
88.756599
 40
8.1028843
 50
143.99167
 51
174.68912
  0
ARC
  8
0
  6
CONTINUOUS
 62
     7
 10
804.75226
 20
88.756599
 40
8.1028843
 50
323.99167
 51
36.008324
  0
ARC
  8
0
  6
CONTINUOUS
 62
     7
 10
804.75226
 20
88.756599
 40
9.6028843
 50
323.99167
 51
355.52055
  0
ARC
  8
0
  6
CONTINUOUS
 62
     7
 10
801.94263
 20
88.756599
 40
0.9375
 50
126.8699
 51
233.13009
  0
ARC
  8
0
  6
CONTINUOUS
 62
     7
 10
808.31763
 20
88.756599
 40
0.9375
 50
306.8699
 51
53.130102
  0
ARC
  8
0
  6
CONTINUOUS
 62
     7
 10
815.81763
 20
88.756599
 40
0.9375
 50
306.8699
 51
53.130102
  0
ARC
  8
0
  6
CONTINUOUS
 62
     7
 10
813.008
 20
88.756599
 40
9.6028843
 50
184.47945
 51
216.00833
  0
ARC
  8
0
  6
CONTINUOUS
 62
     7
 10
813.008
 20
88.756599
 40
8.1028843
 50
185.31088
 51
216.00833
  0
ARC
  8
0
  6
CONTINUOUS
 62
     7
 10
804.75226
 20
88.756599
 40
9.6028843
 50
4.4794472
 51
36.008324
  0
ARC
  8
0
  6
CONTINUOUS
 62
     7
 10
378.00177
 20
-17.69282
 40
3
 50
36.008324
 51
143.99167
  0
ARC
  8
0
  6
CONTINUOUS
 62
     7
 10
378.00177
 20
-17.69282
 40
4.5
 50
36.008324
 51
143.99167
  0
ARC
  8
0
  6
CONTINUOUS
 62
     7
 10
378.00177
 20
-23.69282
 40
3
 50
216.00833
 51
323.99168
  0
ARC
  8
0
  6
CONTINUOUS
 62
     7
 10
378.00177
 20
-23.69282
 40
4.5
 50
216.00833
 51
323.99168
  0
ARC
  8
0
  6
CONTINUOUS
 62
     7
 10
382.12967
 20
-20.69282
 40
9.6028843
 50
143.99167
 51
175.52055
  0
ARC
  8
0
  6
CONTINUOUS
 62
     7
 10
382.12967
 20
-20.69282
 40
8.1028843
 50
143.99167
 51
174.68912
  0
ARC
  8
0
  6
CONTINUOUS
 62
     7
 10
373.8739
 20
-20.69282
 40
8.1028843
 50
323.99167
 51
36.008324
  0
ARC
  8
0
  6
CONTINUOUS
 62
     7
 10
373.8739
 20
-20.69282
 40
9.6028843
 50
323.99167
 51
355.52055
  0
ARC
  8
0
  6
CONTINUOUS
 62
     7
 10
371.06427
 20
-20.69282
 40
0.9375
 50
126.8699
 51
233.13009
  0
ARC
  8
0
  6
CONTINUOUS
 62
     7
 10
377.43927
 20
-20.69282
 40
0.9375
 50
306.8699
 51
53.130102
  0
ARC
  8
0
  6
CONTINUOUS
 62
     7
 10
384.93927
 20
-20.69282
 40
0.9375
 50
306.8699
 51
53.130102
  0
ARC
  8
0
  6
CONTINUOUS
 62
     7
 10
382.12967
 20
-20.69282
 40
9.6028843
 50
184.47945
 51
216.00833
  0
ARC
  8
0
  6
CONTINUOUS
 62
     7
 10
382.12967
 20
-20.69282
 40
8.1028843
 50
185.31088
 51
216.00833
  0
ARC
  8
0
  6
CONTINUOUS
 62
     7
 10
373.8739
 20
-20.69282
 40
9.6028843
 50
4.4794472
 51
36.008324
  0
ARC
  8
0
  6
CONTINUOUS
 62
     7
 10
524.89893
 20
-25.863842
 40
3
 50
36.008324
 51
143.99167
  0
ARC
  8
0
  6
CONTINUOUS
 62
     7
 10
524.89893
 20
-25.863842
 40
4.5
 50
36.008324
 51
143.99167
  0
ARC
  8
0
  6
CONTINUOUS
 62
     7
 10
524.89893
 20
-31.863842
 40
3
 50
216.00833
 51
323.99168
  0
ARC
  8
0
  6
CONTINUOUS
 62
     7
 10
524.89893
 20
-31.863842
 40
4.5
 50
216.00833
 51
323.99168
  0
ARC
  8
0
  6
CONTINUOUS
 62
     7
 10
529.02679
 20
-28.863842
 40
9.6028843
 50
143.99167
 51
175.52055
  0
ARC
  8
0
  6
CONTINUOUS
 62
     7
 10
529.02679
 20
-28.863842
 40
8.1028843
 50
143.99167
 51
174.68912
  0
ARC
  8
0
  6
CONTINUOUS
 62
     7
 10
520.77106
 20
-28.863842
 40
8.1028843
 50
323.99167
 51
36.008324
  0
ARC
  8
0
  6
CONTINUOUS
 62
     7
 10
520.77106
 20
-28.863842
 40
9.6028843
 50
323.99167
 51
355.52055
  0
ARC
  8
0
  6
CONTINUOUS
 62
     7
 10
517.96143
 20
-28.863842
 40
0.9375
 50
126.8699
 51
233.13009
  0
ARC
  8
0
  6
CONTINUOUS
 62
     7
 10
524.33643
 20
-28.863842
 40
0.9375
 50
306.8699
 51
53.130102
  0
ARC
  8
0
  6
CONTINUOUS
 62
     7
 10
531.83643
 20
-28.863842
 40
0.9375
 50
306.8699
 51
53.130102
  0
ARC
  8
0
  6
CONTINUOUS
 62
     7
 10
529.02679
 20
-28.863842
 40
9.6028843
 50
184.47945
 51
216.00833
  0
ARC
  8
0
  6
CONTINUOUS
 62
     7
 10
529.02679
 20
-28.863842
 40
8.1028843
 50
185.31088
 51
216.00833
  0
ARC
  8
0
  6
CONTINUOUS
 62
     7
 10
520.77106
 20
-28.863842
 40
9.6028843
 50
4.4794472
 51
36.008324
  0
ARC
  8
0
  6
CONTINUOUS
 62
     7
 10
671.87677
 20
-19.299635
 40
3.5999999
 50
36.008324
 51
143.99167
  0
ARC
  8
0
  6
CONTINUOUS
 62
     7
 10
671.87677
 20
-19.299635
 40
5.4000001
 50
36.008324
 51
143.99167
  0
ARC
  8
0
  6
CONTINUOUS
 62
     7
 10
671.87677
 20
-26.499636
 40
3.5999999
 50
216.00833
 51
323.99168
  0
ARC
  8
0
  6
CONTINUOUS
 62
     7
 10
671.87677
 20
-26.499636
 40
5.4000001
 50
216.00833
 51
323.99168
  0
ARC
  8
0
  6
CONTINUOUS
 62
     7
 10
676.8302
 20
-22.899635
 40
11.523461
 50
143.99167
 51
175.52055
  0
ARC
  8
0
  6
CONTINUOUS
 62
     7
 10
676.8302
 20
-22.899635
 40
9.7234612
 50
143.99167
 51
174.68912
  0
ARC
  8
0
  6
CONTINUOUS
 62
     7
 10
666.92328
 20
-22.899635
 40
9.7234612
 50
323.99167
 51
36.008324
  0
ARC
  8
0
  6
CONTINUOUS
 62
     7
 10
666.92328
 20
-22.899635
 40
11.523461
 50
323.99167
 51
355.52055
  0
ARC
  8
0
  6
CONTINUOUS
 62
     7
 10
663.55176
 20
-22.899635
 40
1.125
 50
126.8699
 51
233.13009
  0
ARC
  8
0
  6
CONTINUOUS
 62
     7
 10
671.20172
 20
-22.899635
 40
1.125
 50
306.8699
 51
53.130102
  0
ARC
  8
0
  6
CONTINUOUS
 62
     7
 10
680.20172
 20
-22.899635
 40
1.125
 50
306.8699
 51
53.130102
  0
ARC
  8
0
  6
CONTINUOUS
 62
     7
 10
676.8302
 20
-22.899635
 40
11.523461
 50
184.47945
 51
216.00833
  0
ARC
  8
0
  6
CONTINUOUS
 62
     7
 10
676.8302
 20
-22.899635
 40
9.7234612
 50
185.31088
 51
216.00833
  0
ARC
  8
0
  6
CONTINUOUS
 62
     7
 10
666.92328
 20
-22.899635
 40
11.523461
 50
4.4794472
 51
36.008324
  0
ARC
  8
0
  6
CONTINUOUS
 62
     7
 10
806.65912
 20
-22.489977
 40
3.5999999
 50
36.008324
 51
143.99167
  0
ARC
  8
0
  6
CONTINUOUS
 62
     7
 10
806.65912
 20
-22.489977
 40
5.4000001
 50
36.008324
 51
143.99167
  0
ARC
  8
0
  6
CONTINUOUS
 62
     7
 10
806.65912
 20
-29.689976
 40
3.5999999
 50
216.00833
 51
323.99168
  0
ARC
  8
0
  6
CONTINUOUS
 62
     7
 10
806.65912
 20
-29.689976
 40
5.4000001
 50
216.00833
 51
323.99168
  0
ARC
  8
0
  6
CONTINUOUS
 62
     7
 10
811.61255
 20
-26.089975
 40
11.523461
 50
143.99167
 51
175.52055
  0
ARC
  8
0
  6
CONTINUOUS
 62
     7
 10
811.61255
 20
-26.089975
 40
9.7234612
 50
143.99167
 51
174.68912
  0
ARC
  8
0
  6
CONTINUOUS
 62
     7
 10
801.70563
 20
-26.089975
 40
9.7234612
 50
323.99167
 51
36.008324
  0
ARC
  8
0
  6
CONTINUOUS
 62
     7
 10
801.70563
 20
-26.089975
 40
11.523461
 50
323.99167
 51
355.52055
  0
ARC
  8
0
  6
CONTINUOUS
 62
     7
 10
798.33411
 20
-26.089975
 40
1.125
 50
126.8699
 51
233.13009
  0
ARC
  8
0
  6
CONTINUOUS
 62
     7
 10
805.98413
 20
-26.089975
 40
1.125
 50
306.8699
 51
53.130102
  0
ARC
  8
0
  6
CONTINUOUS
 62
     7
 10
814.98413
 20
-26.089975
 40
1.125
 50
306.8699
 51
53.130102
  0
ARC
  8
0
  6
CONTINUOUS
 62
     7
 10
811.61255
 20
-26.089975
 40
11.523461
 50
184.47945
 51
216.00833
  0
ARC
  8
0
  6
CONTINUOUS
 62
     7
 10
811.61255
 20
-26.089975
 40
9.7234612
 50
185.31088
 51
216.00833
  0
ARC
  8
0
  6
CONTINUOUS
 62
     7
 10
801.70563
 20
-26.089975
 40
11.523461
 50
4.4794472
 51
36.008324
  0
ARC
  8
0
  6
CONTINUOUS
 62
     7
 10
372.3887
 20
-150.6769
 40
3.5999999
 50
36.008324
 51
143.99167
  0
ARC
  8
0
  6
CONTINUOUS
 62
     7
 10
372.3887
 20
-150.6769
 40
5.4000001
 50
36.008324
 51
143.99167
  0
ARC
  8
0
  6
CONTINUOUS
 62
     7
 10
372.3887
 20
-157.87689
 40
3.5999999
 50
216.00833
 51
323.99168
  0
ARC
  8
0
  6
CONTINUOUS
 62
     7
 10
372.3887
 20
-157.87689
 40
5.4000001
 50
216.00833
 51
323.99168
  0
ARC
  8
0
  6
CONTINUOUS
 62
     7
 10
377.34216
 20
-154.27689
 40
11.523461
 50
143.99167
 51
175.52055
  0
ARC
  8
0
  6
CONTINUOUS
 62
     7
 10
377.34216
 20
-154.27689
 40
9.7234612
 50
143.99167
 51
174.68912
  0
ARC
  8
0
  6
CONTINUOUS
 62
     7
 10
367.43524
 20
-154.27689
 40
9.7234612
 50
323.99167
 51
36.008324
  0
ARC
  8
0
  6
CONTINUOUS
 62
     7
 10
367.43524
 20
-154.27689
 40
11.523461
 50
323.99167
 51
355.52055
  0
ARC
  8
0
  6
CONTINUOUS
 62
     7
 10
364.06372
 20
-154.27689
 40
1.125
 50
126.8699
 51
233.13009
  0
ARC
  8
0
  6
CONTINUOUS
 62
     7
 10
371.71371
 20
-154.27689
 40
1.125
 50
306.8699
 51
53.130102
  0
ARC
  8
0
  6
CONTINUOUS
 62
     7
 10
380.71371
 20
-154.27689
 40
1.125
 50
306.8699
 51
53.130102
  0
ARC
  8
0
  6
CONTINUOUS
 62
     7
 10
377.34216
 20
-154.27689
 40
11.523461
 50
184.47945
 51
216.00833
  0
ARC
  8
0
  6
CONTINUOUS
 62
     7
 10
377.34216
 20
-154.27689
 40
9.7234612
 50
185.31088
 51
216.00833
  0
ARC
  8
0
  6
CONTINUOUS
 62
     7
 10
367.43524
 20
-154.27689
 40
11.523461
 50
4.4794472
 51
36.008324
  0
ARC
  8
0
  6
CONTINUOUS
 62
     7
 10
500.07733
 20
-156.78825
 40
3.5999999
 50
36.008324
 51
143.99167
  0
ARC
  8
0
  6
CONTINUOUS
 62
     7
 10
500.07733
 20
-156.78825
 40
5.4000001
 50
36.008324
 51
143.99167
  0
ARC
  8
0
  6
CONTINUOUS
 62
     7
 10
500.07733
 20
-163.98825
 40
3.5999999
 50
216.00833
 51
323.99168
  0
ARC
  8
0
  6
CONTINUOUS
 62
     7
 10
500.07733
 20
-163.98825
 40
5.4000001
 50
216.00833
 51
323.99168
  0
ARC
  8
0
  6
CONTINUOUS
 62
     7
 10
505.03079
 20
-160.38826
 40
11.523461
 50
143.99167
 51
175.52055
  0
ARC
  8
0
  6
CONTINUOUS
 62
     7
 10
505.03079
 20
-160.38826
 40
9.7234612
 50
143.99167
 51
174.68912
  0
ARC
  8
0
  6
CONTINUOUS
 62
     7
 10
495.12387
 20
-160.38826
 40
9.7234612
 50
323.99167
 51
36.008324
  0
ARC
  8
0
  6
CONTINUOUS
 62
     7
 10
495.12387
 20
-160.38826
 40
11.523461
 50
323.99167
 51
355.52055
  0
ARC
  8
0
  6
CONTINUOUS
 62
     7
 10
491.75232
 20
-160.38826
 40
1.125
 50
126.8699
 51
233.13009
  0
ARC
  8
0
  6
CONTINUOUS
 62
     7
 10
499.40234
 20
-160.38826
 40
1.125
 50
306.8699
 51
53.130102
  0
ARC
  8
0
  6
CONTINUOUS
 62
     7
 10
508.40234
 20
-160.38826
 40
1.125
 50
306.8699
 51
53.130102
  0
ARC
  8
0
  6
CONTINUOUS
 62
     7
 10
505.03079
 20
-160.38826
 40
11.523461
 50
184.47945
 51
216.00833
  0
ARC
  8
0
  6
CONTINUOUS
 62
     7
 10
505.03079
 20
-160.38826
 40
9.7234612
 50
185.31088
 51
216.00833
  0
ARC
  8
0
  6
CONTINUOUS
 62
     7
 10
495.12387
 20
-160.38826
 40
11.523461
 50
4.4794472
 51
36.008324
  0
ARC
  8
0
  6
CONTINUOUS
 62
     7
 10
633.41937
 20
-161.80928
 40
3.5999999
 50
36.008324
 51
143.99167
  0
ARC
  8
0
  6
CONTINUOUS
 62
     7
 10
633.41937
 20
-161.80928
 40
5.4000001
 50
36.008324
 51
143.99167
  0
ARC
  8
0
  6
CONTINUOUS
 62
     7
 10
633.41937
 20
-169.00928
 40
3.5999999
 50
216.00833
 51
323.99168
  0
ARC
  8
0
  6
CONTINUOUS
 62
     7
 10
633.41937
 20
-169.00928
 40
5.4000001
 50
216.00833
 51
323.99168
  0
ARC
  8
0
  6
CONTINUOUS
 62
     7
 10
638.3728
 20
-165.40927
 40
11.523461
 50
143.99167
 51
175.52055
  0
ARC
  8
0
  6
CONTINUOUS
 62
     7
 10
638.3728
 20
-165.40927
 40
9.7234612
 50
143.99167
 51
174.68912
  0
ARC
  8
0
  6
CONTINUOUS
 62
     7
 10
628.46588
 20
-165.40927
 40
9.7234612
 50
323.99167
 51
36.008324
  0
ARC
  8
0
  6
CONTINUOUS
 62
     7
 10
628.46588
 20
-165.40927
 40
11.523461
 50
323.99167
 51
355.52055
  0
ARC
  8
0
  6
CONTINUOUS
 62
     7
 10
625.09436
 20
-165.40927
 40
1.125
 50
126.8699
 51
233.13009
  0
ARC
  8
0
  6
CONTINUOUS
 62
     7
 10
632.74438
 20
-165.40927
 40
1.125
 50
306.8699
 51
53.130102
  0
ARC
  8
0
  6
CONTINUOUS
 62
     7
 10
641.74438
 20
-165.40927
 40
1.125
 50
306.8699
 51
53.130102
  0
ARC
  8
0
  6
CONTINUOUS
 62
     7
 10
638.3728
 20
-165.40927
 40
11.523461
 50
184.47945
 51
216.00833
  0
ARC
  8
0
  6
CONTINUOUS
 62
     7
 10
638.3728
 20
-165.40927
 40
9.7234612
 50
185.31088
 51
216.00833
  0
ARC
  8
0
  6
CONTINUOUS
 62
     7
 10
628.46588
 20
-165.40927
 40
11.523461
 50
4.4794472
 51
36.008324
  0
ARC
  8
0
  6
CONTINUOUS
 62
     7
 10
783.66821
 20
-163.35757
 40
3.5999999
 50
36.008324
 51
143.99167
  0
ARC
  8
0
  6
CONTINUOUS
 62
     7
 10
783.66821
 20
-163.35757
 40
5.4000001
 50
36.008324
 51
143.99167
  0
ARC
  8
0
  6
CONTINUOUS
 62
     7
 10
783.66821
 20
-170.55757
 40
3.5999999
 50
216.00833
 51
323.99168
  0
ARC
  8
0
  6
CONTINUOUS
 62
     7
 10
783.66821
 20
-170.55757
 40
5.4000001
 50
216.00833
 51
323.99168
  0
ARC
  8
0
  6
CONTINUOUS
 62
     7
 10
788.62164
 20
-166.95757
 40
11.523461
 50
143.99167
 51
175.52055
  0
ARC
  8
0
  6
CONTINUOUS
 62
     7
 10
788.62164
 20
-166.95757
 40
9.7234612
 50
143.99167
 51
174.68912
  0
ARC
  8
0
  6
CONTINUOUS
 62
     7
 10
778.71472
 20
-166.95757
 40
9.7234612
 50
323.99167
 51
36.008324
  0
ARC
  8
0
  6
CONTINUOUS
 62
     7
 10
778.71472
 20
-166.95757
 40
11.523461
 50
323.99167
 51
355.52055
  0
ARC
  8
0
  6
CONTINUOUS
 62
     7
 10
775.3432
 20
-166.95757
 40
1.125
 50
126.8699
 51
233.13009
  0
ARC
  8
0
  6
CONTINUOUS
 62
     7
 10
782.99323
 20
-166.95757
 40
1.125
 50
306.8699
 51
53.130102
  0
ARC
  8
0
  6
CONTINUOUS
 62
     7
 10
791.99323
 20
-166.95757
 40
1.125
 50
306.8699
 51
53.130102
  0
ARC
  8
0
  6
CONTINUOUS
 62
     7
 10
788.62164
 20
-166.95757
 40
11.523461
 50
184.47945
 51
216.00833
  0
ARC
  8
0
  6
CONTINUOUS
 62
     7
 10
788.62164
 20
-166.95757
 40
9.7234612
 50
185.31088
 51
216.00833
  0
ARC
  8
0
  6
CONTINUOUS
 62
     7
 10
778.71472
 20
-166.95757
 40
11.523461
 50
4.4794472
 51
36.008324
  0
ARC
  8
0
  6
CONTINUOUS
 62
     7
 10
-214.36588
 20
-364.46204
 40
3.5999999
 50
36.008324
 51
143.99167
  0
ARC
  8
0
  6
CONTINUOUS
 62
     7
 10
-214.36588
 20
-364.46204
 40
5.4000001
 50
36.008324
 51
143.99167
  0
ARC
  8
0
  6
CONTINUOUS
 62
     7
 10
-214.36588
 20
-371.66205
 40
3.5999999
 50
216.00833
 51
323.99168
  0
ARC
  8
0
  6
CONTINUOUS
 62
     7
 10
-214.36588
 20
-371.66205
 40
5.4000001
 50
216.00833
 51
323.99168
  0
ARC
  8
0
  6
CONTINUOUS
 62
     7
 10
-209.4124
 20
-368.06204
 40
11.523461
 50
143.99167
 51
175.52055
  0
ARC
  8
0
  6
CONTINUOUS
 62
     7
 10
-209.4124
 20
-368.06204
 40
9.7234612
 50
143.99167
 51
174.68912
  0
ARC
  8
0
  6
CONTINUOUS
 62
     7
 10
-219.31934
 20
-368.06204
 40
9.7234612
 50
323.99167
 51
36.008324
  0
ARC
  8
0
  6
CONTINUOUS
 62
     7
 10
-219.31934
 20
-368.06204
 40
11.523461
 50
323.99167
 51
355.52055
  0
ARC
  8
0
  6
CONTINUOUS
 62
     7
 10
-222.69087
 20
-368.06204
 40
1.125
 50
126.8699
 51
233.13009
  0
ARC
  8
0
  6
CONTINUOUS
 62
     7
 10
-215.04086
 20
-368.06204
 40
1.125
 50
306.8699
 51
53.130102
  0
ARC
  8
0
  6
CONTINUOUS
 62
     7
 10
-206.04086
 20
-368.06204
 40
1.125
 50
306.8699
 51
53.130102
  0
ARC
  8
0
  6
CONTINUOUS
 62
     7
 10
-209.4124
 20
-368.06204
 40
11.523461
 50
184.47945
 51
216.00833
  0
ARC
  8
0
  6
CONTINUOUS
 62
     7
 10
-209.4124
 20
-368.06204
 40
9.7234612
 50
185.31088
 51
216.00833
  0
ARC
  8
0
  6
CONTINUOUS
 62
     7
 10
-219.31934
 20
-368.06204
 40
11.523461
 50
4.4794472
 51
36.008324
  0
ARC
  8
0
  6
CONTINUOUS
 62
     7
 10
-43.55574
 20
-364.09238
 40
3.5999999
 50
36.008324
 51
143.99167
  0
ARC
  8
0
  6
CONTINUOUS
 62
     7
 10
-43.55574
 20
-364.09238
 40
5.4000001
 50
36.008324
 51
143.99167
  0
ARC
  8
0
  6
CONTINUOUS
 62
     7
 10
-43.55574
 20
-371.29236
 40
3.5999999
 50
216.00833
 51
323.99168
  0
ARC
  8
0
  6
CONTINUOUS
 62
     7
 10
-43.55574
 20
-371.29236
 40
5.4000001
 50
216.00833
 51
323.99168
  0
ARC
  8
0
  6
CONTINUOUS
 62
     7
 10
-38.602276
 20
-367.69238
 40
11.523461
 50
143.99167
 51
175.52055
  0
ARC
  8
0
  6
CONTINUOUS
 62
     7
 10
-38.602276
 20
-367.69238
 40
9.7234612
 50
143.99167
 51
174.68912
  0
ARC
  8
0
  6
CONTINUOUS
 62
     7
 10
-48.509201
 20
-367.69238
 40
9.7234612
 50
323.99167
 51
36.008324
  0
ARC
  8
0
  6
CONTINUOUS
 62
     7
 10
-48.509201
 20
-367.69238
 40
11.523461
 50
323.99167
 51
355.52055
  0
ARC
  8
0
  6
CONTINUOUS
 62
     7
 10
-51.880737
 20
-367.69238
 40
1.125
 50
126.8699
 51
233.13009
  0
ARC
  8
0
  6
CONTINUOUS
 62
     7
 10
-44.23074
 20
-367.69238
 40
1.125
 50
306.8699
 51
53.130102
  0
ARC
  8
0
  6
CONTINUOUS
 62
     7
 10
-35.23074
 20
-367.69238
 40
1.125
 50
306.8699
 51
53.130102
  0
ARC
  8
0
  6
CONTINUOUS
 62
     7
 10
-38.602276
 20
-367.69238
 40
11.523461
 50
184.47945
 51
216.00833
  0
ARC
  8
0
  6
CONTINUOUS
 62
     7
 10
-38.602276
 20
-367.69238
 40
9.7234612
 50
185.31088
 51
216.00833
  0
ARC
  8
0
  6
CONTINUOUS
 62
     7
 10
-48.509201
 20
-367.69238
 40
11.523461
 50
4.4794472
 51
36.008324
  0
ARC
  8
0
  6
CONTINUOUS
 62
     7
 10
150.66504
 20
-365.0416
 40
3.5999999
 50
36.008324
 51
143.99167
  0
ARC
  8
0
  6
CONTINUOUS
 62
     7
 10
150.66504
 20
-365.0416
 40
5.4000001
 50
36.008324
 51
143.99167
  0
ARC
  8
0
  6
CONTINUOUS
 62
     7
 10
150.66504
 20
-372.24161
 40
3.5999999
 50
216.00833
 51
323.99168
  0
ARC
  8
0
  6
CONTINUOUS
 62
     7
 10
150.66504
 20
-372.24161
 40
5.4000001
 50
216.00833
 51
323.99168
  0
ARC
  8
0
  6
CONTINUOUS
 62
     7
 10
155.6185
 20
-368.6416
 40
11.523461
 50
143.99167
 51
175.52055
  0
ARC
  8
0
  6
CONTINUOUS
 62
     7
 10
155.6185
 20
-368.6416
 40
9.7234612
 50
143.99167
 51
174.68912
  0
ARC
  8
0
  6
CONTINUOUS
 62
     7
 10
145.71158
 20
-368.6416
 40
9.7234612
 50
323.99167
 51
36.008324
  0
ARC
  8
0
  6
CONTINUOUS
 62
     7
 10
145.71158
 20
-368.6416
 40
11.523461
 50
323.99167
 51
355.52055
  0
ARC
  8
0
  6
CONTINUOUS
 62
     7
 10
142.34004
 20
-368.6416
 40
1.125
 50
126.8699
 51
233.13009
  0
ARC
  8
0
  6
CONTINUOUS
 62
     7
 10
149.99004
 20
-368.6416
 40
1.125
 50
306.8699
 51
53.130102
  0
ARC
  8
0
  6
CONTINUOUS
 62
     7
 10
158.99004
 20
-368.6416
 40
1.125
 50
306.8699
 51
53.130102
  0
ARC
  8
0
  6
CONTINUOUS
 62
     7
 10
155.6185
 20
-368.6416
 40
11.523461
 50
184.47945
 51
216.00833
  0
ARC
  8
0
  6
CONTINUOUS
 62
     7
 10
155.6185
 20
-368.6416
 40
9.7234612
 50
185.31088
 51
216.00833
  0
ARC
  8
0
  6
CONTINUOUS
 62
     7
 10
145.71158
 20
-368.6416
 40
11.523461
 50
4.4794472
 51
36.008324
  0
ARC
  8
0
  6
CONTINUOUS
 62
     7
 10
-214.36588
 20
-573.77753
 40
3.5999999
 50
36.008324
 51
143.99167
  0
ARC
  8
0
  6
CONTINUOUS
 62
     7
 10
-214.36588
 20
-573.77753
 40
5.4000001
 50
36.008324
 51
143.99167
  0
ARC
  8
0
  6
CONTINUOUS
 62
     7
 10
-214.36588
 20
-580.97754
 40
3.5999999
 50
216.00833
 51
323.99168
  0
ARC
  8
0
  6
CONTINUOUS
 62
     7
 10
-214.36588
 20
-580.97754
 40
5.4000001
 50
216.00833
 51
323.99168
  0
ARC
  8
0
  6
CONTINUOUS
 62
     7
 10
-209.4124
 20
-577.37756
 40
11.523461
 50
143.99167
 51
175.52055
  0
ARC
  8
0
  6
CONTINUOUS
 62
     7
 10
-209.4124
 20
-577.37756
 40
9.7234612
 50
143.99167
 51
174.68912
  0
ARC
  8
0
  6
CONTINUOUS
 62
     7
 10
-219.31934
 20
-577.37756
 40
9.7234612
 50
323.99167
 51
36.008324
  0
ARC
  8
0
  6
CONTINUOUS
 62
     7
 10
-219.31934
 20
-577.37756
 40
11.523461
 50
323.99167
 51
355.52055
  0
ARC
  8
0
  6
CONTINUOUS
 62
     7
 10
-222.69087
 20
-577.37756
 40
1.125
 50
126.8699
 51
233.13009
  0
ARC
  8
0
  6
CONTINUOUS
 62
     7
 10
-215.04086
 20
-577.37756
 40
1.125
 50
306.8699
 51
53.130102
  0
ARC
  8
0
  6
CONTINUOUS
 62
     7
 10
-206.04086
 20
-577.37756
 40
1.125
 50
306.8699
 51
53.130102
  0
ARC
  8
0
  6
CONTINUOUS
 62
     7
 10
-209.4124
 20
-577.37756
 40
11.523461
 50
184.47945
 51
216.00833
  0
ARC
  8
0
  6
CONTINUOUS
 62
     7
 10
-209.4124
 20
-577.37756
 40
9.7234612
 50
185.31088
 51
216.00833
  0
ARC
  8
0
  6
CONTINUOUS
 62
     7
 10
-219.31934
 20
-577.37756
 40
11.523461
 50
4.4794472
 51
36.008324
  0
ARC
  8
0
  6
CONTINUOUS
 62
     7
 10
28.011805
 20
-575.84119
 40
3.5999999
 50
36.008324
 51
143.99167
  0
ARC
  8
0
  6
CONTINUOUS
 62
     7
 10
28.011805
 20
-575.84119
 40
5.4000001
 50
36.008324
 51
143.99167
  0
ARC
  8
0
  6
CONTINUOUS
 62
     7
 10
28.011805
 20
-583.04114
 40
3.5999999
 50
216.00833
 51
323.99168
  0
ARC
  8
0
  6
CONTINUOUS
 62
     7
 10
28.011805
 20
-583.04114
 40
5.4000001
 50
216.00833
 51
323.99168
  0
ARC
  8
0
  6
CONTINUOUS
 62
     7
 10
32.965267
 20
-579.44116
 40
11.523461
 50
143.99167
 51
175.52055
  0
ARC
  8
0
  6
CONTINUOUS
 62
     7
 10
32.965267
 20
-579.44116
 40
9.7234612
 50
143.99167
 51
174.68912
  0
ARC
  8
0
  6
CONTINUOUS
 62
     7
 10
23.058344
 20
-579.44116
 40
9.7234612
 50
323.99167
 51
36.008324
  0
ARC
  8
0
  6
CONTINUOUS
 62
     7
 10
23.058344
 20
-579.44116
 40
11.523461
 50
323.99167
 51
355.52055
  0
ARC
  8
0
  6
CONTINUOUS
 62
     7
 10
19.686806
 20
-579.44116
 40
1.125
 50
126.8699
 51
233.13009
  0
ARC
  8
0
  6
CONTINUOUS
 62
     7
 10
27.336805
 20
-579.44116
 40
1.125
 50
306.8699
 51
53.130102
  0
ARC
  8
0
  6
CONTINUOUS
 62
     7
 10
36.336803
 20
-579.44116
 40
1.125
 50
306.8699
 51
53.130102
  0
ARC
  8
0
  6
CONTINUOUS
 62
     7
 10
32.965267
 20
-579.44116
 40
11.523461
 50
184.47945
 51
216.00833
  0
ARC
  8
0
  6
CONTINUOUS
 62
     7
 10
32.965267
 20
-579.44116
 40
9.7234612
 50
185.31088
 51
216.00833
  0
ARC
  8
0
  6
CONTINUOUS
 62
     7
 10
23.058344
 20
-579.44116
 40
11.523461
 50
4.4794472
 51
36.008324
  0
ARC
  8
0
  6
CONTINUOUS
 62
     7
 10
405.2243
 20
-379.40158
 40
4.8000002
 50
36.008324
 51
143.99167
  0
ARC
  8
0
  6
CONTINUOUS
 62
     7
 10
405.2243
 20
-379.40158
 40
7.1999998
 50
36.008324
 51
143.99167
  0
ARC
  8
0
  6
CONTINUOUS
 62
     7
 10
405.2243
 20
-389.00159
 40
4.8000002
 50
216.00833
 51
323.99168
  0
ARC
  8
0
  6
CONTINUOUS
 62
     7
 10
405.2243
 20
-389.00159
 40
7.1999998
 50
216.00833
 51
323.99168
  0
ARC
  8
0
  6
CONTINUOUS
 62
     7
 10
411.82892
 20
-384.2016
 40
15.364615
 50
143.99167
 51
175.52055
  0
ARC
  8
0
  6
CONTINUOUS
 62
     7
 10
411.82892
 20
-384.2016
 40
12.964616
 50
143.99167
 51
174.68912
  0
ARC
  8
0
  6
CONTINUOUS
 62
     7
 10
398.61969
 20
-384.2016
 40
15.364615
 50
323.99167
 51
355.52055
  0
ARC
  8
0
  6
CONTINUOUS
 62
     7
 10
394.12433
 20
-384.2016
 40
1.5
 50
126.8699
 51
233.13009
  0
ARC
  8
0
  6
CONTINUOUS
 62
     7
 10
404.32431
 20
-384.2016
 40
1.5
 50
306.8699
 51
53.130102
  0
ARC
  8
0
  6
CONTINUOUS
 62
     7
 10
416.32431
 20
-384.2016
 40
1.5
 50
306.8699
 51
53.130102
  0
ARC
  8
0
  6
CONTINUOUS
 62
     7
 10
398.61969
 20
-384.2016
 40
12.964616
 50
323.99167
 51
36.008324
  0
ARC
  8
0
  6
CONTINUOUS
 62
     7
 10
398.61969
 20
-384.2016
 40
15.364615
 50
4.4794472
 51
36.008324
  0
ARC
  8
0
  6
CONTINUOUS
 62
     7
 10
411.82892
 20
-384.2016
 40
12.964616
 50
185.31088
 51
216.00833
  0
ARC
  8
0
  6
CONTINUOUS
 62
     7
 10
411.82892
 20
-384.2016
 40
15.364615
 50
184.47945
 51
216.00833
  0
ARC
  8
0
  6
CONTINUOUS
 62
     7
 10
725.66968
 20
-387.27774
 40
4.8000002
 50
36.008324
 51
143.99167
  0
ARC
  8
0
  6
CONTINUOUS
 62
     7
 10
725.66968
 20
-387.27774
 40
7.1999998
 50
36.008324
 51
143.99167
  0
ARC
  8
0
  6
CONTINUOUS
 62
     7
 10
725.66968
 20
-396.87775
 40
4.8000002
 50
216.00833
 51
323.99168
  0
ARC
  8
0
  6
CONTINUOUS
 62
     7
 10
725.66968
 20
-396.87775
 40
7.1999998
 50
216.00833
 51
323.99168
  0
ARC
  8
0
  6
CONTINUOUS
 62
     7
 10
732.27429
 20
-392.07776
 40
15.364615
 50
143.99167
 51
175.52055
  0
ARC
  8
0
  6
CONTINUOUS
 62
     7
 10
732.27429
 20
-392.07776
 40
12.964616
 50
143.99167
 51
174.68912
  0
ARC
  8
0
  6
CONTINUOUS
 62
     7
 10
719.06506
 20
-392.07776
 40
15.364615
 50
323.99167
 51
355.52055
  0
ARC
  8
0
  6
CONTINUOUS
 62
     7
 10
714.5697
 20
-392.07776
 40
1.5
 50
126.8699
 51
233.13009
  0
ARC
  8
0
  6
CONTINUOUS
 62
     7
 10
724.76971
 20
-392.07776
 40
1.5
 50
306.8699
 51
53.130102
  0
ARC
  8
0
  6
CONTINUOUS
 62
     7
 10
736.76971
 20
-392.07776
 40
1.5
 50
306.8699
 51
53.130102
  0
ARC
  8
0
  6
CONTINUOUS
 62
     7
 10
719.06506
 20
-392.07776
 40
12.964616
 50
323.99167
 51
36.008324
  0
ARC
  8
0
  6
CONTINUOUS
 62
     7
 10
719.06506
 20
-392.07776
 40
15.364615
 50
4.4794472
 51
36.008324
  0
ARC
  8
0
  6
CONTINUOUS
 62
     7
 10
732.27429
 20
-392.07776
 40
12.964616
 50
185.31088
 51
216.00833
  0
ARC
  8
0
  6
CONTINUOUS
 62
     7
 10
732.27429
 20
-392.07776
 40
15.364615
 50
184.47945
 51
216.00833
  0
ARC
  8
0
  6
CONTINUOUS
 62
     7
 10
503.40121
 20
-575.70209
 40
4.8000002
 50
36.008324
 51
143.99167
  0
ARC
  8
0
  6
CONTINUOUS
 62
     7
 10
503.40121
 20
-575.70209
 40
7.1999998
 50
36.008324
 51
143.99167
  0
ARC
  8
0
  6
CONTINUOUS
 62
     7
 10
503.40121
 20
-585.30212
 40
4.8000002
 50
216.00833
 51
323.99168
  0
ARC
  8
0
  6
CONTINUOUS
 62
     7
 10
503.40121
 20
-585.30212
 40
7.1999998
 50
216.00833
 51
323.99168
  0
ARC
  8
0
  6
CONTINUOUS
 62
     7
 10
510.00583
 20
-580.50208
 40
15.364615
 50
143.99167
 51
175.52055
  0
ARC
  8
0
  6
CONTINUOUS
 62
     7
 10
510.00583
 20
-580.50208
 40
12.964616
 50
143.99167
 51
174.68912
  0
ARC
  8
0
  6
CONTINUOUS
 62
     7
 10
496.7966
 20
-580.50208
 40
15.364615
 50
323.99167
 51
355.52055
  0
ARC
  8
0
  6
CONTINUOUS
 62
     7
 10
492.30121
 20
-580.50208
 40
1.5
 50
126.8699
 51
233.13009
  0
ARC
  8
0
  6
CONTINUOUS
 62
     7
 10
502.50122
 20
-580.50208
 40
1.5
 50
306.8699
 51
53.130102
  0
ARC
  8
0
  6
CONTINUOUS
 62
     7
 10
514.50122
 20
-580.50208
 40
1.5
 50
306.8699
 51
53.130102
  0
ARC
  8
0
  6
CONTINUOUS
 62
     7
 10
496.7966
 20
-580.50208
 40
12.964616
 50
323.99167
 51
36.008324
  0
ARC
  8
0
  6
CONTINUOUS
 62
     7
 10
496.7966
 20
-580.50208
 40
15.364615
 50
4.4794472
 51
36.008324
  0
ARC
  8
0
  6
CONTINUOUS
 62
     7
 10
510.00583
 20
-580.50208
 40
12.964616
 50
185.31088
 51
216.00833
  0
ARC
  8
0
  6
CONTINUOUS
 62
     7
 10
510.00583
 20
-580.50208
 40
15.364615
 50
184.47945
 51
216.00833
  0
TEXT
  8
0
  6
CONTINUOUS
 62
     7
 10
-237.66778
 20
122.50486
 40
3.2
 41
0.84634979
  1
３／４×１／２
  0
TEXT
  8
0
  6
CONTINUOUS
 62
     7
 10
-163.54777
 20
122.32227
 40
3.2
 41
0.84892707
  1
１×１／２
  0
TEXT
  8
0
  6
CONTINUOUS
 62
     7
 10
-87.549639
 20
129.35219
 40
3.2
 41
0.84892707
  1
１×３／４
  0
TEXT
  8
0
  6
CONTINUOUS
 62
     7
 10
-3.1047188
 20
130.36265
 40
3.2
 41
0.8455654
  1
１１／４×１／２
  0
TEXT
  8
0
  6
CONTINUOUS
 62
     7
 10
73.163053
 20
136.14289
 40
3.2
 41
0.8455654
  1
１１／４×３／４
  0
TEXT
  8
0
  6
CONTINUOUS
 62
     7
 10
177.27147
 20
135.82447
 40
3.2
 41
0.84741102
  1
１１／４×１
  0
TEXT
  8
0
  6
CONTINUOUS
 62
     7
 10
-239.84211
 20
22.044682
 40
3.2
 41
0.8455654
  1
１１／２×１／２
  0
TEXT
  8
0
  6
CONTINUOUS
 62
     7
 10
-137.2962
 20
24.671101
 40
3.2
 41
0.8455654
  1
１１／２×３／４
  0
TEXT
  8
0
  6
CONTINUOUS
 62
     7
 10
-29.764315
 20
27.954832
 40
3.2
 41
0.84741102
  1
１１／２×１
  0
TEXT
  8
0
  6
CONTINUOUS
 62
     7
 10
65.262937
 20
32.910384
 40
3.2
 41
0.84496202
  1
１１／２×１１／４
  0
TEXT
  8
0
  6
CONTINUOUS
 62
     7
 10
188.65374
 20
24.588351
 40
3.2
 41
0.84892707
  1
２×１／２
  0
TEXT
  8
0
  6
CONTINUOUS
 62
     7
 10
-231.32212
 20
-96.132425
 40
3.2
 41
0.84892707
  1
２×３／４
  0
TEXT
  8
0
  6
CONTINUOUS
 62
     7
 10
-110.81301
 20
-92.112634
 40
3.2
 41
0.85537027
  1
２×１
  0
TEXT
  8
0
  6
CONTINUOUS
 62
     7
 10
12.336696
 20
-84.765886
 40
3.2
 41
0.84741102
  1
２×１１／４
  0
TEXT
  8
0
  6
CONTINUOUS
 62
     7
 10
154.00203
 20
-81.144594
 40
3.2
 41
0.84741102
  1
２×１１／２
  0
TEXT
  8
0
  6
CONTINUOUS
 62
     7
 10
-93.074359
 20
180.49368
 40
5
 41
0.84189812
  1
バンド付き径違いエルボ　３／４×１／２～２×１１／２
  0
TEXT
  8
0
  6
CONTINUOUS
 62
     7
 10
506.92564
 20
180.49368
 40
5
 41
0.84203012
  1
バンド付き径違いエルボ　２１／２×１／２～３×２
  0
TEXT
  8
0
  6
CONTINUOUS
 62
     7
 10
-93.074359
 20
-249.50632
 40
5
 41
0.84218649
  1
バンド付き径違いエルボ　３×２１／２～４×３
  0
TEXT
  8
0
  6
CONTINUOUS
 62
     7
 10
506.92564
 20
-249.50632
 40
5
 41
0.84248387
  1
バンド付き径違いエルボ　５×３～６×５
  0
TEXT
  8
0
  6
CONTINUOUS
 62
     7
 10
398.598
 20
143.93728
 40
3.2
 41
0.8455654
  1
２１／２×１／２
  0
TEXT
  8
0
  6
CONTINUOUS
 62
     7
 10
549.1565
 20
143.62762
 40
3.2
 41
0.8455654
  1
２１／２×３／４
  0
TEXT
  8
0
  6
CONTINUOUS
 62
     7
 10
681.52918
 20
148.79694
 40
3.2
 41
0.84741102
  1
２１／２×１
  0
TEXT
  8
0
  6
CONTINUOUS
 62
     7
 10
812.63715
 20
154.70659
 40
3.2
 41
0.84496202
  1
２１／２×１１／４
  0
TEXT
  8
0
  6
CONTINUOUS
 62
     7
 10
382.45878
 20
51.207182
 40
3.2
 41
0.84496202
  1
２１／２×１１／２
  0
TEXT
  8
0
  6
CONTINUOUS
 62
     7
 10
531.1059
 20
52.486159
 40
3.2
 41
0.84741102
  1
２１／２×２
  0
TEXT
  8
0
  6
CONTINUOUS
 62
     7
 10
671.08375
 20
18.900364
 40
3.2
 41
0.84892707
  1
３×１／２
  0
TEXT
  8
0
  6
CONTINUOUS
 62
     7
 10
806.56611
 20
22.010023
 40
3.2
 41
0.84892707
  1
３×３／４
  0
TEXT
  8
0
  6
CONTINUOUS
 62
     7
 10
368.44571
 20
-99.176889
 40
3.2
 41
0.85537027
  1
３×１
  0
TEXT
  8
0
  6
CONTINUOUS
 62
     7
 10
508.38434
 20
-100.38825
 40
3.2
 41
0.84741102
  1
３×１１／４
  0
TEXT
  8
0
  6
CONTINUOUS
 62
     7
 10
643.82636
 20
-96.309274
 40
3.2
 41
0.84741102
  1
３×１１／２
  0
TEXT
  8
0
  6
CONTINUOUS
 62
     7
 10
791.97523
 20
-86.657571
 40
3.2
 41
0.85537027
  1
３×２
  0
TEXT
  8
0
  6
CONTINUOUS
 62
     7
 10
-210.25888
 20
-268.86205
 40
3.2
 41
0.84741102
  1
３×２１／２
  0
TEXT
  8
0
  6
CONTINUOUS
 62
     7
 10
-38.74874
 20
-294.04238
 40
3.2
 41
0.84741102
  1
４×１１／２
  0
TEXT
  8
0
  6
CONTINUOUS
 62
     7
 10
163.17203
 20
-283.09161
 40
3.2
 41
0.85537027
  1
４×２
  0
TEXT
  8
0
  6
CONTINUOUS
 62
     7
 10
-198.70887
 20
-475.02755
 40
3.2
 41
0.84741102
  1
４×２１／２
  0
TEXT
  8
0
  6
CONTINUOUS
 62
     7
 10
47.168806
 20
-465.19116
 40
3.2
 41
0.85537027
  1
４×３
  0
TEXT
  8
0
  6
CONTINUOUS
 62
     7
 10
424.73133
 20
-271.35159
 40
3.2
 41
0.85537027
  1
５×３
  0
TEXT
  8
0
  6
CONTINUOUS
 62
     7
 10
744.47669
 20
-250.52775
 40
3.2
 41
0.85537027
  1
５×４
  0
TEXT
  8
0
  6
CONTINUOUS
 62
     7
 10
528.50825
 20
-413.7521
 40
3.2
 41
0.85537027
  1
６×５
  0
ENDSEC
  0
EOF
