  0
SECTION
  2
HEADER
  9
$EXTMAX
 10
297.25922
 20
211.66544
  9
$EXTMIN
 10
-297.25922
 20
-210.82214
  0
ENDSEC
  0
SECTION
  2
TABLES
  0
TABLE
  2
LTYPE
 70
    22
  0
LTYPE
  2
CONTINUOUS
 70
    64
  3
Solid line
 72
    65
 73
     0
 40
0.000000
  0
LTYPE
  2
DASHED
 70
    64
  3
__ __ __ __ __ __ __ __ __ __ __ __ __ __ __
 72
    65
 73
     2
 40
3.500000
 49
2.000000
 49
-1.500000
  0
LTYPE
  2
CENTER
 70
    64
  3
____ _ ____ _ ____ _ ____ _ ____ _ ____ _ ____
 72
    65
 73
     4
 40
17.500000
 49
13.000000
 49
-1.500000
 49
1.500000
 49
-1.500000
  0
LTYPE
  2
PHANTOM
 70
    64
  3
_____ _ _ _____ _ _ _____ _ _ _____ _ _ ____  
 72
    65
 73
     6
 40
15.500000
 49
8.000000
 49
-1.500000
 49
1.500000
 49
-1.500000
 49
1.500000
 49
-1.500000
  0
LTYPE
  2
DOT
 70
    64
  3
. . . . . . . . . . . . . . . . . . . . . . . .
 72
    65
 73
     2
 40
0.25
 49
0.0
 49
-0.25
  0
ENDTAB
  0
TABLE
  2
LAYER
 70
     1
  0
LAYER
  2
0
 70
     0
 62
     7
  6
CONTINUOUS
  0
ENDTAB
  0
TABLE
  2
STYLE
 70
     1
  0
STYLE
  2
STANDARD
 70
     0
 40
0.000000
 41
1.000000
 50
0.000000
 71
     0
 42
0.200000
  3
txt
  4
BIGFONT
  0
ENDTAB
  0
TABLE
  2
VIEW
 70
     0
  0
ENDTAB
  0
ENDSEC
  0
SECTION
  2
BLOCKS
  0
ENDSEC
  0
SECTION
  2
ENTITIES
  0
POINT
  8
0
  6
CONTINUOUS
 62
     7
 10
-128.27119
 20
142.92375
  0
POINT
  8
0
  6
CONTINUOUS
 62
     7
 10
-36.771179
 20
142.92375
  0
POINT
  8
0
  6
CONTINUOUS
 62
     7
 10
56.728821
 20
142.92375
  0
POINT
  8
0
  6
CONTINUOUS
 62
     7
 10
156.72882
 20
142.92375
  0
POINT
  8
0
  6
CONTINUOUS
 62
     7
 10
101.13437
 20
49.17271
  0
POINT
  8
0
  6
CONTINUOUS
 62
     7
 10
-28.865635
 20
49.17271
  0
POINT
  8
0
  6
CONTINUOUS
 62
     7
 10
-148.86563
 20
49.17271
  0
POINT
  8
0
  6
CONTINUOUS
 62
     7
 10
-208.41301
 20
-87.251427
  0
POINT
  8
0
  6
CONTINUOUS
 62
     7
 10
-38.413006
 20
-87.251427
  0
POINT
  8
0
  6
CONTINUOUS
 62
     7
 10
151.58699
 20
-87.251427
  0
POINT
  8
0
  6
CONTINUOUS
 62
     7
 10
897.44092
 20
2.4926636
  0
POINT
  8
0
  6
CONTINUOUS
 62
     7
 10
637.44092
 20
2.4926636
  0
LINE
  8
0
  6
CONTINUOUS
 62
     7
 10
1071
 20
200
 11
1071
 21
-200
  0
LINE
  8
0
  6
CONTINUOUS
 62
     7
 10
497
 20
200
 11
1071
 21
200
  0
LINE
  8
0
  6
CONTINUOUS
 62
     7
 10
497
 20
200
 11
497
 21
-200
  0
LINE
  8
0
  6
CONTINUOUS
 62
     7
 10
497
 20
-200
 11
1071
 21
-200
  0
LINE
  8
0
  6
CENTER
 62
     7
 10
-53.352798
 20
142.92375
 11
-5.5711823
 21
142.92375
  0
LINE
  8
0
  6
CENTER
 62
     7
 10
-36.771179
 20
158.77309
 11
-36.771179
 21
111.72375
  0
LINE
  8
0
  6
CONTINUOUS
 62
     7
 10
-23.271179
 20
156.42375
 11
-18.369255
 21
156.42375
  0
LINE
  8
0
  6
CONTINUOUS
 62
     7
 10
-50.271179
 20
129.42375
 11
-50.271179
 21
124.52183
  0
LINE
  8
0
  6
CONTINUOUS
 62
     7
 10
-23.271179
 20
126.42375
 11
-23.271179
 21
124.52183
  0
LINE
  8
0
  6
CONTINUOUS
 62
     7
 10
-20.271179
 20
129.42375
 11
-18.369255
 21
129.42375
  0
LINE
  8
0
  6
CONTINUOUS
 62
     7
 10
-9.7711792
 20
127.92375
 11
-9.7711792
 21
157.92375
  0
LINE
  8
0
  6
CONTINUOUS
 62
     7
 10
-51.771179
 20
115.92375
 11
-21.771179
 21
115.92375
  0
LINE
  8
0
  6
CENTER
 62
     7
 10
-254.30031
 20
-87.251427
 11
-132.41301
 21
-87.251427
  0
LINE
  8
0
  6
CENTER
 62
     7
 10
-208.41301
 20
-42.317436
 11
-208.41301
 21
-163.25143
  0
LINE
  8
0
  6
CONTINUOUS
 62
     7
 10
-151.41301
 20
-41.751431
 11
-139.41301
 21
-41.751431
  0
LINE
  8
0
  6
CONTINUOUS
 62
     7
 10
-151.41301
 20
-132.75143
 11
-139.41301
 21
-132.75143
  0
LINE
  8
0
  6
CONTINUOUS
 62
     7
 10
-165.41301
 20
-44.251431
 11
-156.28641
 21
-44.251431
  0
LINE
  8
0
  6
CONTINUOUS
 62
     7
 10
-157.91301
 20
-130.25143
 11
-156.28641
 21
-130.25143
  0
LINE
  8
0
  6
CONTINUOUS
 62
     7
 10
-162.91301
 20
-144.25143
 11
-162.91301
 21
-156.25143
  0
LINE
  8
0
  6
CONTINUOUS
 62
     7
 10
-253.91301
 20
-144.25143
 11
-253.91301
 21
-156.25143
  0
LINE
  8
0
  6
CONTINUOUS
 62
     7
 10
-165.41301
 20
-137.75143
 11
-165.41301
 21
-139.37804
  0
LINE
  8
0
  6
CONTINUOUS
 62
     7
 10
-251.41301
 20
-130.25143
 11
-251.41301
 21
-139.37804
  0
LINE
  8
0
  6
CONTINUOUS
 62
     7
 10
-253.91306
 20
-156.25143
 11
-162.91301
 21
-156.25143
  0
LINE
  8
0
  6
CONTINUOUS
 62
     7
 10
-253.91301
 20
-144.25143
 11
-162.91301
 21
-144.25143
  0
LINE
  8
0
  6
CONTINUOUS
 62
     7
 10
-139.41301
 20
-132.75143
 11
-139.41301
 21
-41.751431
  0
LINE
  8
0
  6
CONTINUOUS
 62
     7
 10
-151.41301
 20
-132.75143
 11
-151.41301
 21
-41.751431
  0
LINE
  8
0
  6
CONTINUOUS
 62
     7
 10
26.586979
 20
-34.751431
 11
39.586979
 21
-34.751431
  0
LINE
  8
0
  6
CONTINUOUS
 62
     7
 10
26.586979
 20
-139.75143
 11
39.586979
 21
-139.75143
  0
LINE
  8
0
  6
CONTINUOUS
 62
     7
 10
11.086979
 20
-37.751431
 11
19.445545
 21
-37.751431
  0
LINE
  8
0
  6
CONTINUOUS
 62
     7
 10
19.086979
 20
-136.75143
 11
19.445545
 21
-136.75143
  0
LINE
  8
0
  6
CONTINUOUS
 62
     7
 10
14.086979
 20
-152.25143
 11
14.086979
 21
-165.25143
  0
LINE
  8
0
  6
CONTINUOUS
 62
     7
 10
-90.91301
 20
-152.25143
 11
-90.91301
 21
-165.25143
  0
LINE
  8
0
  6
CONTINUOUS
 62
     7
 10
11.086979
 20
-144.75143
 11
11.086979
 21
-145.10999
  0
LINE
  8
0
  6
CONTINUOUS
 62
     7
 10
-87.91301
 20
-136.75143
 11
-87.91301
 21
-145.11
  0
LINE
  8
0
  6
CENTER
 62
     7
 10
-38.413006
 20
-31.46777
 11
-38.413006
 21
-172.65143
  0
LINE
  8
0
  6
CENTER
 62
     7
 10
-95.52916
 20
-87.251427
 11
46.986973
 21
-87.251427
  0
LINE
  8
0
  6
CONTINUOUS
 62
     7
 10
-90.91301
 20
-165.2514
 11
14.086979
 21
-165.2514
  0
LINE
  8
0
  6
CONTINUOUS
 62
     7
 10
-90.91301
 20
-152.25142
 11
14.086979
 21
-152.25142
  0
LINE
  8
0
  6
CONTINUOUS
 62
     7
 10
39.586964
 20
-139.75143
 11
39.586964
 21
-34.751431
  0
LINE
  8
0
  6
CONTINUOUS
 62
     7
 10
26.586964
 20
-139.75143
 11
26.586964
 21
-34.751431
  0
LINE
  8
0
  6
CONTINUOUS
 62
     7
 10
-287
 20
-200
 11
287
 21
-200
  0
LINE
  8
0
  6
CONTINUOUS
 62
     7
 10
-287
 20
200
 11
-287
 21
-200
  0
LINE
  8
0
  6
CONTINUOUS
 62
     7
 10
-287
 20
200
 11
287
 21
200
  0
LINE
  8
0
  6
CONTINUOUS
 62
     7
 10
287
 20
200
 11
287
 21
-200
  0
LINE
  8
0
  6
CENTER
 62
     7
 10
79.909096
 20
-87.251427
 11
254.78697
 21
-87.251427
  0
LINE
  8
0
  6
CONTINUOUS
 62
     7
 10
232.58699
 20
-20.751431
 11
248.58699
 21
-20.751431
  0
LINE
  8
0
  6
CONTINUOUS
 62
     7
 10
232.58699
 20
-153.75143
 11
248.58699
 21
-153.75143
  0
LINE
  8
0
  6
CONTINUOUS
 62
     7
 10
215.08699
 20
-23.751431
 11
225.44556
 21
-23.751431
  0
LINE
  8
0
  6
CONTINUOUS
 62
     7
 10
218.08699
 20
-168.25143
 11
218.08699
 21
-184.25143
  0
LINE
  8
0
  6
CONTINUOUS
 62
     7
 10
85.08699
 20
-168.25143
 11
85.08699
 21
-184.25143
  0
LINE
  8
0
  6
CONTINUOUS
 62
     7
 10
88.08699
 20
-150.75143
 11
88.08699
 21
-161.11
  0
LINE
  8
0
  6
CONTINUOUS
 62
     7
 10
225.08699
 20
-150.75143
 11
225.44556
 21
-150.75143
  0
LINE
  8
0
  6
CONTINUOUS
 62
     7
 10
215.08699
 20
-160.75143
 11
215.08699
 21
-161.11
  0
LINE
  8
0
  6
CENTER
 62
     7
 10
151.58699
 20
-20.156469
 11
151.58699
 21
-192.45143
  0
LINE
  8
0
  6
CONTINUOUS
 62
     7
 10
85.08699
 20
-184.25143
 11
218.08699
 21
-184.25143
  0
LINE
  8
0
  6
CONTINUOUS
 62
     7
 10
85.08699
 20
-168.25143
 11
218.08699
 21
-168.25143
  0
LINE
  8
0
  6
CONTINUOUS
 62
     7
 10
232.58699
 20
-153.75143
 11
232.58699
 21
-20.751431
  0
LINE
  8
0
  6
CONTINUOUS
 62
     7
 10
248.58698
 20
-153.75143
 11
248.58698
 21
-20.751431
  0
LINE
  8
0
  6
CENTER
 62
     7
 10
897.44092
 20
101.45564
 11
897.44092
 21
-137.70734
  0
LINE
  8
0
  6
CENTER
 62
     7
 10
792.41534
 20
2.4926636
 11
1037.641
 21
2.4926636
  0
LINE
  8
0
  6
CONTINUOUS
 62
     7
 10
1009.4409
 20
96.992661
 11
1029.4409
 21
96.992661
  0
LINE
  8
0
  6
CONTINUOUS
 62
     7
 10
1009.4409
 20
-92.007339
 11
1029.4409
 21
-92.007339
  0
LINE
  8
0
  6
CONTINUOUS
 62
     7
 10
988.44092
 20
93.492661
 11
1001.8416
 21
93.492661
  0
LINE
  8
0
  6
CONTINUOUS
 62
     7
 10
991.94092
 20
-109.50732
 11
991.94092
 21
-129.50734
  0
LINE
  8
0
  6
CONTINUOUS
 62
     7
 10
802.94092
 20
-109.50734
 11
802.94092
 21
-129.50734
  0
LINE
  8
0
  6
CONTINUOUS
 62
     7
 10
806.44092
 20
-88.507339
 11
806.44092
 21
-101.908
  0
LINE
  8
0
  6
CONTINUOUS
 62
     7
 10
988.44092
 20
-100.50734
 11
988.44092
 21
-101.90799
  0
LINE
  8
0
  6
CONTINUOUS
 62
     7
 10
1000.4409
 20
-88.507339
 11
1001.8416
 21
-88.507339
  0
LINE
  8
0
  6
CONTINUOUS
 62
     7
 10
802.94073
 20
-129.50731
 11
991.94092
 21
-129.50731
  0
LINE
  8
0
  6
CONTINUOUS
 62
     7
 10
802.94092
 20
-109.50734
 11
991.94092
 21
-109.50734
  0
LINE
  8
0
  6
CONTINUOUS
 62
     7
 10
1029.4409
 20
-92.007339
 11
1029.4409
 21
96.992661
  0
LINE
  8
0
  6
CONTINUOUS
 62
     7
 10
1009.4409
 20
-92.007339
 11
1009.4409
 21
96.992661
  0
LINE
  8
0
  6
CENTER
 62
     7
 10
637.44092
 20
85.774696
 11
637.44092
 21
-118.70734
  0
LINE
  8
0
  6
CENTER
 62
     7
 10
549.56342
 20
2.4926636
 11
758.64093
 21
2.4926636
  0
LINE
  8
0
  6
CONTINUOUS
 62
     7
 10
732.44092
 20
82.992661
 11
750.44092
 21
82.992661
  0
LINE
  8
0
  6
CONTINUOUS
 62
     7
 10
732.44092
 20
-78.007347
 11
750.44092
 21
-78.007347
  0
LINE
  8
0
  6
CONTINUOUS
 62
     7
 10
714.44092
 20
79.492661
 11
724.84161
 21
79.492661
  0
LINE
  8
0
  6
CONTINUOUS
 62
     7
 10
717.94092
 20
-92.507332
 11
717.94092
 21
-110.50733
  0
LINE
  8
0
  6
CONTINUOUS
 62
     7
 10
556.94092
 20
-92.507347
 11
556.94092
 21
-110.50735
  0
LINE
  8
0
  6
CONTINUOUS
 62
     7
 10
560.44092
 20
-74.507339
 11
560.44092
 21
-84.908005
  0
LINE
  8
0
  6
CONTINUOUS
 62
     7
 10
724.44092
 20
-74.507347
 11
724.84161
 21
-74.507347
  0
LINE
  8
0
  6
CONTINUOUS
 62
     7
 10
714.44092
 20
-84.507347
 11
714.44092
 21
-84.90799
  0
LINE
  8
0
  6
CONTINUOUS
 62
     7
 10
556.94092
 20
-92.507355
 11
717.94092
 21
-92.507355
  0
LINE
  8
0
  6
CONTINUOUS
 62
     7
 10
556.94092
 20
-110.50735
 11
717.94092
 21
-110.50735
  0
LINE
  8
0
  6
CONTINUOUS
 62
     7
 10
732.44098
 20
-78.007347
 11
732.44098
 21
82.992661
  0
LINE
  8
0
  6
CONTINUOUS
 62
     7
 10
750.44092
 20
-78.007347
 11
750.44092
 21
82.992661
  0
LINE
  8
0
  6
CONTINUOUS
 62
     7
 10
-15.771179
 20
127.92375
 11
-15.771179
 21
157.92375
  0
LINE
  8
0
  6
CONTINUOUS
 62
     7
 10
-51.771179
 20
121.92375
 11
-21.771179
 21
121.92375
  0
LINE
  8
0
  6
CONTINUOUS
 62
     7
 10
-21.771179
 20
121.92375
 11
-21.771179
 21
115.92375
  0
LINE
  8
0
  6
CONTINUOUS
 62
     7
 10
-51.771179
 20
121.92375
 11
-51.771179
 21
115.92375
  0
LINE
  8
0
  6
CONTINUOUS
 62
     7
 10
-15.771179
 20
127.92375
 11
-9.7711792
 21
127.92375
  0
LINE
  8
0
  6
CONTINUOUS
 62
     7
 10
-15.771179
 20
157.92375
 11
-9.7711792
 21
157.92375
  0
LINE
  8
0
  6
CENTER
 62
     7
 10
36.653732
 20
142.92375
 11
92.928818
 21
142.92375
  0
LINE
  8
0
  6
CENTER
 62
     7
 10
56.728821
 20
162.90662
 11
56.728821
 21
106.72375
  0
LINE
  8
0
  6
CONTINUOUS
 62
     7
 10
73.228821
 20
159.42375
 11
80.130745
 21
159.42375
  0
LINE
  8
0
  6
CONTINUOUS
 62
     7
 10
40.228821
 20
126.42375
 11
40.228821
 21
119.52184
  0
LINE
  8
0
  6
CONTINUOUS
 62
     7
 10
73.228821
 20
122.42375
 11
73.228821
 21
119.52184
  0
LINE
  8
0
  6
CONTINUOUS
 62
     7
 10
77.228821
 20
126.42375
 11
80.130745
 21
126.42375
  0
LINE
  8
0
  6
CONTINUOUS
 62
     7
 10
38.728821
 20
110.92375
 11
74.728821
 21
110.92375
  0
LINE
  8
0
  6
CONTINUOUS
 62
     7
 10
88.728821
 20
124.92375
 11
88.728821
 21
160.92375
  0
LINE
  8
0
  6
CONTINUOUS
 62
     7
 10
82.728821
 20
160.92375
 11
88.728821
 21
160.92375
  0
LINE
  8
0
  6
CONTINUOUS
 62
     7
 10
82.728821
 20
124.92375
 11
88.728821
 21
124.92375
  0
LINE
  8
0
  6
CONTINUOUS
 62
     7
 10
74.728821
 20
116.92375
 11
74.728821
 21
110.92375
  0
LINE
  8
0
  6
CONTINUOUS
 62
     7
 10
38.728821
 20
116.92375
 11
38.728821
 21
110.92375
  0
LINE
  8
0
  6
CONTINUOUS
 62
     7
 10
38.728821
 20
116.92375
 11
74.728821
 21
116.92375
  0
LINE
  8
0
  6
CONTINUOUS
 62
     7
 10
82.728821
 20
124.92375
 11
82.728821
 21
160.92375
  0
LINE
  8
0
  6
CENTER
 62
     7
 10
133.97447
 20
142.92375
 11
199.72882
 21
142.92375
  0
LINE
  8
0
  6
CENTER
 62
     7
 10
156.72882
 20
165.36684
 11
156.72882
 21
99.923752
  0
LINE
  8
0
  6
CONTINUOUS
 62
     7
 10
177.22882
 20
163.42375
 11
185.13074
 21
163.42375
  0
LINE
  8
0
  6
CONTINUOUS
 62
     7
 10
136.22882
 20
122.42375
 11
136.22882
 21
114.52183
  0
LINE
  8
0
  6
CONTINUOUS
 62
     7
 10
177.22882
 20
118.42375
 11
177.22882
 21
114.52183
  0
LINE
  8
0
  6
CONTINUOUS
 62
     7
 10
181.22882
 20
122.42375
 11
185.13074
 21
122.42375
  0
LINE
  8
0
  6
CONTINUOUS
 62
     7
 10
194.72882
 20
120.92375
 11
194.72882
 21
164.92375
  0
LINE
  8
0
  6
CONTINUOUS
 62
     7
 10
134.72882
 20
104.92375
 11
178.72882
 21
104.92375
  0
LINE
  8
0
  6
CONTINUOUS
 62
     7
 10
134.72882
 20
111.92375
 11
178.72882
 21
111.92375
  0
LINE
  8
0
  6
CONTINUOUS
 62
     7
 10
187.72882
 20
120.92375
 11
187.72882
 21
164.92375
  0
LINE
  8
0
  6
CONTINUOUS
 62
     7
 10
187.72882
 20
164.92375
 11
194.72882
 21
164.92375
  0
LINE
  8
0
  6
CONTINUOUS
 62
     7
 10
187.72882
 20
120.92375
 11
194.72882
 21
120.92375
  0
LINE
  8
0
  6
CONTINUOUS
 62
     7
 10
178.72882
 20
111.92375
 11
178.72882
 21
104.92375
  0
LINE
  8
0
  6
CONTINUOUS
 62
     7
 10
134.72882
 20
111.92375
 11
134.72882
 21
104.92375
  0
LINE
  8
0
  6
CENTER
 62
     7
 10
-179.33475
 20
49.17271
 11
-97.865631
 21
49.17271
  0
LINE
  8
0
  6
CENTER
 62
     7
 10
-148.86563
 20
76.904297
 11
-148.86563
 21
-1.8272896
  0
LINE
  8
0
  6
CONTINUOUS
 62
     7
 10
-123.86563
 20
74.172714
 11
-113.46371
 21
74.172714
  0
LINE
  8
0
  6
CONTINUOUS
 62
     7
 10
-173.86563
 20
24.17271
 11
-173.86563
 21
13.770786
  0
LINE
  8
0
  6
CONTINUOUS
 62
     7
 10
-123.86563
 20
19.17271
 11
-123.86563
 21
13.770786
  0
LINE
  8
0
  6
CONTINUOUS
 62
     7
 10
-118.86563
 20
24.17271
 11
-113.46371
 21
24.17271
  0
LINE
  8
0
  6
CONTINUOUS
 62
     7
 10
-175.36563
 20
3.1727104
 11
-122.36563
 21
3.1727104
  0
LINE
  8
0
  6
CONTINUOUS
 62
     7
 10
-102.86563
 20
22.67271
 11
-102.86563
 21
75.672714
  0
LINE
  8
0
  6
CONTINUOUS
 62
     7
 10
-175.36563
 20
11.17271
 11
-122.36563
 21
11.17271
  0
LINE
  8
0
  6
CONTINUOUS
 62
     7
 10
-110.86563
 20
22.67271
 11
-110.86563
 21
75.672714
  0
LINE
  8
0
  6
CONTINUOUS
 62
     7
 10
-110.86563
 20
22.67271
 11
-102.86563
 21
22.67271
  0
LINE
  8
0
  6
CONTINUOUS
 62
     7
 10
-110.86563
 20
75.672714
 11
-102.86563
 21
75.672714
  0
LINE
  8
0
  6
CONTINUOUS
 62
     7
 10
-175.36563
 20
11.17271
 11
-175.36563
 21
3.1727104
  0
LINE
  8
0
  6
CONTINUOUS
 62
     7
 10
-122.36563
 20
11.17271
 11
-122.36563
 21
3.1727104
  0
LINE
  8
0
  6
CENTER
 62
     7
 10
-64.409187
 20
49.17271
 11
24.134365
 21
49.17271
  0
LINE
  8
0
  6
CENTER
 62
     7
 10
-28.865635
 20
80.291931
 11
-28.865635
 21
-3.8272896
  0
LINE
  8
0
  6
CONTINUOUS
 62
     7
 10
-0.86563492
 20
77.172714
 11
6.6702633
 21
77.172714
  0
LINE
  8
0
  6
CONTINUOUS
 62
     7
 10
-56.865635
 20
21.17271
 11
-56.865635
 21
13.636824
  0
LINE
  8
0
  6
CONTINUOUS
 62
     7
 10
-0.86563492
 20
15.17271
 11
-0.86563492
 21
13.636824
  0
LINE
  8
0
  6
CONTINUOUS
 62
     7
 10
5.1343651
 20
21.17271
 11
6.6702633
 21
21.17271
  0
LINE
  8
0
  6
CONTINUOUS
 62
     7
 10
19.134365
 20
19.17271
 11
19.134365
 21
79.172714
  0
LINE
  8
0
  6
CONTINUOUS
 62
     7
 10
-58.865635
 20
1.1727219
 11
1.1343651
 21
1.1727219
  0
LINE
  8
0
  6
CONTINUOUS
 62
     7
 10
-58.865635
 20
10.172722
 11
1.1343651
 21
10.172722
  0
LINE
  8
0
  6
CONTINUOUS
 62
     7
 10
10.134365
 20
19.17271
 11
10.134365
 21
79.172714
  0
LINE
  8
0
  6
CONTINUOUS
 62
     7
 10
10.134365
 20
79.172714
 11
19.134365
 21
79.172714
  0
LINE
  8
0
  6
CONTINUOUS
 62
     7
 10
10.134365
 20
19.17271
 11
19.134365
 21
19.17271
  0
LINE
  8
0
  6
CONTINUOUS
 62
     7
 10
1.1343651
 20
10.172722
 11
1.1343651
 21
1.1727219
  0
LINE
  8
0
  6
CONTINUOUS
 62
     7
 10
-58.865635
 20
10.172722
 11
-58.865635
 21
1.1727219
  0
LINE
  8
0
  6
CENTER
 62
     7
 10
57.172066
 20
49.17271
 11
163.13437
 21
49.17271
  0
LINE
  8
0
  6
CENTER
 62
     7
 10
101.13437
 20
90.506699
 11
101.13437
 21
-12.82729
  0
LINE
  8
0
  6
CONTINUOUS
 62
     7
 10
135.63437
 20
83.672714
 11
143.67027
 21
83.672714
  0
LINE
  8
0
  6
CONTINUOUS
 62
     7
 10
66.634369
 20
14.67271
 11
66.634369
 21
6.6368084
  0
LINE
  8
0
  6
CONTINUOUS
 62
     7
 10
135.63437
 20
7.6727104
 11
135.63437
 21
6.6368084
  0
LINE
  8
0
  6
CONTINUOUS
 62
     7
 10
142.63437
 20
14.67271
 11
143.67027
 21
14.67271
  0
LINE
  8
0
  6
CONTINUOUS
 62
     7
 10
64.634369
 20
-7.8272934
 11
137.63437
 21
-7.8272934
  0
LINE
  8
0
  6
CONTINUOUS
 62
     7
 10
158.13437
 20
12.67271
 11
158.13437
 21
85.672714
  0
LINE
  8
0
  6
CONTINUOUS
 62
     7
 10
64.634369
 20
3.1727066
 11
137.63437
 21
3.1727066
  0
LINE
  8
0
  6
CONTINUOUS
 62
     7
 10
147.13437
 20
12.67271
 11
147.13437
 21
85.672714
  0
LINE
  8
0
  6
CONTINUOUS
 62
     7
 10
137.63437
 20
3.1727066
 11
137.63437
 21
-7.8272934
  0
LINE
  8
0
  6
CONTINUOUS
 62
     7
 10
64.634369
 20
3.1727066
 11
64.634369
 21
-7.8272934
  0
LINE
  8
0
  6
CONTINUOUS
 62
     7
 10
147.13437
 20
12.67271
 11
158.13437
 21
12.67271
  0
LINE
  8
0
  6
CONTINUOUS
 62
     7
 10
147.13437
 20
85.672714
 11
158.13437
 21
85.672714
  0
LINE
  8
0
  6
CENTER
 62
     7
 10
-141.86375
 20
142.92375
 11
-101.27119
 21
142.92375
  0
LINE
  8
0
  6
CENTER
 62
     7
 10
-128.27119
 20
156.89091
 11
-128.27119
 21
115.92375
  0
LINE
  8
0
  6
CONTINUOUS
 62
     7
 10
-116.77119
 20
154.42375
 11
-112.86926
 21
154.42375
  0
LINE
  8
0
  6
CONTINUOUS
 62
     7
 10
-139.77119
 20
131.42375
 11
-139.77119
 21
127.52181
  0
LINE
  8
0
  6
CONTINUOUS
 62
     7
 10
-113.77119
 20
131.42375
 11
-112.86926
 21
131.42375
  0
LINE
  8
0
  6
CONTINUOUS
 62
     7
 10
-116.77119
 20
128.42375
 11
-116.77119
 21
127.52181
  0
LINE
  8
0
  6
CONTINUOUS
 62
     7
 10
-141.27119
 20
119.92374
 11
-115.27119
 21
119.92374
  0
LINE
  8
0
  6
CONTINUOUS
 62
     7
 10
-105.27118
 20
129.92375
 11
-105.27118
 21
155.92375
  0
LINE
  8
0
  6
CONTINUOUS
 62
     7
 10
-110.27118
 20
129.92375
 11
-110.27118
 21
155.92375
  0
LINE
  8
0
  6
CONTINUOUS
 62
     7
 10
-141.27119
 20
124.92374
 11
-115.27119
 21
124.92374
  0
LINE
  8
0
  6
CONTINUOUS
 62
     7
 10
-115.27119
 20
124.92374
 11
-115.27119
 21
119.92374
  0
LINE
  8
0
  6
CONTINUOUS
 62
     7
 10
-141.27119
 20
124.92374
 11
-141.27119
 21
119.92374
  0
LINE
  8
0
  6
CONTINUOUS
 62
     7
 10
-110.27118
 20
155.92375
 11
-105.27118
 21
155.92375
  0
LINE
  8
0
  6
CONTINUOUS
 62
     7
 10
-110.27118
 20
129.92375
 11
-105.27118
 21
129.92375
  0
LINE
  8
0
  6
CONTINUOUS
 62
     7
 10
158.91476
 20
141.58633
 11
160.07686
 21
140.42422
  0
LINE
  8
0
  6
CONTINUOUS
 62
     7
 10
158.06624
 20
140.73781
 11
159.22833
 21
139.5757
  0
LINE
  8
0
  6
CONTINUOUS
 62
     7
 10
165.3894
 20
133.41463
 11
166.55151
 21
132.25253
  0
LINE
  8
0
  6
CONTINUOUS
 62
     7
 10
166.23793
 20
134.26315
 11
167.40004
 21
133.10106
  0
LINE
  8
0
  6
CONTINUOUS
 62
     7
 10
160.07996
 20
138.72409
 11
162.30887
 21
136.49516
  0
LINE
  8
0
  6
CONTINUOUS
 62
     7
 10
160.92848
 20
139.57262
 11
163.15739
 21
137.34369
  0
LINE
  8
0
  6
CONTINUOUS
 62
     7
 10
-145.36168
 20
46.517292
 11
-144.19957
 21
45.355179
  0
LINE
  8
0
  6
CONTINUOUS
 62
     7
 10
-146.21022
 20
45.668762
 11
-145.0481
 21
44.506645
  0
LINE
  8
0
  6
CONTINUOUS
 62
     7
 10
-138.88704
 20
38.345585
 11
-137.72493
 21
37.183475
  0
LINE
  8
0
  6
CONTINUOUS
 62
     7
 10
-138.03851
 20
39.194115
 11
-136.8764
 21
38.032005
  0
LINE
  8
0
  6
CONTINUOUS
 62
     7
 10
-144.19649
 20
43.655033
 11
-141.96758
 21
41.426121
  0
LINE
  8
0
  6
CONTINUOUS
 62
     7
 10
-143.34796
 20
44.503567
 11
-141.11905
 21
42.274651
  0
LINE
  8
0
  6
CONTINUOUS
 62
     7
 10
-24.483
 20
45.638603
 11
-23.320894
 21
44.476498
  0
LINE
  8
0
  6
CONTINUOUS
 62
     7
 10
-25.331528
 20
44.790077
 11
-24.169422
 21
43.627968
  0
LINE
  8
0
  6
CONTINUOUS
 62
     7
 10
-18.008354
 20
37.4669
 11
-16.846247
 21
36.304794
  0
LINE
  8
0
  6
CONTINUOUS
 62
     7
 10
-17.159826
 20
38.31543
 11
-15.997719
 21
37.153324
  0
LINE
  8
0
  6
CONTINUOUS
 62
     7
 10
-23.31781
 20
42.776356
 11
-21.088888
 21
40.547436
  0
LINE
  8
0
  6
CONTINUOUS
 62
     7
 10
-22.469282
 20
43.624886
 11
-20.24036
 21
41.395962
  0
LINE
  8
0
  6
CONTINUOUS
 62
     7
 10
-29.642361
 20
-94.749283
 11
-27.899202
 21
-96.492447
  0
LINE
  8
0
  6
CONTINUOUS
 62
     7
 10
-30.915154
 20
-96.022079
 11
-29.171995
 21
-97.765236
  0
LINE
  8
0
  6
CONTINUOUS
 62
     7
 10
-19.930391
 20
-107.00684
 11
-18.187235
 21
-108.75
  0
LINE
  8
0
  6
CONTINUOUS
 62
     7
 10
-18.657597
 20
-105.73405
 11
-16.91444
 21
-107.4772
  0
LINE
  8
0
  6
CONTINUOUS
 62
     7
 10
-27.894579
 20
-99.042656
 11
-24.551193
 21
-102.38604
  0
LINE
  8
0
  6
CONTINUOUS
 62
     7
 10
-26.621784
 20
-97.769859
 11
-23.278399
 21
-101.11324
  0
LINE
  8
0
  6
CONTINUOUS
 62
     7
 10
164.45815
 20
-98.849792
 11
166.20131
 21
-100.59296
  0
LINE
  8
0
  6
CONTINUOUS
 62
     7
 10
163.18535
 20
-100.12258
 11
164.92853
 21
-101.86575
  0
LINE
  8
0
  6
CONTINUOUS
 62
     7
 10
174.17012
 20
-111.10735
 11
175.91328
 21
-112.8505
  0
LINE
  8
0
  6
CONTINUOUS
 62
     7
 10
175.44292
 20
-109.83456
 11
177.18607
 21
-111.57771
  0
LINE
  8
0
  6
CONTINUOUS
 62
     7
 10
166.20593
 20
-103.14317
 11
169.54932
 21
-106.48654
  0
LINE
  8
0
  6
CONTINUOUS
 62
     7
 10
167.47873
 20
-101.87037
 11
170.82211
 21
-105.21375
  0
LINE
  8
0
  6
CONTINUOUS
 62
     7
 10
106.46621
 20
44.901524
 11
107.91884
 21
43.448891
  0
LINE
  8
0
  6
CONTINUOUS
 62
     7
 10
105.40555
 20
43.840862
 11
106.85818
 21
42.388229
  0
LINE
  8
0
  6
CONTINUOUS
 62
     7
 10
114.55952
 20
34.686893
 11
116.01215
 21
33.234261
  0
LINE
  8
0
  6
CONTINUOUS
 62
     7
 10
115.62018
 20
35.747555
 11
117.07281
 21
34.294922
  0
LINE
  8
0
  6
CONTINUOUS
 62
     7
 10
107.9227
 20
41.323715
 11
110.70885
 21
38.537563
  0
LINE
  8
0
  6
CONTINUOUS
 62
     7
 10
108.98335
 20
42.384377
 11
111.76951
 21
39.598221
  0
LINE
  8
0
  6
CONTINUOUS
 62
     7
 10
58.697773
 20
141.59119
 11
59.569355
 21
140.7196
  0
LINE
  8
0
  6
CONTINUOUS
 62
     7
 10
58.061382
 20
140.9548
 11
58.932964
 21
140.08322
  0
LINE
  8
0
  6
CONTINUOUS
 62
     7
 10
63.553764
 20
135.46242
 11
64.425346
 21
134.59084
  0
LINE
  8
0
  6
CONTINUOUS
 62
     7
 10
64.190155
 20
136.09882
 11
65.061737
 21
135.22723
  0
LINE
  8
0
  6
CONTINUOUS
 62
     7
 10
59.571671
 20
139.4445
 11
61.243362
 21
137.77283
  0
LINE
  8
0
  6
CONTINUOUS
 62
     7
 10
60.208065
 20
140.0809
 11
61.879753
 21
138.40921
  0
LINE
  8
0
  6
CONTINUOUS
 62
     7
 10
-127.76671
 20
143.05566
 11
-126.89513
 21
142.18408
  0
LINE
  8
0
  6
CONTINUOUS
 62
     7
 10
-128.40311
 20
142.41927
 11
-127.53152
 21
141.54768
  0
LINE
  8
0
  6
CONTINUOUS
 62
     7
 10
-122.91071
 20
136.92688
 11
-122.03915
 21
136.05531
  0
LINE
  8
0
  6
CONTINUOUS
 62
     7
 10
-122.27432
 20
137.56328
 11
-121.40275
 21
136.6917
  0
LINE
  8
0
  6
CONTINUOUS
 62
     7
 10
-126.89281
 20
140.90897
 11
-125.22112
 21
139.23729
  0
LINE
  8
0
  6
CONTINUOUS
 62
     7
 10
-126.25642
 20
141.54536
 11
-124.58473
 21
139.87369
  0
LINE
  8
0
  6
CONTINUOUS
 62
     7
 10
-35.680901
 20
142.46988
 11
-34.809322
 21
141.5983
  0
LINE
  8
0
  6
CONTINUOUS
 62
     7
 10
-36.317295
 20
141.83348
 11
-35.445717
 21
140.9619
  0
LINE
  8
0
  6
CONTINUOUS
 62
     7
 10
-30.824919
 20
136.34109
 11
-29.953335
 21
135.46951
  0
LINE
  8
0
  6
CONTINUOUS
 62
     7
 10
-30.18852
 20
136.97749
 11
-29.316938
 21
136.10591
  0
LINE
  8
0
  6
CONTINUOUS
 62
     7
 10
-34.807011
 20
140.3232
 11
-33.135315
 21
138.65149
  0
LINE
  8
0
  6
CONTINUOUS
 62
     7
 10
-34.170616
 20
140.95959
 11
-32.498917
 21
139.28789
  0
LINE
  8
0
  6
CONTINUOUS
 62
     7
 10
-203.08116
 20
-91.522614
 11
-201.62854
 21
-92.97525
  0
LINE
  8
0
  6
CONTINUOUS
 62
     7
 10
-204.14183
 20
-92.583275
 11
-202.68919
 21
-94.035904
  0
LINE
  8
0
  6
CONTINUOUS
 62
     7
 10
-194.98785
 20
-101.73724
 11
-193.53522
 21
-103.18987
  0
LINE
  8
0
  6
CONTINUOUS
 62
     7
 10
-193.9272
 20
-100.67658
 11
-192.47456
 21
-102.12922
  0
LINE
  8
0
  6
CONTINUOUS
 62
     7
 10
-201.62468
 20
-95.100426
 11
-198.83853
 21
-97.886574
  0
LINE
  8
0
  6
CONTINUOUS
 62
     7
 10
-200.56401
 20
-94.039764
 11
-197.77786
 21
-96.825912
  0
LINE
  8
0
  6
CONTINUOUS
 62
     7
 10
652.35693
 20
-10.726301
 11
654.68115
 21
-13.050509
  0
LINE
  8
0
  6
CONTINUOUS
 62
     7
 10
650.65991
 20
-12.423353
 11
652.98413
 21
-14.747561
  0
LINE
  8
0
  6
CONTINUOUS
 62
     7
 10
665.30627
 20
-27.069708
 11
667.63049
 21
-29.393917
  0
LINE
  8
0
  6
CONTINUOUS
 62
     7
 10
667.0033
 20
-25.372656
 11
669.32751
 21
-27.696865
  0
LINE
  8
0
  6
CONTINUOUS
 62
     7
 10
654.68732
 20
-16.450785
 11
659.1452
 21
-20.908634
  0
LINE
  8
0
  6
CONTINUOUS
 62
     7
 10
656.3844
 20
-14.753733
 11
660.84222
 21
-19.211582
  0
LINE
  8
0
  6
CONTINUOUS
 62
     7
 10
916.45752
 20
-14.8268
 11
918.78174
 21
-17.151009
  0
LINE
  8
0
  6
CONTINUOUS
 62
     7
 10
914.76044
 20
-16.523874
 11
917.08466
 21
-18.848082
  0
LINE
  8
0
  6
CONTINUOUS
 62
     7
 10
929.4068
 20
-31.170229
 11
931.73102
 21
-33.494438
  0
LINE
  8
0
  6
CONTINUOUS
 62
     7
 10
931.10388
 20
-29.473154
 11
933.4281
 21
-31.797363
  0
LINE
  8
0
  6
CONTINUOUS
 62
     7
 10
918.78784
 20
-20.551283
 11
923.24573
 21
-25.009155
  0
LINE
  8
0
  6
CONTINUOUS
 62
     7
 10
920.48492
 20
-18.85421
 11
924.94281
 21
-23.312082
  0
ARC
  8
0
  6
CONTINUOUS
 62
     7
 10
-20.271179
 20
126.42375
 40
3
 50
89.999982
 51
179.99996
  0
ARC
  8
0
  6
CONTINUOUS
 62
     7
 10
-23.271179
 20
129.42375
 40
27
 50
89.999982
 51
179.99996
  0
ARC
  8
0
  6
CENTER
 62
     7
 10
-23.271179
 20
129.42375
 40
13.5
 50
89.999982
 51
179.99996
  0
ARC
  8
0
  6
CONTINUOUS
 62
     7
 10
-51.844147
 20
16.67271
 40
2.5
 50
62.964796
 51
67.585159
  0
ARC
  8
0
  6
CONTINUOUS
 62
     7
 10
140.63437
 20
78.099075
 40
2.5
 50
201.91845
 51
209.86848
  0
ARC
  8
0
  6
CONTINUOUS
 62
     7
 10
72.208008
 20
9.6727104
 40
2.5
 50
60.131524
 51
68.08155
  0
ARC
  8
0
  6
CENTER
 62
     7
 10
-173.91301
 20
-121.75143
 40
34.5
 50
89.999982
 51
179.27238
  0
ARC
  8
0
  6
CONTINUOUS
 62
     7
 10
-156.28641
 20
-38.251431
 40
6
 50
270
 51
324.31468
  0
ARC
  8
0
  6
CONTINUOUS
 62
     7
 10
-156.28641
 20
-136.25143
 40
6
 50
35.685334
 51
90.000003
  0
ARC
  8
0
  6
CONTINUOUS
 62
     7
 10
-159.41301
 20
-139.37804
 40
6
 50
180.00001
 51
234.31468
  0
ARC
  8
0
  6
CONTINUOUS
 62
     7
 10
-257.41302
 20
-139.37804
 40
6
 50
305.68534
 51
6.8301892E-006
  0
ARC
  8
0
  6
CONTINUOUS
 62
     7
 10
-157.91301
 20
-137.75143
 40
7.5
 50
89.999982
 51
179.99996
  0
ARC
  8
0
  6
CONTINUOUS
 62
     7
 10
-165.41301
 20
-130.25143
 40
86
 50
89.999982
 51
179.99996
  0
ARC
  8
0
  6
CONTINUOUS
 62
     7
 10
19.445545
 20
-27.751431
 40
10
 50
270
 51
315.57299
  0
ARC
  8
0
  6
CONTINUOUS
 62
     7
 10
19.445545
 20
-146.75143
 40
10
 50
44.427003
 51
90.000003
  0
ARC
  8
0
  6
CONTINUOUS
 62
     7
 10
21.086979
 20
-145.10999
 40
10
 50
180.00001
 51
225.573
  0
ARC
  8
0
  6
CONTINUOUS
 62
     7
 10
-97.91301
 20
-145.11
 40
10
 50
314.42701
 51
6.8301892E-006
  0
ARC
  8
0
  6
CONTINUOUS
 62
     7
 10
19.086979
 20
-144.75143
 40
8
 50
89.999982
 51
179.99996
  0
ARC
  8
0
  6
CONTINUOUS
 62
     7
 10
11.086979
 20
-136.75143
 40
99
 50
89.999982
 51
179.99996
  0
ARC
  8
0
  6
CENTER
 62
     7
 10
11.086979
 20
-136.75143
 40
49.5
 50
89.949357
 51
180.0506
  0
ARC
  8
0
  6
CONTINUOUS
 62
     7
 10
225.44556
 20
-13.75143
 40
10
 50
270
 51
315.57299
  0
ARC
  8
0
  6
CONTINUOUS
 62
     7
 10
225.44556
 20
-160.75143
 40
10
 50
44.427003
 51
90.000003
  0
ARC
  8
0
  6
CONTINUOUS
 62
     7
 10
225.08699
 20
-161.11
 40
10
 50
180.00001
 51
225.573
  0
ARC
  8
0
  6
CONTINUOUS
 62
     7
 10
78.08699
 20
-161.11002
 40
10
 50
314.42701
 51
6.8301892E-006
  0
ARC
  8
0
  6
CONTINUOUS
 62
     7
 10
225.08699
 20
-160.75143
 40
10
 50
89.999982
 51
179.99996
  0
ARC
  8
0
  6
CONTINUOUS
 62
     7
 10
215.08699
 20
-150.75143
 40
127
 50
89.999982
 51
179.99996
  0
ARC
  8
0
  6
CENTER
 62
     7
 10
215.08699
 20
-150.75143
 40
63.5
 50
89.999982
 51
179.99996
  0
ARC
  8
0
  6
CONTINUOUS
 62
     7
 10
1001.8416
 20
103.49266
 40
10
 50
270
 51
319.45841
  0
ARC
  8
0
  6
CONTINUOUS
 62
     7
 10
1001.8416
 20
-98.507339
 40
10
 50
40.541602
 51
90.000003
  0
ARC
  8
0
  6
CONTINUOUS
 62
     7
 10
999.94092
 20
83.590683
 40
3.5
 50
205.9704
 51
210.14957
  0
ARC
  8
0
  6
CONTINUOUS
 62
     7
 10
998.44092
 20
-101.90799
 40
10
 50
180.00001
 51
229.45842
  0
ARC
  8
0
  6
CONTINUOUS
 62
     7
 10
796.44092
 20
-101.908
 40
10
 50
310.54161
 51
6.8301892E-006
  0
ARC
  8
0
  6
CONTINUOUS
 62
     7
 10
1000.4409
 20
-100.50734
 40
12
 50
89.999982
 51
179.99996
  0
ARC
  8
0
  6
CONTINUOUS
 62
     7
 10
988.44092
 20
-88.507339
 40
182
 50
89.999982
 51
179.99996
  0
ARC
  8
0
  6
CENTER
 62
     7
 10
988.44092
 20
-88.507339
 40
91
 50
89.999982
 51
179.99996
  0
ARC
  8
0
  6
CONTINUOUS
 62
     7
 10
724.84161
 20
89.492645
 40
10
 50
270
 51
319.45841
  0
ARC
  8
0
  6
CONTINUOUS
 62
     7
 10
723.94092
 20
70.84967
 40
3.5
 50
207.55322
 51
207.63285
  0
ARC
  8
0
  6
CONTINUOUS
 62
     7
 10
723.94092
 20
-65.864357
 40
3.5
 50
152.36715
 51
152.44678
  0
ARC
  8
0
  6
CONTINUOUS
 62
     7
 10
724.84161
 20
-84.507347
 40
10
 50
40.541602
 51
90.000003
  0
ARC
  8
0
  6
CONTINUOUS
 62
     7
 10
724.44092
 20
-84.907997
 40
10
 50
180.00001
 51
229.45842
  0
ARC
  8
0
  6
CONTINUOUS
 62
     7
 10
550.44092
 20
-84.908005
 40
10
 50
310.54161
 51
6.8301892E-006
  0
ARC
  8
0
  6
CONTINUOUS
 62
     7
 10
724.44092
 20
-84.507347
 40
10
 50
89.999982
 51
179.99996
  0
ARC
  8
0
  6
CONTINUOUS
 62
     7
 10
714.44092
 20
-74.507339
 40
154
 50
89.999982
 51
179.99996
  0
ARC
  8
0
  6
CENTER
 62
     7
 10
714.44092
 20
-74.507339
 40
77
 50
90.000003
 51
179.99996
  0
ARC
  8
0
  6
CONTINUOUS
 62
     7
 10
-18.369255
 20
126.42375
 40
3
 50
30.000001
 51
90.000003
  0
ARC
  8
0
  6
CONTINUOUS
 62
     7
 10
-20.271179
 20
124.52183
 40
3
 50
179.99999
 51
240.00001
  0
ARC
  8
0
  6
CONTINUOUS
 62
     7
 10
-53.271179
 20
124.52183
 40
3
 50
300
 51
0
  0
ARC
  8
0
  6
CONTINUOUS
 62
     7
 10
-18.369255
 20
159.42375
 40
3
 50
270
 51
330
  0
ARC
  8
0
  6
CONTINUOUS
 62
     7
 10
77.228821
 20
122.42375
 40
4
 50
89.999982
 51
179.99996
  0
ARC
  8
0
  6
CONTINUOUS
 62
     7
 10
73.228821
 20
126.42375
 40
33
 50
89.999982
 51
179.99996
  0
ARC
  8
0
  6
CENTER
 62
     7
 10
73.228821
 20
126.42375
 40
16.5
 50
89.999982
 51
179.99996
  0
ARC
  8
0
  6
CONTINUOUS
 62
     7
 10
37.228821
 20
119.52184
 40
3
 50
300
 51
0
  0
ARC
  8
0
  6
CONTINUOUS
 62
     7
 10
76.228821
 20
119.52184
 40
3
 50
179.99999
 51
240.00001
  0
ARC
  8
0
  6
CONTINUOUS
 62
     7
 10
80.130745
 20
123.42375
 40
3
 50
30.000001
 51
90.000003
  0
ARC
  8
0
  6
CONTINUOUS
 62
     7
 10
80.130745
 20
162.42375
 40
3
 50
270
 51
330
  0
ARC
  8
0
  6
CONTINUOUS
 62
     7
 10
181.22882
 20
118.42375
 40
4
 50
89.999982
 51
179.99996
  0
ARC
  8
0
  6
CONTINUOUS
 62
     7
 10
177.22882
 20
122.42375
 40
41
 50
89.999982
 51
179.99996
  0
ARC
  8
0
  6
CENTER
 62
     7
 10
177.22882
 20
122.42375
 40
20.5
 50
89.999982
 51
179.68247
  0
ARC
  8
0
  6
CONTINUOUS
 62
     7
 10
185.13074
 20
166.42375
 40
3
 50
270
 51
330
  0
ARC
  8
0
  6
CONTINUOUS
 62
     7
 10
185.13074
 20
119.42375
 40
3
 50
30.000001
 51
90.000003
  0
ARC
  8
0
  6
CONTINUOUS
 62
     7
 10
180.22882
 20
114.52183
 40
3
 50
179.99999
 51
240.00001
  0
ARC
  8
0
  6
CONTINUOUS
 62
     7
 10
133.22882
 20
114.52183
 40
3
 50
300
 51
0
  0
ARC
  8
0
  6
CONTINUOUS
 62
     7
 10
-118.86563
 20
19.17271
 40
5
 50
89.999982
 51
179.99996
  0
ARC
  8
0
  6
CONTINUOUS
 62
     7
 10
-123.86563
 20
24.17271
 40
50
 50
89.999982
 51
179.99996
  0
ARC
  8
0
  6
CENTER
 62
     7
 10
-123.86563
 20
24.17271
 40
25
 50
89.999982
 51
179.99996
  0
ARC
  8
0
  6
CONTINUOUS
 62
     7
 10
-113.46371
 20
77.172714
 40
3
 50
270
 51
330
  0
ARC
  8
0
  6
CONTINUOUS
 62
     7
 10
-113.46371
 20
21.17271
 40
3
 50
30.000001
 51
90.000003
  0
ARC
  8
0
  6
CONTINUOUS
 62
     7
 10
-120.86563
 20
13.770786
 40
3
 50
179.99999
 51
240.00001
  0
ARC
  8
0
  6
CONTINUOUS
 62
     7
 10
-176.86563
 20
13.770786
 40
3
 50
300
 51
0
  0
ARC
  8
0
  6
CONTINUOUS
 62
     7
 10
-51.844151
 20
16.67271
 40
2.5
 50
62.964796
 51
67.585159
  0
ARC
  8
0
  6
CONTINUOUS
 62
     7
 10
5.1343651
 20
15.17271
 40
6
 50
89.999982
 51
179.99996
  0
ARC
  8
0
  6
CONTINUOUS
 62
     7
 10
-0.86563492
 20
21.17271
 40
56
 50
89.999982
 51
179.99996
  0
ARC
  8
0
  6
CENTER
 62
     7
 10
-0.86563492
 20
21.17271
 40
28
 50
89.999982
 51
179.99996
  0
ARC
  8
0
  6
CONTINUOUS
 62
     7
 10
6.6702633
 20
81.172714
 40
4
 50
270
 51
330
  0
ARC
  8
0
  6
CONTINUOUS
 62
     7
 10
6.6702633
 20
17.17271
 40
4
 50
30.000001
 51
90.000003
  0
ARC
  8
0
  6
CONTINUOUS
 62
     7
 10
3.1343651
 20
13.636824
 40
4
 50
179.99999
 51
240.00001
  0
ARC
  8
0
  6
CONTINUOUS
 62
     7
 10
-60.865635
 20
13.636824
 40
4
 50
300
 51
360
  0
ARC
  8
0
  6
CONTINUOUS
 62
     7
 10
140.63437
 20
78.099075
 40
2.5
 50
201.91845
 51
209.86848
  0
ARC
  8
0
  6
CONTINUOUS
 62
     7
 10
72.208008
 20
9.6727104
 40
2.5
 50
60.131524
 51
68.08155
  0
ARC
  8
0
  6
CONTINUOUS
 62
     7
 10
142.63437
 20
7.6727104
 40
7
 50
89.999982
 51
179.99996
  0
ARC
  8
0
  6
CONTINUOUS
 62
     7
 10
135.63437
 20
14.67271
 40
69
 50
89.999982
 51
179.99996
  0
ARC
  8
0
  6
CENTER
 62
     7
 10
135.63437
 20
14.67271
 40
34.5
 50
89.999982
 51
179.27238
  0
ARC
  8
0
  6
CONTINUOUS
 62
     7
 10
143.67027
 20
87.672714
 40
4
 50
270
 51
330
  0
ARC
  8
0
  6
CONTINUOUS
 62
     7
 10
143.67027
 20
10.67271
 40
4
 50
30.000001
 51
90.000003
  0
ARC
  8
0
  6
CONTINUOUS
 62
     7
 10
139.63437
 20
6.6368084
 40
4
 50
179.99999
 51
240.00001
  0
ARC
  8
0
  6
CONTINUOUS
 62
     7
 10
62.634369
 20
6.6368084
 40
4
 50
300
 51
360
  0
ARC
  8
0
  6
CONTINUOUS
 62
     7
 10
-113.77119
 20
128.42375
 40
3
 50
89.999982
 51
179.99996
  0
ARC
  8
0
  6
CONTINUOUS
 62
     7
 10
-116.77119
 20
131.42375
 40
23
 50
89.999982
 51
179.99996
  0
ARC
  8
0
  6
CENTER
 62
     7
 10
-116.77119
 20
131.42375
 40
11.5
 50
89.999982
 51
179.99996
  0
ARC
  8
0
  6
CONTINUOUS
 62
     7
 10
-112.86926
 20
157.42375
 40
3
 50
270
 51
330
  0
ARC
  8
0
  6
CONTINUOUS
 62
     7
 10
-112.86926
 20
128.42375
 40
3
 50
30.000001
 51
90.000003
  0
ARC
  8
0
  6
CONTINUOUS
 62
     7
 10
-113.77119
 20
127.52181
 40
3
 50
179.99999
 51
240.00001
  0
ARC
  8
0
  6
CONTINUOUS
 62
     7
 10
-142.77119
 20
127.52181
 40
3
 50
300
 51
0
  0
ARC
  8
0
  6
CONTINUOUS
 62
     7
 10
164.43019
 20
138.61649
 40
2.4000001
 50
351.00832
 51
98.991673
  0
ARC
  8
0
  6
CONTINUOUS
 62
     7
 10
164.43019
 20
138.61649
 40
3.5999999
 50
351.00832
 51
98.991673
  0
ARC
  8
0
  6
CONTINUOUS
 62
     7
 10
161.03609
 20
135.22238
 40
2.4000001
 50
171.00833
 51
278.99167
  0
ARC
  8
0
  6
CONTINUOUS
 62
     7
 10
161.03609
 20
135.22238
 40
3.5999999
 50
171.00833
 51
278.99167
  0
ARC
  8
0
  6
CONTINUOUS
 62
     7
 10
165.06822
 20
134.58435
 40
7.6823077
 50
98.991673
 51
130.52056
  0
ARC
  8
0
  6
CONTINUOUS
 62
     7
 10
165.06822
 20
134.58435
 40
6.4823079
 50
98.991673
 51
129.68912
  0
ARC
  8
0
  6
CONTINUOUS
 62
     7
 10
160.39806
 20
139.25452
 40
6.4823079
 50
278.99167
 51
351.00832
  0
ARC
  8
0
  6
CONTINUOUS
 62
     7
 10
160.39806
 20
139.25452
 40
7.6823077
 50
278.99167
 51
310.52055
  0
ARC
  8
0
  6
CONTINUOUS
 62
     7
 10
158.8087
 20
140.84387
 40
0.75
 50
81.869899
 51
188.1301
  0
ARC
  8
0
  6
CONTINUOUS
 62
     7
 10
162.41495
 20
137.23763
 40
0.75
 50
261.8699
 51
8.1301031
  0
ARC
  8
0
  6
CONTINUOUS
 62
     7
 10
166.65758
 20
132.995
 40
0.75
 50
261.8699
 51
8.1301031
  0
ARC
  8
0
  6
CONTINUOUS
 62
     7
 10
165.06822
 20
134.58435
 40
6.4823079
 50
140.31088
 51
171.00833
  0
ARC
  8
0
  6
CONTINUOUS
 62
     7
 10
165.06822
 20
134.58435
 40
7.6823077
 50
139.47946
 51
171.00833
  0
ARC
  8
0
  6
CONTINUOUS
 62
     7
 10
160.39806
 20
139.25452
 40
7.6823077
 50
319.47945
 51
351.00832
  0
ARC
  8
0
  6
CONTINUOUS
 62
     7
 10
-139.84625
 20
43.547436
 40
2.4000001
 50
351.00832
 51
98.991673
  0
ARC
  8
0
  6
CONTINUOUS
 62
     7
 10
-139.84625
 20
43.547436
 40
3.5999999
 50
351.00832
 51
98.991673
  0
ARC
  8
0
  6
CONTINUOUS
 62
     7
 10
-143.24036
 20
40.153324
 40
2.4000001
 50
171.00833
 51
278.99167
  0
ARC
  8
0
  6
CONTINUOUS
 62
     7
 10
-143.24036
 20
40.153324
 40
3.5999999
 50
171.00833
 51
278.99167
  0
ARC
  8
0
  6
CONTINUOUS
 62
     7
 10
-139.20822
 20
39.515297
 40
7.6823077
 50
98.991673
 51
130.52056
  0
ARC
  8
0
  6
CONTINUOUS
 62
     7
 10
-139.20822
 20
39.515297
 40
6.4823079
 50
98.991673
 51
129.68912
  0
ARC
  8
0
  6
CONTINUOUS
 62
     7
 10
-143.87839
 20
44.185463
 40
6.4823079
 50
278.99167
 51
351.00832
  0
ARC
  8
0
  6
CONTINUOUS
 62
     7
 10
-143.87839
 20
44.185463
 40
7.6823077
 50
278.99167
 51
310.52055
  0
ARC
  8
0
  6
CONTINUOUS
 62
     7
 10
-145.46774
 20
45.774822
 40
0.75
 50
81.869899
 51
188.1301
  0
ARC
  8
0
  6
CONTINUOUS
 62
     7
 10
-141.8615
 20
42.168579
 40
0.75
 50
261.8699
 51
8.1301031
  0
ARC
  8
0
  6
CONTINUOUS
 62
     7
 10
-137.61887
 20
37.925938
 40
0.75
 50
261.8699
 51
8.1301031
  0
ARC
  8
0
  6
CONTINUOUS
 62
     7
 10
-139.20822
 20
39.515297
 40
6.4823079
 50
140.31088
 51
171.00833
  0
ARC
  8
0
  6
CONTINUOUS
 62
     7
 10
-139.20822
 20
39.515297
 40
7.6823077
 50
139.47946
 51
171.00833
  0
ARC
  8
0
  6
CONTINUOUS
 62
     7
 10
-143.87839
 20
44.185463
 40
7.6823077
 50
319.47945
 51
351.00832
  0
ARC
  8
0
  6
CONTINUOUS
 62
     7
 10
-18.967567
 20
42.668755
 40
2.4000001
 50
351.00832
 51
98.991673
  0
ARC
  8
0
  6
CONTINUOUS
 62
     7
 10
-18.967567
 20
42.668755
 40
3.5999999
 50
351.00832
 51
98.991673
  0
ARC
  8
0
  6
CONTINUOUS
 62
     7
 10
-22.361679
 20
39.274643
 40
2.4000001
 50
171.00833
 51
278.99167
  0
ARC
  8
0
  6
CONTINUOUS
 62
     7
 10
-22.361679
 20
39.274643
 40
3.5999999
 50
171.00833
 51
278.99167
  0
ARC
  8
0
  6
CONTINUOUS
 62
     7
 10
-18.329538
 20
38.636616
 40
7.6823077
 50
98.991673
 51
130.52056
  0
ARC
  8
0
  6
CONTINUOUS
 62
     7
 10
-18.329538
 20
38.636616
 40
6.4823079
 50
98.991673
 51
129.68912
  0
ARC
  8
0
  6
CONTINUOUS
 62
     7
 10
-22.999708
 20
43.306782
 40
6.4823079
 50
278.99167
 51
351.00832
  0
ARC
  8
0
  6
CONTINUOUS
 62
     7
 10
-22.999708
 20
43.306782
 40
7.6823077
 50
278.99167
 51
310.52055
  0
ARC
  8
0
  6
CONTINUOUS
 62
     7
 10
-24.589066
 20
44.896141
 40
0.75
 50
81.869899
 51
188.1301
  0
ARC
  8
0
  6
CONTINUOUS
 62
     7
 10
-20.982821
 20
41.289898
 40
0.75
 50
261.8699
 51
8.1301031
  0
ARC
  8
0
  6
CONTINUOUS
 62
     7
 10
-16.740181
 20
37.047256
 40
0.75
 50
261.8699
 51
8.1301031
  0
ARC
  8
0
  6
CONTINUOUS
 62
     7
 10
-18.329538
 20
38.636616
 40
6.4823079
 50
140.31088
 51
171.00833
  0
ARC
  8
0
  6
CONTINUOUS
 62
     7
 10
-18.329538
 20
38.636616
 40
7.6823077
 50
139.47946
 51
171.00833
  0
ARC
  8
0
  6
CONTINUOUS
 62
     7
 10
-22.999708
 20
43.306782
 40
7.6823077
 50
319.47945
 51
351.00832
  0
ARC
  8
0
  6
CONTINUOUS
 62
     7
 10
-21.369211
 20
-99.204056
 40
3.5999999
 50
351.00832
 51
98.991673
  0
ARC
  8
0
  6
CONTINUOUS
 62
     7
 10
-21.369211
 20
-99.204056
 40
5.4000001
 50
351.00832
 51
98.991673
  0
ARC
  8
0
  6
CONTINUOUS
 62
     7
 10
-26.460379
 20
-104.29523
 40
3.5999999
 50
171.00833
 51
278.99167
  0
ARC
  8
0
  6
CONTINUOUS
 62
     7
 10
-26.460379
 20
-104.29523
 40
5.4000001
 50
171.00833
 51
278.99167
  0
ARC
  8
0
  6
CONTINUOUS
 62
     7
 10
-20.412169
 20
-105.25227
 40
11.523461
 50
98.991673
 51
130.52056
  0
ARC
  8
0
  6
CONTINUOUS
 62
     7
 10
-20.412169
 20
-105.25227
 40
9.7234612
 50
98.991673
 51
129.68912
  0
ARC
  8
0
  6
CONTINUOUS
 62
     7
 10
-27.417421
 20
-98.247017
 40
9.7234612
 50
278.99167
 51
351.00832
  0
ARC
  8
0
  6
CONTINUOUS
 62
     7
 10
-27.417421
 20
-98.247017
 40
11.523461
 50
278.99167
 51
310.52055
  0
ARC
  8
0
  6
CONTINUOUS
 62
     7
 10
-29.801458
 20
-95.862976
 40
1.125
 50
81.869899
 51
188.1301
  0
ARC
  8
0
  6
CONTINUOUS
 62
     7
 10
-24.392092
 20
-101.27235
 40
1.125
 50
261.8699
 51
8.1301031
  0
ARC
  8
0
  6
CONTINUOUS
 62
     7
 10
-18.028131
 20
-107.63631
 40
1.125
 50
261.8699
 51
8.1301031
  0
ARC
  8
0
  6
CONTINUOUS
 62
     7
 10
-20.412169
 20
-105.25227
 40
11.523461
 50
139.47946
 51
171.00833
  0
ARC
  8
0
  6
CONTINUOUS
 62
     7
 10
-20.412169
 20
-105.25227
 40
9.7234612
 50
140.31088
 51
171.00833
  0
ARC
  8
0
  6
CONTINUOUS
 62
     7
 10
-27.417421
 20
-98.247017
 40
11.523461
 50
319.47945
 51
351.00832
  0
ARC
  8
0
  6
CONTINUOUS
 62
     7
 10
172.73129
 20
-103.30457
 40
3.5999999
 50
351.00832
 51
98.991673
  0
ARC
  8
0
  6
CONTINUOUS
 62
     7
 10
172.73129
 20
-103.30457
 40
5.4000001
 50
351.00832
 51
98.991673
  0
ARC
  8
0
  6
CONTINUOUS
 62
     7
 10
167.64014
 20
-108.39574
 40
3.5999999
 50
171.00833
 51
278.99167
  0
ARC
  8
0
  6
CONTINUOUS
 62
     7
 10
167.64014
 20
-108.39574
 40
5.4000001
 50
171.00833
 51
278.99167
  0
ARC
  8
0
  6
CONTINUOUS
 62
     7
 10
173.68834
 20
-109.35278
 40
11.523461
 50
98.991673
 51
130.52056
  0
ARC
  8
0
  6
CONTINUOUS
 62
     7
 10
173.68834
 20
-109.35278
 40
9.7234612
 50
98.991673
 51
129.68912
  0
ARC
  8
0
  6
CONTINUOUS
 62
     7
 10
166.68309
 20
-102.34753
 40
9.7234612
 50
278.99167
 51
351.00832
  0
ARC
  8
0
  6
CONTINUOUS
 62
     7
 10
166.68309
 20
-102.34753
 40
11.523461
 50
278.99167
 51
310.52055
  0
ARC
  8
0
  6
CONTINUOUS
 62
     7
 10
164.29906
 20
-99.963486
 40
1.125
 50
81.869899
 51
188.1301
  0
ARC
  8
0
  6
CONTINUOUS
 62
     7
 10
169.70842
 20
-105.37286
 40
1.125
 50
261.8699
 51
8.1301031
  0
ARC
  8
0
  6
CONTINUOUS
 62
     7
 10
176.07237
 20
-111.73682
 40
1.125
 50
261.8699
 51
8.1301031
  0
ARC
  8
0
  6
CONTINUOUS
 62
     7
 10
173.68834
 20
-109.35278
 40
11.523461
 50
139.47946
 51
171.00833
  0
ARC
  8
0
  6
CONTINUOUS
 62
     7
 10
173.68834
 20
-109.35278
 40
9.7234612
 50
140.31088
 51
171.00833
  0
ARC
  8
0
  6
CONTINUOUS
 62
     7
 10
166.68309
 20
-102.34753
 40
11.523461
 50
319.47945
 51
351.00832
  0
ARC
  8
0
  6
CONTINUOUS
 62
     7
 10
113.3605
 20
41.189213
 40
3
 50
351.00832
 51
98.991673
  0
ARC
  8
0
  6
CONTINUOUS
 62
     7
 10
113.3605
 20
41.189213
 40
4.5
 50
351.00832
 51
98.991673
  0
ARC
  8
0
  6
CONTINUOUS
 62
     7
 10
109.11786
 20
36.946575
 40
3
 50
171.00833
 51
278.99167
  0
ARC
  8
0
  6
CONTINUOUS
 62
     7
 10
109.11786
 20
36.946575
 40
4.5
 50
171.00833
 51
278.99167
  0
ARC
  8
0
  6
CONTINUOUS
 62
     7
 10
114.15804
 20
36.14904
 40
9.6028843
 50
98.991673
 51
130.52056
  0
ARC
  8
0
  6
CONTINUOUS
 62
     7
 10
114.15804
 20
36.14904
 40
8.1028843
 50
98.991673
 51
129.68912
  0
ARC
  8
0
  6
CONTINUOUS
 62
     7
 10
108.32033
 20
41.986748
 40
8.1028843
 50
278.99167
 51
351.00832
  0
ARC
  8
0
  6
CONTINUOUS
 62
     7
 10
108.32033
 20
41.986748
 40
9.6028843
 50
278.99167
 51
310.52055
  0
ARC
  8
0
  6
CONTINUOUS
 62
     7
 10
106.33363
 20
43.973446
 40
0.9375
 50
81.869899
 51
188.1301
  0
ARC
  8
0
  6
CONTINUOUS
 62
     7
 10
110.84143
 20
39.465641
 40
0.9375
 50
261.8699
 51
8.1301031
  0
ARC
  8
0
  6
CONTINUOUS
 62
     7
 10
116.14474
 20
34.162342
 40
0.9375
 50
261.8699
 51
8.1301031
  0
ARC
  8
0
  6
CONTINUOUS
 62
     7
 10
114.15804
 20
36.14904
 40
9.6028843
 50
139.47946
 51
171.00833
  0
ARC
  8
0
  6
CONTINUOUS
 62
     7
 10
114.15804
 20
36.14904
 40
8.1028843
 50
140.31088
 51
171.00833
  0
ARC
  8
0
  6
CONTINUOUS
 62
     7
 10
108.32033
 20
41.986748
 40
9.6028843
 50
319.47945
 51
351.00832
  0
ARC
  8
0
  6
CONTINUOUS
 62
     7
 10
62.834354
 20
139.36382
 40
1.8
 50
351.00832
 51
98.991673
  0
ARC
  8
0
  6
CONTINUOUS
 62
     7
 10
62.834354
 20
139.36382
 40
2.7
 50
351.00832
 51
98.991673
  0
ARC
  8
0
  6
CONTINUOUS
 62
     7
 10
60.288769
 20
136.81822
 40
1.8
 50
171.00833
 51
278.99167
  0
ARC
  8
0
  6
CONTINUOUS
 62
     7
 10
60.288769
 20
136.81822
 40
2.7
 50
171.00833
 51
278.99167
  0
ARC
  8
0
  6
CONTINUOUS
 62
     7
 10
63.312874
 20
136.33971
 40
5.7617307
 50
98.991673
 51
130.52056
  0
ARC
  8
0
  6
CONTINUOUS
 62
     7
 10
63.312874
 20
136.33971
 40
4.8617306
 50
98.991673
 51
129.68912
  0
ARC
  8
0
  6
CONTINUOUS
 62
     7
 10
59.810249
 20
139.84233
 40
4.8617306
 50
278.99167
 51
351.00832
  0
ARC
  8
0
  6
CONTINUOUS
 62
     7
 10
59.810249
 20
139.84233
 40
5.7617307
 50
278.99167
 51
310.52055
  0
ARC
  8
0
  6
CONTINUOUS
 62
     7
 10
58.618229
 20
141.03435
 40
0.5625
 50
81.869899
 51
188.1301
  0
ARC
  8
0
  6
CONTINUOUS
 62
     7
 10
61.322914
 20
138.32967
 40
0.5625
 50
261.8699
 51
8.1301031
  0
ARC
  8
0
  6
CONTINUOUS
 62
     7
 10
64.50489
 20
135.14769
 40
0.5625
 50
261.8699
 51
8.1301031
  0
ARC
  8
0
  6
CONTINUOUS
 62
     7
 10
63.312874
 20
136.33971
 40
5.7617307
 50
139.47946
 51
171.00833
  0
ARC
  8
0
  6
CONTINUOUS
 62
     7
 10
63.312874
 20
136.33971
 40
4.8617306
 50
140.31088
 51
171.00833
  0
ARC
  8
0
  6
CONTINUOUS
 62
     7
 10
59.810249
 20
139.84233
 40
5.7617307
 50
319.47945
 51
351.00832
  0
ARC
  8
0
  6
CONTINUOUS
 62
     7
 10
-123.63013
 20
140.82828
 40
1.8
 50
351.00832
 51
98.991673
  0
ARC
  8
0
  6
CONTINUOUS
 62
     7
 10
-123.63013
 20
140.82828
 40
2.7
 50
351.00832
 51
98.991673
  0
ARC
  8
0
  6
CONTINUOUS
 62
     7
 10
-126.17571
 20
138.28268
 40
1.8
 50
171.00833
 51
278.99167
  0
ARC
  8
0
  6
CONTINUOUS
 62
     7
 10
-126.17571
 20
138.28268
 40
2.7
 50
171.00833
 51
278.99167
  0
ARC
  8
0
  6
CONTINUOUS
 62
     7
 10
-123.15161
 20
137.80417
 40
5.7617307
 50
98.991673
 51
130.52056
  0
ARC
  8
0
  6
CONTINUOUS
 62
     7
 10
-123.15161
 20
137.80417
 40
4.8617306
 50
98.991673
 51
129.68912
  0
ARC
  8
0
  6
CONTINUOUS
 62
     7
 10
-126.65424
 20
141.30679
 40
4.8617306
 50
278.99167
 51
351.00832
  0
ARC
  8
0
  6
CONTINUOUS
 62
     7
 10
-126.65424
 20
141.30679
 40
5.7617307
 50
278.99167
 51
310.52055
  0
ARC
  8
0
  6
CONTINUOUS
 62
     7
 10
-127.84625
 20
142.49881
 40
0.5625
 50
81.869899
 51
188.1301
  0
ARC
  8
0
  6
CONTINUOUS
 62
     7
 10
-125.14157
 20
139.79413
 40
0.5625
 50
261.8699
 51
8.1301031
  0
ARC
  8
0
  6
CONTINUOUS
 62
     7
 10
-121.95959
 20
136.61215
 40
0.5625
 50
261.8699
 51
8.1301031
  0
ARC
  8
0
  6
CONTINUOUS
 62
     7
 10
-123.15161
 20
137.80417
 40
5.7617307
 50
139.47946
 51
171.00833
  0
ARC
  8
0
  6
CONTINUOUS
 62
     7
 10
-123.15161
 20
137.80417
 40
4.8617306
 50
140.31088
 51
171.00833
  0
ARC
  8
0
  6
CONTINUOUS
 62
     7
 10
-126.65424
 20
141.30679
 40
5.7617307
 50
319.47945
 51
351.00832
  0
ARC
  8
0
  6
CONTINUOUS
 62
     7
 10
-31.544327
 20
140.24249
 40
1.8
 50
351.00832
 51
98.991673
  0
ARC
  8
0
  6
CONTINUOUS
 62
     7
 10
-31.544327
 20
140.24249
 40
2.7
 50
351.00832
 51
98.991673
  0
ARC
  8
0
  6
CONTINUOUS
 62
     7
 10
-34.089912
 20
137.6969
 40
1.8
 50
171.00833
 51
278.99167
  0
ARC
  8
0
  6
CONTINUOUS
 62
     7
 10
-34.089912
 20
137.6969
 40
2.7
 50
171.00833
 51
278.99167
  0
ARC
  8
0
  6
CONTINUOUS
 62
     7
 10
-31.065807
 20
137.21838
 40
5.7617307
 50
98.991673
 51
130.52056
  0
ARC
  8
0
  6
CONTINUOUS
 62
     7
 10
-31.065807
 20
137.21838
 40
4.8617306
 50
98.991673
 51
129.68912
  0
ARC
  8
0
  6
CONTINUOUS
 62
     7
 10
-34.568432
 20
140.72101
 40
4.8617306
 50
278.99167
 51
351.00832
  0
ARC
  8
0
  6
CONTINUOUS
 62
     7
 10
-34.568432
 20
140.72101
 40
5.7617307
 50
278.99167
 51
310.52055
  0
ARC
  8
0
  6
CONTINUOUS
 62
     7
 10
-35.760452
 20
141.91302
 40
0.5625
 50
81.869899
 51
188.1301
  0
ARC
  8
0
  6
CONTINUOUS
 62
     7
 10
-33.055767
 20
139.20834
 40
0.5625
 50
261.8699
 51
8.1301031
  0
ARC
  8
0
  6
CONTINUOUS
 62
     7
 10
-29.873787
 20
136.02637
 40
0.5625
 50
261.8699
 51
8.1301031
  0
ARC
  8
0
  6
CONTINUOUS
 62
     7
 10
-31.065807
 20
137.21838
 40
5.7617307
 50
139.47946
 51
171.00833
  0
ARC
  8
0
  6
CONTINUOUS
 62
     7
 10
-31.065807
 20
137.21838
 40
4.8617306
 50
140.31088
 51
171.00833
  0
ARC
  8
0
  6
CONTINUOUS
 62
     7
 10
-34.568432
 20
140.72101
 40
5.7617307
 50
319.47945
 51
351.00832
  0
ARC
  8
0
  6
CONTINUOUS
 62
     7
 10
-196.18687
 20
-95.234924
 40
3
 50
351.00832
 51
98.991673
  0
ARC
  8
0
  6
CONTINUOUS
 62
     7
 10
-196.18687
 20
-95.234924
 40
4.5
 50
351.00832
 51
98.991673
  0
ARC
  8
0
  6
CONTINUOUS
 62
     7
 10
-200.42952
 20
-99.47757
 40
3
 50
171.00833
 51
278.99167
  0
ARC
  8
0
  6
CONTINUOUS
 62
     7
 10
-200.42952
 20
-99.47757
 40
4.5
 50
171.00833
 51
278.99167
  0
ARC
  8
0
  6
CONTINUOUS
 62
     7
 10
-195.38934
 20
-100.2751
 40
9.6028843
 50
98.991673
 51
130.52056
  0
ARC
  8
0
  6
CONTINUOUS
 62
     7
 10
-195.38934
 20
-100.2751
 40
8.1028843
 50
98.991673
 51
129.68912
  0
ARC
  8
0
  6
CONTINUOUS
 62
     7
 10
-201.22705
 20
-94.437393
 40
8.1028843
 50
278.99167
 51
351.00832
  0
ARC
  8
0
  6
CONTINUOUS
 62
     7
 10
-201.22705
 20
-94.437393
 40
9.6028843
 50
278.99167
 51
310.52055
  0
ARC
  8
0
  6
CONTINUOUS
 62
     7
 10
-203.21375
 20
-92.450691
 40
0.9375
 50
81.869899
 51
188.1301
  0
ARC
  8
0
  6
CONTINUOUS
 62
     7
 10
-198.70595
 20
-96.958496
 40
0.9375
 50
261.8699
 51
8.1301031
  0
ARC
  8
0
  6
CONTINUOUS
 62
     7
 10
-193.40265
 20
-102.2618
 40
0.9375
 50
261.8699
 51
8.1301031
  0
ARC
  8
0
  6
CONTINUOUS
 62
     7
 10
-195.38934
 20
-100.2751
 40
9.6028843
 50
139.47946
 51
171.00833
  0
ARC
  8
0
  6
CONTINUOUS
 62
     7
 10
-195.38934
 20
-100.2751
 40
8.1028843
 50
140.31088
 51
171.00833
  0
ARC
  8
0
  6
CONTINUOUS
 62
     7
 10
-201.22705
 20
-94.437393
 40
9.6028843
 50
319.47945
 51
351.00832
  0
ARC
  8
0
  6
CONTINUOUS
 62
     7
 10
663.38782
 20
-16.666
 40
4.8000002
 50
351.00832
 51
98.991673
  0
ARC
  8
0
  6
CONTINUOUS
 62
     7
 10
663.38782
 20
-16.666
 40
7.1999998
 50
351.00832
 51
98.991673
  0
ARC
  8
0
  6
CONTINUOUS
 62
     7
 10
656.59961
 20
-23.454227
 40
4.8000002
 50
171.00833
 51
278.99167
  0
ARC
  8
0
  6
CONTINUOUS
 62
     7
 10
656.59961
 20
-23.454227
 40
7.1999998
 50
171.00833
 51
278.99167
  0
ARC
  8
0
  6
CONTINUOUS
 62
     7
 10
664.66388
 20
-24.730282
 40
15.364615
 50
98.991673
 51
130.52056
  0
ARC
  8
0
  6
CONTINUOUS
 62
     7
 10
664.66388
 20
-24.730282
 40
12.964616
 50
98.991673
 51
129.68912
  0
ARC
  8
0
  6
CONTINUOUS
 62
     7
 10
655.32355
 20
-15.389946
 40
15.364615
 50
278.99167
 51
310.52055
  0
ARC
  8
0
  6
CONTINUOUS
 62
     7
 10
652.14484
 20
-12.211228
 40
1.5
 50
81.869899
 51
188.1301
  0
ARC
  8
0
  6
CONTINUOUS
 62
     7
 10
659.3573
 20
-19.423717
 40
1.5
 50
261.8699
 51
8.1301031
  0
ARC
  8
0
  6
CONTINUOUS
 62
     7
 10
667.84259
 20
-27.909
 40
1.5
 50
261.8699
 51
8.1301031
  0
ARC
  8
0
  6
CONTINUOUS
 62
     7
 10
655.32355
 20
-15.389946
 40
12.964616
 50
278.99167
 51
351.00832
  0
ARC
  8
0
  6
CONTINUOUS
 62
     7
 10
655.32355
 20
-15.389946
 40
15.364615
 50
319.47945
 51
351.00832
  0
ARC
  8
0
  6
CONTINUOUS
 62
     7
 10
664.66388
 20
-24.730282
 40
12.964616
 50
140.31088
 51
171.00833
  0
ARC
  8
0
  6
CONTINUOUS
 62
     7
 10
664.66388
 20
-24.730282
 40
15.364615
 50
139.47946
 51
171.00833
  0
ARC
  8
0
  6
CONTINUOUS
 62
     7
 10
927.48834
 20
-20.766506
 40
4.8000002
 50
351.00832
 51
98.991673
  0
ARC
  8
0
  6
CONTINUOUS
 62
     7
 10
927.48834
 20
-20.766506
 40
7.1999998
 50
351.00832
 51
98.991673
  0
ARC
  8
0
  6
CONTINUOUS
 62
     7
 10
920.70013
 20
-27.554733
 40
4.8000002
 50
171.00833
 51
278.99167
  0
ARC
  8
0
  6
CONTINUOUS
 62
     7
 10
920.70013
 20
-27.554733
 40
7.1999998
 50
171.00833
 51
278.99167
  0
ARC
  8
0
  6
CONTINUOUS
 62
     7
 10
928.7644
 20
-28.830788
 40
15.364615
 50
98.991673
 51
130.52056
  0
ARC
  8
0
  6
CONTINUOUS
 62
     7
 10
928.7644
 20
-28.830788
 40
12.964616
 50
98.991673
 51
129.68912
  0
ARC
  8
0
  6
CONTINUOUS
 62
     7
 10
919.42407
 20
-19.490452
 40
15.364615
 50
278.99167
 51
310.52055
  0
ARC
  8
0
  6
CONTINUOUS
 62
     7
 10
916.24536
 20
-16.311733
 40
1.5
 50
81.869899
 51
188.1301
  0
ARC
  8
0
  6
CONTINUOUS
 62
     7
 10
923.45782
 20
-23.524223
 40
1.5
 50
261.8699
 51
8.1301031
  0
ARC
  8
0
  6
CONTINUOUS
 62
     7
 10
931.94312
 20
-32.009506
 40
1.5
 50
261.8699
 51
8.1301031
  0
ARC
  8
0
  6
CONTINUOUS
 62
     7
 10
919.42407
 20
-19.490452
 40
12.964616
 50
278.99167
 51
351.00832
  0
ARC
  8
0
  6
CONTINUOUS
 62
     7
 10
919.42407
 20
-19.490452
 40
15.364615
 50
319.47945
 51
351.00832
  0
ARC
  8
0
  6
CONTINUOUS
 62
     7
 10
928.7644
 20
-28.830788
 40
12.964616
 50
140.31088
 51
171.00833
  0
ARC
  8
0
  6
CONTINUOUS
 62
     7
 10
928.7644
 20
-28.830788
 40
15.364615
 50
139.47946
 51
171.00833
  0
TEXT
  8
0
  6
CONTINUOUS
 62
     7
 10
-124.89216
 20
160.66628
 40
5
 41
0.85534224
  1
３／８
  0
TEXT
  8
0
  6
CONTINUOUS
 62
     7
 10
-31.655476
 20
161.74329
 40
5
 41
0.85534224
  1
１／２
  0
TEXT
  8
0
  6
CONTINUOUS
 62
     7
 10
60.350744
 20
166.58983
 40
5
 41
0.85534224
  1
３／４
  0
TEXT
  8
0
  6
CONTINUOUS
 62
     7
 10
161.3581
 20
169.82086
 40
5
 41
0.90036056
  1
１
  0
TEXT
  8
0
  6
CONTINUOUS
 62
     7
 10
-144.51277
 20
81.813507
 40
5
 41
0.85124967
  1
１１／４
  0
TEXT
  8
0
  6
CONTINUOUS
 62
     7
 10
-23.349133
 20
84.506035
 40
5
 41
0.85124967
  1
１１／２
  0
TEXT
  8
0
  6
CONTINUOUS
 62
     7
 10
109.42029
 20
90.09404
 40
5
 41
0.90036056
  1
２
  0
TEXT
  8
0
  6
CONTINUOUS
 62
     7
 10
-199.44029
 20
-35.580589
 40
5
 41
0.85124967
  1
２１／２
  0
TEXT
  8
0
  6
CONTINUOUS
 62
     7
 10
-26.041658
 20
-30.195539
 40
5
 41
0.90036056
  1
３
  0
TEXT
  8
0
  6
CONTINUOUS
 62
     7
 10
176.16698
 20
-13.501884
 40
5
 41
0.90036056
  1
４
  0
TEXT
  8
0
  6
CONTINUOUS
 62
     7
 10
748.77751
 20
181.83252
 40
10
 41
0.84555565
  1
バンド付きエルボ
  0
TEXT
  8
0
  6
CONTINUOUS
 62
     7
 10
-35.222502
 20
181.83252
 40
10
 41
0.84555565
  1
バンド付きエルボ
  0
TEXT
  8
0
  6
CONTINUOUS
 62
     7
 10
657.14306
 20
91.807777
 40
5
 41
1.0714291
  1
5
  0
TEXT
  8
0
  6
CONTINUOUS
 62
     7
 10
923.95916
 20
107.68558
 40
5
 41
1.0714291
  1
6
  0
ENDSEC
  0
EOF
