  0
SECTION
  2
HEADER
  9
$EXTMAX
 10
297.08536
 20
211.6553
  9
$EXTMIN
 10
-296.12546
 20
-210.69543
  0
ENDSEC
  0
SECTION
  2
TABLES
  0
TABLE
  2
LTYPE
 70
    22
  0
LTYPE
  2
CONTINUOUS
 70
    64
  3
Solid line
 72
    65
 73
     0
 40
0.000000
  0
LTYPE
  2
DASHED
 70
    64
  3
__ __ __ __ __ __ __ __ __ __ __ __ __ __ __
 72
    65
 73
     2
 40
3.500000
 49
2.000000
 49
-1.500000
  0
LTYPE
  2
CENTER
 70
    64
  3
____ _ ____ _ ____ _ ____ _ ____ _ ____ _ ____
 72
    65
 73
     4
 40
17.500000
 49
13.000000
 49
-1.500000
 49
1.500000
 49
-1.500000
  0
LTYPE
  2
PHANTOM
 70
    64
  3
_____ _ _ _____ _ _ _____ _ _ _____ _ _ ____  
 72
    65
 73
     6
 40
15.500000
 49
8.000000
 49
-1.500000
 49
1.500000
 49
-1.500000
 49
1.500000
 49
-1.500000
  0
LTYPE
  2
DOT
 70
    64
  3
. . . . . . . . . . . . . . . . . . . . . . . .
 72
    65
 73
     2
 40
0.25
 49
0.0
 49
-0.25
  0
ENDTAB
  0
TABLE
  2
LAYER
 70
     1
  0
LAYER
  2
0
 70
     0
 62
     7
  6
CONTINUOUS
  0
ENDTAB
  0
TABLE
  2
STYLE
 70
     1
  0
STYLE
  2
STANDARD
 70
     0
 40
0.000000
 41
1.000000
 50
0.000000
 71
     0
 42
0.200000
  3
txt
  4
BIGFONT
  0
ENDTAB
  0
TABLE
  2
VIEW
 70
     0
  0
ENDTAB
  0
ENDSEC
  0
SECTION
  2
BLOCKS
  0
BLOCK
  8
0
  2
KOZU1
 70
    64
 10
0
 20
0
  0
POINT
  8
0
  6
CONTINUOUS
 62
     7
 10
0
 20
0
  0
POINT
  8
0
  6
CONTINUOUS
 62
     7
 10
-11.067583
 20
-9.9737816
  0
LINE
  8
0
  6
CONTINUOUS
 62
     7
 10
-14.311835
 20
15
 11
-6.6441007E-006
 21
15
  0
LINE
  8
0
  6
CONTINUOUS
 62
     7
 10
-14.311835
 20
-15
 11
-6.6441007E-006
 21
-15
  0
LINE
  8
0
  6
CONTINUOUS
 62
     7
 10
-14.057273
 20
13.5
 11
-8.5980902
 21
13.5
  0
LINE
  8
0
  6
CONTINUOUS
 62
     7
 10
-14.057273
 20
-13.5
 11
-8.5980902
 21
-13.5
  0
LINE
  8
0
  6
CENTER
 62
     7
 10
-23.491955
 20
0
 11
2.5615752
 21
0
  0
LINE
  8
0
  6
CONTINUOUS
 62
     7
 10
0
 20
15
 11
0
 21
-15
  0
LINE
  8
0
  6
CONTINUOUS
 62
     7
 10
-6.0000143
 20
15
 11
-6.0000143
 21
-15
  0
ARC
  8
0
  6
CONTINUOUS
 62
     7
 10
-8.5980902
 20
16.5
 40
3
 50
270
 51
329.99999
  0
ARC
  8
0
  6
CONTINUOUS
 62
     7
 10
-8.5980902
 20
-16.5
 40
3
 50
30.000001
 51
90.000003
  0
ARC
  8
0
  6
CONTINUOUS
 62
     7
 10
57.999992
 20
0
 40
78
 50
172.12652
 51
187.87346
  0
ARC
  8
0
  6
CONTINUOUS
 62
     7
 10
-14.057273
 20
8
 40
5.5
 50
89.999982
 51
173.66476
  0
ARC
  8
0
  6
CONTINUOUS
 62
     7
 10
-14.057273
 20
-8
 40
5.5
 50
186.33524
 51
270.00002
  0
ARC
  8
0
  6
CONTINUOUS
 62
     7
 10
-14.311835
 20
10
 40
5
 50
89.999982
 51
172.12646
  0
ARC
  8
0
  6
CONTINUOUS
 62
     7
 10
-14.311835
 20
-10
 40
5
 50
187.87354
 51
270.00002
  0
TEXT
  8
0
  6
CONTINUOUS
 62
     7
 10
-17.782725
 20
19.073
 40
3.2
 41
1.0178906
  1
1/2
  0
LINE
  8
0
  6
CONTINUOUS
 62
     7
 10
-11.367583
 20
-12.973782
 11
-11.367583
 21
-12.152048
  0
LINE
  8
0
  6
CONTINUOUS
 62
     7
 10
-10.767583
 20
-12.973782
 11
-10.767583
 21
-12.152048
  0
LINE
  8
0
  6
CONTINUOUS
 62
     7
 10
-10.767583
 20
-7.7955148
 11
-10.767583
 21
-6.9737816
  0
LINE
  8
0
  6
CONTINUOUS
 62
     7
 10
-11.367583
 20
-7.7955148
 11
-11.367583
 21
-6.9737816
  0
LINE
  8
0
  6
CONTINUOUS
 62
     7
 10
-10.767583
 20
-11.549868
 11
-10.767583
 21
-9.9737816
  0
LINE
  8
0
  6
CONTINUOUS
 62
     7
 10
-11.367583
 20
-11.549868
 11
-11.367583
 21
-9.9737816
  0
ARC
  8
0
  6
CONTINUOUS
 62
     7
 10
-12.267583
 20
-9.9737815
 40
1.2
 50
126.00832
 51
233.99167
  0
ARC
  8
0
  6
CONTINUOUS
 62
     7
 10
-12.267583
 20
-9.9737815
 40
1.8
 50
126.00832
 51
233.99167
  0
ARC
  8
0
  6
CONTINUOUS
 62
     7
 10
-9.867583
 20
-9.9737817
 40
1.2
 50
306.00832
 51
53.991676
  0
ARC
  8
0
  6
CONTINUOUS
 62
     7
 10
-9.867583
 20
-9.9737817
 40
1.8
 50
306.00832
 51
53.991676
  0
ARC
  8
0
  6
CONTINUOUS
 62
     7
 10
-11.067583
 20
-8.3226278
 40
3.8411539
 50
233.99167
 51
265.52055
  0
ARC
  8
0
  6
CONTINUOUS
 62
     7
 10
-11.067583
 20
-8.3226278
 40
3.241154
 50
233.99167
 51
264.68912
  0
ARC
  8
0
  6
CONTINUOUS
 62
     7
 10
-11.067583
 20
-11.624935
 40
3.241154
 50
53.991665
 51
126.00832
  0
ARC
  8
0
  6
CONTINUOUS
 62
     7
 10
-11.067583
 20
-11.624935
 40
3.8411539
 50
53.991665
 51
85.520543
  0
ARC
  8
0
  6
CONTINUOUS
 62
     7
 10
-11.067583
 20
-12.748782
 40
0.375
 50
216.86989
 51
323.13009
  0
ARC
  8
0
  6
CONTINUOUS
 62
     7
 10
-11.067583
 20
-10.198782
 40
0.375
 50
36.869898
 51
143.1301
  0
ARC
  8
0
  6
CONTINUOUS
 62
     7
 10
-11.067583
 20
-7.1987815
 40
0.375
 50
36.869898
 51
143.1301
  0
ARC
  8
0
  6
CONTINUOUS
 62
     7
 10
-11.067583
 20
-11.624935
 40
3.8411539
 50
94.479442
 51
126.00832
  0
ARC
  8
0
  6
CONTINUOUS
 62
     7
 10
-11.067583
 20
-8.3226278
 40
3.241154
 50
275.31087
 51
306.00832
  0
ARC
  8
0
  6
CONTINUOUS
 62
     7
 10
-11.067583
 20
-8.3226278
 40
3.8411539
 50
274.47945
 51
306.00832
  0
ENDBLK
  8
0
  0
BLOCK
  8
0
  2
KOZU2
 70
    64
 10
0
 20
0
  0
POINT
  8
0
  6
CONTINUOUS
 62
     7
 10
0
 20
0
  0
LINE
  8
0
  6
CENTER
 62
     7
 10
-27
 20
0
 11
2.9921949
 21
0
  0
LINE
  8
0
  6
CONTINUOUS
 62
     7
 10
-18.056168
 20
18
 11
0
 21
18
  0
LINE
  8
0
  6
CONTINUOUS
 62
     7
 10
-18.056168
 20
-18
 11
0
 21
-18
  0
LINE
  8
0
  6
CONTINUOUS
 62
     7
 10
-17.378448
 20
16.5
 11
-8.5980682
 21
16.5
  0
LINE
  8
0
  6
CONTINUOUS
 62
     7
 10
-17.378448
 20
-16.5
 11
-8.5980682
 21
-16.5
  0
LINE
  8
0
  6
CONTINUOUS
 62
     7
 10
0
 20
18
 11
0
 21
-18
  0
LINE
  8
0
  6
CONTINUOUS
 62
     7
 10
-5.9999919
 20
-18
 11
-5.9999919
 21
18
  0
ARC
  8
0
  6
CONTINUOUS
 62
     7
 10
-8.5980682
 20
19.5
 40
3
 50
270
 51
329.99999
  0
ARC
  8
0
  6
CONTINUOUS
 62
     7
 10
-8.5980682
 20
-19.5
 40
3
 50
30.000001
 51
90.000003
  0
ARC
  8
0
  6
CONTINUOUS
 62
     7
 10
71
 20
0
 40
95
 50
171.69492
 51
188.30506
  0
ARC
  8
0
  6
CONTINUOUS
 62
     7
 10
-17.378448
 20
10.5
 40
6
 50
89.999982
 51
173.22458
  0
ARC
  8
0
  6
CONTINUOUS
 62
     7
 10
-17.378448
 20
-10.5
 40
6
 50
186.77542
 51
270.00002
  0
ARC
  8
0
  6
CONTINUOUS
 62
     7
 10
-18.056168
 20
13
 40
5
 50
89.999982
 51
171.69499
  0
ARC
  8
0
  6
CONTINUOUS
 62
     7
 10
-18.056168
 20
-13
 40
5
 50
188.30501
 51
270.00002
  0
TEXT
  8
0
  6
CONTINUOUS
 62
     7
 10
-18.797245
 20
21.444489
 40
3.2
 41
1.0178906
  1
3/4
  0
LINE
  8
0
  6
CONTINUOUS
 62
     7
 10
-13.981968
 20
-16.093882
 11
-13.981967
 21
-14.861282
  0
LINE
  8
0
  6
CONTINUOUS
 62
     7
 10
-13.081968
 20
-16.093882
 11
-13.081967
 21
-14.861282
  0
LINE
  8
0
  6
CONTINUOUS
 62
     7
 10
-13.081967
 20
-8.3264814
 11
-13.081967
 21
-7.0938816
  0
LINE
  8
0
  6
CONTINUOUS
 62
     7
 10
-13.981967
 20
-8.3264813
 11
-13.981967
 21
-7.0938816
  0
LINE
  8
0
  6
CONTINUOUS
 62
     7
 10
-13.081967
 20
-13.958011
 11
-13.081967
 21
-11.593882
  0
LINE
  8
0
  6
CONTINUOUS
 62
     7
 10
-13.981967
 20
-13.958011
 11
-13.981967
 21
-11.593882
  0
ARC
  8
0
  6
CONTINUOUS
 62
     7
 10
-15.331967
 20
-11.593881
 40
1.8
 50
126.00832
 51
233.99167
  0
ARC
  8
0
  6
CONTINUOUS
 62
     7
 10
-15.331967
 20
-11.593881
 40
2.7
 50
126.00832
 51
233.99167
  0
ARC
  8
0
  6
CONTINUOUS
 62
     7
 10
-11.731967
 20
-11.593882
 40
1.8
 50
306.00832
 51
53.991676
  0
ARC
  8
0
  6
CONTINUOUS
 62
     7
 10
-11.731967
 20
-11.593882
 40
2.7
 50
306.00832
 51
53.991676
  0
ARC
  8
0
  6
CONTINUOUS
 62
     7
 10
-13.531967
 20
-9.1171508
 40
5.7617307
 50
233.99167
 51
265.52055
  0
ARC
  8
0
  6
CONTINUOUS
 62
     7
 10
-13.531967
 20
-9.1171508
 40
4.8617306
 50
233.99167
 51
264.68912
  0
ARC
  8
0
  6
CONTINUOUS
 62
     7
 10
-13.531967
 20
-14.070612
 40
4.8617306
 50
53.991665
 51
126.00832
  0
ARC
  8
0
  6
CONTINUOUS
 62
     7
 10
-13.531967
 20
-14.070612
 40
5.7617307
 50
53.991665
 51
85.520543
  0
ARC
  8
0
  6
CONTINUOUS
 62
     7
 10
-13.531968
 20
-15.756382
 40
0.5625
 50
216.86989
 51
323.13009
  0
ARC
  8
0
  6
CONTINUOUS
 62
     7
 10
-13.531967
 20
-11.931382
 40
0.5625
 50
36.869898
 51
143.1301
  0
ARC
  8
0
  6
CONTINUOUS
 62
     7
 10
-13.531967
 20
-7.4313817
 40
0.5625
 50
36.869898
 51
143.1301
  0
ARC
  8
0
  6
CONTINUOUS
 62
     7
 10
-13.531967
 20
-9.1171508
 40
5.7617307
 50
274.47945
 51
306.00832
  0
ARC
  8
0
  6
CONTINUOUS
 62
     7
 10
-13.531967
 20
-9.1171508
 40
4.8617306
 50
275.31087
 51
306.00832
  0
ARC
  8
0
  6
CONTINUOUS
 62
     7
 10
-13.531967
 20
-14.070612
 40
5.7617307
 50
94.479442
 51
126.00832
  0
ENDBLK
  8
0
  0
BLOCK
  8
0
  2
KOZU3
 70
    64
 10
0
 20
0
  0
POINT
  8
0
  6
CONTINUOUS
 62
     7
 10
0
 20
0
  0
LINE
  8
0
  6
CENTER
 62
     7
 10
-31
 20
0
 11
5.1229038
 21
0
  0
LINE
  8
0
  6
CONTINUOUS
 62
     7
 10
-20.919464
 20
22
 11
0
 21
22
  0
LINE
  8
0
  6
CONTINUOUS
 62
     7
 10
-20.919464
 20
-22
 11
0
 21
-22
  0
LINE
  8
0
  6
CONTINUOUS
 62
     7
 10
-20.67009
 20
20.5
 11
-9.5980682
 21
20.5
  0
LINE
  8
0
  6
CONTINUOUS
 62
     7
 10
-20.67009
 20
-20.5
 11
-9.5980682
 21
-20.5
  0
LINE
  8
0
  6
CONTINUOUS
 62
     7
 10
0
 20
22
 11
0
 21
-22
  0
LINE
  8
0
  6
CONTINUOUS
 62
     7
 10
-6.9999919
 20
22
 11
-6.9999919
 21
-22
  0
ARC
  8
0
  6
CONTINUOUS
 62
     7
 10
-9.5980682
 20
23.5
 40
3
 50
270
 51
329.99999
  0
ARC
  8
0
  6
CONTINUOUS
 62
     7
 10
-9.5980682
 20
-23.5
 40
3
 50
30.000001
 51
90.000003
  0
ARC
  8
0
  6
CONTINUOUS
 62
     7
 10
97
 20
0
 40
125
 50
172.27298
 51
187.727
  0
ARC
  8
0
  6
CONTINUOUS
 62
     7
 10
-20.67009
 20
14
 40
6.5
 50
89.999982
 51
173.21509
  0
ARC
  8
0
  6
CONTINUOUS
 62
     7
 10
-20.67009
 20
-14
 40
6.5
 50
186.78491
 51
270.00002
  0
ARC
  8
0
  6
CONTINUOUS
 62
     7
 10
-20.919464
 20
16
 40
6
 50
89.999982
 51
172.27305
  0
ARC
  8
0
  6
CONTINUOUS
 62
     7
 10
-20.919464
 20
-16
 40
6
 50
187.72695
 51
270.00002
  0
TEXT
  8
0
  6
CONTINUOUS
 62
     7
 10
-24.144705
 20
24.631579
 40
3.2
 41
1.0715625
  1
1
  0
LINE
  8
0
  6
CONTINUOUS
 62
     7
 10
-16.696444
 20
-20.021052
 11
-16.696444
 21
-18.377586
  0
LINE
  8
0
  6
CONTINUOUS
 62
     7
 10
-15.496444
 20
-20.021052
 11
-15.496444
 21
-18.377586
  0
LINE
  8
0
  6
CONTINUOUS
 62
     7
 10
-15.496443
 20
-9.6645189
 11
-15.496443
 21
-8.0210524
  0
LINE
  8
0
  6
CONTINUOUS
 62
     7
 10
-16.696443
 20
-9.6645188
 11
-16.696443
 21
-8.0210523
  0
LINE
  8
0
  6
CONTINUOUS
 62
     7
 10
-15.496443
 20
-17.173225
 11
-15.496443
 21
-14.021052
  0
LINE
  8
0
  6
CONTINUOUS
 62
     7
 10
-16.696443
 20
-17.173225
 11
-16.696443
 21
-14.021052
  0
ARC
  8
0
  6
CONTINUOUS
 62
     7
 10
-18.496443
 20
-14.021052
 40
2.4000001
 50
126.00832
 51
233.99167
  0
ARC
  8
0
  6
CONTINUOUS
 62
     7
 10
-18.496443
 20
-14.021052
 40
3.5999999
 50
126.00832
 51
233.99167
  0
ARC
  8
0
  6
CONTINUOUS
 62
     7
 10
-13.696443
 20
-14.021053
 40
2.4000001
 50
306.00832
 51
53.991676
  0
ARC
  8
0
  6
CONTINUOUS
 62
     7
 10
-13.696443
 20
-14.021053
 40
3.5999999
 50
306.00832
 51
53.991676
  0
ARC
  8
0
  6
CONTINUOUS
 62
     7
 10
-16.096443
 20
-10.718745
 40
7.6823077
 50
233.99167
 51
265.52055
  0
ARC
  8
0
  6
CONTINUOUS
 62
     7
 10
-16.096443
 20
-10.718745
 40
6.4823079
 50
233.99167
 51
264.68912
  0
ARC
  8
0
  6
CONTINUOUS
 62
     7
 10
-16.096443
 20
-17.32336
 40
6.4823079
 50
53.991665
 51
126.00832
  0
ARC
  8
0
  6
CONTINUOUS
 62
     7
 10
-16.096443
 20
-17.32336
 40
7.6823077
 50
53.991665
 51
85.520543
  0
ARC
  8
0
  6
CONTINUOUS
 62
     7
 10
-16.096444
 20
-19.571053
 40
0.75
 50
216.86989
 51
323.13009
  0
ARC
  8
0
  6
CONTINUOUS
 62
     7
 10
-16.096443
 20
-14.471052
 40
0.75
 50
36.869898
 51
143.1301
  0
ARC
  8
0
  6
CONTINUOUS
 62
     7
 10
-16.096443
 20
-8.4710522
 40
0.75
 50
36.869898
 51
143.1301
  0
ARC
  8
0
  6
CONTINUOUS
 62
     7
 10
-16.096443
 20
-10.718745
 40
6.4823079
 50
275.31087
 51
306.00832
  0
ARC
  8
0
  6
CONTINUOUS
 62
     7
 10
-16.096443
 20
-10.718745
 40
7.6823077
 50
274.47945
 51
306.00832
  0
ARC
  8
0
  6
CONTINUOUS
 62
     7
 10
-16.096443
 20
-17.32336
 40
7.6823077
 50
94.479442
 51
126.00832
  0
ENDBLK
  8
0
  0
BLOCK
  8
0
  2
KOZU4
 70
    64
 10
0
 20
0
  0
POINT
  8
0
  6
CONTINUOUS
 62
     7
 10
0
 20
0
  0
LINE
  8
0
  6
CENTER
 62
     7
 10
-32.399994
 20
0
 11
4.0819802
 21
0
  0
LINE
  8
0
  6
CONTINUOUS
 62
     7
 10
-23.397171
 20
26.5
 11
0
 21
26.5
  0
LINE
  8
0
  6
CONTINUOUS
 62
     7
 10
-23.397171
 20
-26.5
 11
0
 21
-26.5
  0
LINE
  8
0
  6
CONTINUOUS
 62
     7
 10
-22.30249
 20
25
 11
-10.598068
 21
25
  0
LINE
  8
0
  6
CONTINUOUS
 62
     7
 10
-22.30249
 20
-25
 11
-10.598068
 21
-25
  0
LINE
  8
0
  6
CONTINUOUS
 62
     7
 10
0
 20
26.5
 11
0
 21
-26.5
  0
LINE
  8
0
  6
CONTINUOUS
 62
     7
 10
-7.9999919
 20
26.5
 11
-7.9999919
 21
-26.5
  0
ARC
  8
0
  6
CONTINUOUS
 62
     7
 10
-10.598068
 20
28
 40
3
 50
270
 51
329.99999
  0
ARC
  8
0
  6
CONTINUOUS
 62
     7
 10
-10.598068
 20
-28
 40
3
 50
30.000001
 51
90.000003
  0
ARC
  8
0
  6
CONTINUOUS
 62
     7
 10
120
 20
0
 40
150
 50
171.47299
 51
188.52699
  0
ARC
  8
0
  6
CONTINUOUS
 62
     7
 10
-22.30249
 20
18.5
 40
6.5
 50
89.999982
 51
172.59282
  0
ARC
  8
0
  6
CONTINUOUS
 62
     7
 10
-22.30249
 20
-18.5
 40
6.5
 50
187.40718
 51
270.00002
  0
ARC
  8
0
  6
CONTINUOUS
 62
     7
 10
-23.397171
 20
21.5
 40
5
 50
89.999982
 51
171.47298
  0
ARC
  8
0
  6
CONTINUOUS
 62
     7
 10
-23.397171
 20
-21.5
 40
5
 50
188.52702
 51
270.00002
  0
TEXT
  8
0
  6
CONTINUOUS
 62
     7
 10
-26.030201
 20
30.910166
 40
3.2
 41
1.0130114
  1
11/4
  0
LINE
  8
0
  6
CONTINUOUS
 62
     7
 10
-18.494641
 20
-24.03606
 11
-18.49464
 21
-22.392594
  0
LINE
  8
0
  6
CONTINUOUS
 62
     7
 10
-17.29464
 20
-24.03606
 11
-17.29464
 21
-22.392594
  0
LINE
  8
0
  6
CONTINUOUS
 62
     7
 10
-17.29464
 20
-13.679527
 11
-17.294639
 21
-12.03606
  0
LINE
  8
0
  6
CONTINUOUS
 62
     7
 10
-18.49464
 20
-13.679527
 11
-18.494639
 21
-12.03606
  0
LINE
  8
0
  6
CONTINUOUS
 62
     7
 10
-17.29464
 20
-21.188233
 11
-17.29464
 21
-18.03606
  0
LINE
  8
0
  6
CONTINUOUS
 62
     7
 10
-18.49464
 20
-21.188233
 11
-18.49464
 21
-18.03606
  0
ARC
  8
0
  6
CONTINUOUS
 62
     7
 10
-20.29464
 20
-18.03606
 40
2.4000001
 50
126.00832
 51
233.99167
  0
ARC
  8
0
  6
CONTINUOUS
 62
     7
 10
-20.29464
 20
-18.03606
 40
3.5999999
 50
126.00832
 51
233.99167
  0
ARC
  8
0
  6
CONTINUOUS
 62
     7
 10
-15.49464
 20
-18.036061
 40
2.4000001
 50
306.00832
 51
53.991676
  0
ARC
  8
0
  6
CONTINUOUS
 62
     7
 10
-15.49464
 20
-18.036061
 40
3.5999999
 50
306.00832
 51
53.991676
  0
ARC
  8
0
  6
CONTINUOUS
 62
     7
 10
-17.89464
 20
-14.733753
 40
7.6823077
 50
233.99167
 51
265.52055
  0
ARC
  8
0
  6
CONTINUOUS
 62
     7
 10
-17.89464
 20
-14.733753
 40
6.4823079
 50
233.99167
 51
264.68912
  0
ARC
  8
0
  6
CONTINUOUS
 62
     7
 10
-17.89464
 20
-21.338368
 40
6.4823079
 50
53.991665
 51
126.00832
  0
ARC
  8
0
  6
CONTINUOUS
 62
     7
 10
-17.89464
 20
-21.338368
 40
7.6823077
 50
53.991665
 51
85.520543
  0
ARC
  8
0
  6
CONTINUOUS
 62
     7
 10
-17.89464
 20
-23.586061
 40
0.75
 50
216.86989
 51
323.13009
  0
ARC
  8
0
  6
CONTINUOUS
 62
     7
 10
-17.89464
 20
-18.48606
 40
0.75
 50
36.869898
 51
143.1301
  0
ARC
  8
0
  6
CONTINUOUS
 62
     7
 10
-17.894639
 20
-12.48606
 40
0.75
 50
36.869898
 51
143.1301
  0
ARC
  8
0
  6
CONTINUOUS
 62
     7
 10
-17.89464
 20
-14.733753
 40
6.4823079
 50
275.31087
 51
306.00832
  0
ARC
  8
0
  6
CONTINUOUS
 62
     7
 10
-17.89464
 20
-14.733753
 40
7.6823077
 50
274.47945
 51
306.00832
  0
ARC
  8
0
  6
CONTINUOUS
 62
     7
 10
-17.89464
 20
-21.338368
 40
7.6823077
 50
94.479442
 51
126.00832
  0
ENDBLK
  8
0
  0
BLOCK
  8
0
  2
KOZU5
 70
    64
 10
0
 20
0
  0
POINT
  8
0
  6
CONTINUOUS
 62
     7
 10
0
 20
0
  0
LINE
  8
0
  6
CENTER
 62
     7
 10
-35.763023
 20
0
 11
7.0278645
 21
0
  0
LINE
  8
0
  6
CONTINUOUS
 62
     7
 10
-21.624565
 20
30
 11
0
 21
30
  0
LINE
  8
0
  6
CONTINUOUS
 62
     7
 10
-21.624565
 20
-30
 11
0
 21
-30
  0
LINE
  8
0
  6
CONTINUOUS
 62
     7
 10
-24.080238
 20
28
 11
-12.464088
 21
28
  0
LINE
  8
0
  6
CONTINUOUS
 62
     7
 10
-24.080238
 20
-28
 11
-12.464088
 21
-28
  0
LINE
  8
0
  6
CONTINUOUS
 62
     7
 10
0
 20
30
 11
0
 21
-30
  0
LINE
  8
0
  6
CONTINUOUS
 62
     7
 10
-8.9999866
 20
-30
 11
-8.9999866
 21
30
  0
ARC
  8
0
  6
CONTINUOUS
 62
     7
 10
-12.464088
 20
32
 40
4
 50
270
 51
329.99999
  0
ARC
  8
0
  6
CONTINUOUS
 62
     7
 10
-12.464088
 20
-32
 40
4
 50
30.000001
 51
90.000003
  0
ARC
  8
0
  6
CONTINUOUS
 62
     7
 10
138
 20
0
 40
170
 50
172.50529
 51
187.49469
  0
ARC
  8
0
  6
CONTINUOUS
 62
     7
 10
-24.080238
 20
21.5
 40
6.5
 50
89.999982
 51
172.44386
  0
ARC
  8
0
  6
CONTINUOUS
 62
     7
 10
-24.080238
 20
-21.5
 40
6.5
 50
187.55614
 51
270.00002
  0
ARC
  8
0
  6
CONTINUOUS
 62
     7
 10
-21.624565
 20
-21
 40
9
 50
187.49475
 51
270.00002
  0
ARC
  8
0
  6
CONTINUOUS
 62
     7
 10
-21.624565
 20
21
 40
9
 50
89.999982
 51
172.50525
  0
TEXT
  8
0
  6
CONTINUOUS
 62
     7
 10
-23.146942
 20
33.251673
 40
3.2
 41
1.0130114
  1
11/2
  0
LINE
  8
0
  6
CONTINUOUS
 62
     7
 10
-19.847964
 20
-27.301435
 11
-19.847963
 21
-25.657969
  0
LINE
  8
0
  6
CONTINUOUS
 62
     7
 10
-18.647963
 20
-27.301436
 11
-18.647963
 21
-25.657969
  0
LINE
  8
0
  6
CONTINUOUS
 62
     7
 10
-18.647963
 20
-16.944902
 11
-18.647962
 21
-15.301436
  0
LINE
  8
0
  6
CONTINUOUS
 62
     7
 10
-19.847963
 20
-16.944902
 11
-19.847962
 21
-15.301435
  0
LINE
  8
0
  6
CONTINUOUS
 62
     7
 10
-18.647963
 20
-24.453608
 11
-18.647963
 21
-21.301436
  0
LINE
  8
0
  6
CONTINUOUS
 62
     7
 10
-19.847963
 20
-24.453608
 11
-19.847963
 21
-21.301435
  0
ARC
  8
0
  6
CONTINUOUS
 62
     7
 10
-21.647963
 20
-21.301435
 40
2.4000001
 50
126.00832
 51
233.99167
  0
ARC
  8
0
  6
CONTINUOUS
 62
     7
 10
-21.647963
 20
-21.301435
 40
3.5999999
 50
126.00832
 51
233.99167
  0
ARC
  8
0
  6
CONTINUOUS
 62
     7
 10
-16.847963
 20
-21.301436
 40
2.4000001
 50
306.00832
 51
53.991676
  0
ARC
  8
0
  6
CONTINUOUS
 62
     7
 10
-16.847963
 20
-21.301436
 40
3.5999999
 50
306.00832
 51
53.991676
  0
ARC
  8
0
  6
CONTINUOUS
 62
     7
 10
-19.247963
 20
-17.999128
 40
7.6823077
 50
233.99167
 51
265.52055
  0
ARC
  8
0
  6
CONTINUOUS
 62
     7
 10
-19.247963
 20
-17.999128
 40
6.4823079
 50
233.99167
 51
264.68912
  0
ARC
  8
0
  6
CONTINUOUS
 62
     7
 10
-19.247963
 20
-24.603743
 40
6.4823079
 50
53.991665
 51
126.00832
  0
ARC
  8
0
  6
CONTINUOUS
 62
     7
 10
-19.247963
 20
-24.603743
 40
7.6823077
 50
53.991665
 51
85.520543
  0
ARC
  8
0
  6
CONTINUOUS
 62
     7
 10
-19.247963
 20
-26.851436
 40
0.75
 50
216.86989
 51
323.13009
  0
ARC
  8
0
  6
CONTINUOUS
 62
     7
 10
-19.247963
 20
-21.751435
 40
0.75
 50
36.869898
 51
143.1301
  0
ARC
  8
0
  6
CONTINUOUS
 62
     7
 10
-19.247962
 20
-15.751435
 40
0.75
 50
36.869898
 51
143.1301
  0
ARC
  8
0
  6
CONTINUOUS
 62
     7
 10
-19.247963
 20
-17.999128
 40
6.4823079
 50
275.31087
 51
306.00832
  0
ARC
  8
0
  6
CONTINUOUS
 62
     7
 10
-19.247963
 20
-17.999128
 40
7.6823077
 50
274.47945
 51
306.00832
  0
ARC
  8
0
  6
CONTINUOUS
 62
     7
 10
-19.247963
 20
-24.603743
 40
7.6823077
 50
94.479442
 51
126.00832
  0
ENDBLK
  8
0
  0
BLOCK
  8
0
  2
KOZU6
 70
    64
 10
0
 20
0
  0
POINT
  8
0
  6
CONTINUOUS
 62
     7
 10
0
 20
0
  0
LINE
  8
0
  6
CENTER
 62
     7
 10
-39.000008
 20
0
 11
6.889616
 21
0
  0
LINE
  8
0
  6
CONTINUOUS
 62
     7
 10
-27.76255
 20
36.5
 11
0
 21
36.5
  0
LINE
  8
0
  6
CONTINUOUS
 62
     7
 10
-27.76255
 20
-36.5
 11
0
 21
-36.5
  0
LINE
  8
0
  6
CONTINUOUS
 62
     7
 10
-26.296745
 20
34.5
 11
-14.464104
 21
34.5
  0
LINE
  8
0
  6
CONTINUOUS
 62
     7
 10
-26.296745
 20
-34.5
 11
-14.464104
 21
-34.5
  0
LINE
  8
0
  6
CONTINUOUS
 62
     7
 10
0
 20
36.5
 11
0
 21
-36.5
  0
LINE
  8
0
  6
CONTINUOUS
 62
     7
 10
-11.000002
 20
-36.5
 11
-11.000002
 21
36.5
  0
ARC
  8
0
  6
CONTINUOUS
 62
     7
 10
-14.464104
 20
38.5
 40
4
 50
270
 51
329.99999
  0
ARC
  8
0
  6
CONTINUOUS
 62
     7
 10
-14.464104
 20
-38.5
 40
4
 50
30.000001
 51
90.000003
  0
ARC
  8
0
  6
CONTINUOUS
 62
     7
 10
179
 20
0
 40
215
 50
171.60871
 51
188.39127
  0
ARC
  8
0
  6
CONTINUOUS
 62
     7
 10
-26.296745
 20
26.5
 40
8
 50
89.999982
 51
172.64485
  0
ARC
  8
0
  6
CONTINUOUS
 62
     7
 10
-26.296745
 20
-26.5
 40
8
 50
187.35515
 51
270.00002
  0
ARC
  8
0
  6
CONTINUOUS
 62
     7
 10
-27.76255
 20
-30.5
 40
6
 50
188.39128
 51
270.00002
  0
ARC
  8
0
  6
CONTINUOUS
 62
     7
 10
-27.76255
 20
30.5
 40
6
 50
89.999982
 51
171.60872
  0
TEXT
  8
0
  6
CONTINUOUS
 62
     7
 10
-28.25527
 20
43.59524
 40
3.2
 41
1.0715625
  1
2
  0
LINE
  8
0
  6
CONTINUOUS
 62
     7
 10
-24.435673
 20
-34.080381
 11
-24.435673
 21
-32.026049
  0
LINE
  8
0
  6
CONTINUOUS
 62
     7
 10
-22.935673
 20
-34.080381
 11
-22.935673
 21
-32.026049
  0
LINE
  8
0
  6
CONTINUOUS
 62
     7
 10
-22.935672
 20
-21.134714
 11
-22.935672
 21
-19.080381
  0
LINE
  8
0
  6
CONTINUOUS
 62
     7
 10
-24.435672
 20
-21.134714
 11
-24.435672
 21
-19.080381
  0
LINE
  8
0
  6
CONTINUOUS
 62
     7
 10
-22.935673
 20
-30.520597
 11
-22.935673
 21
-26.580381
  0
LINE
  8
0
  6
CONTINUOUS
 62
     7
 10
-24.435673
 20
-30.520597
 11
-24.435673
 21
-26.580381
  0
ARC
  8
0
  6
CONTINUOUS
 62
     7
 10
-26.685673
 20
-26.580381
 40
3
 50
126.00832
 51
233.99167
  0
ARC
  8
0
  6
CONTINUOUS
 62
     7
 10
-26.685673
 20
-26.580381
 40
4.5
 50
126.00832
 51
233.99167
  0
ARC
  8
0
  6
CONTINUOUS
 62
     7
 10
-20.685673
 20
-26.580382
 40
3
 50
306.00832
 51
53.991676
  0
ARC
  8
0
  6
CONTINUOUS
 62
     7
 10
-20.685673
 20
-26.580382
 40
4.5
 50
306.00832
 51
53.991676
  0
ARC
  8
0
  6
CONTINUOUS
 62
     7
 10
-23.685672
 20
-22.452497
 40
9.6028843
 50
233.99167
 51
265.52055
  0
ARC
  8
0
  6
CONTINUOUS
 62
     7
 10
-23.685672
 20
-22.452497
 40
8.1028843
 50
233.99167
 51
264.68912
  0
ARC
  8
0
  6
CONTINUOUS
 62
     7
 10
-23.685673
 20
-30.708266
 40
8.1028843
 50
53.991665
 51
126.00832
  0
ARC
  8
0
  6
CONTINUOUS
 62
     7
 10
-23.685673
 20
-30.708266
 40
9.6028843
 50
53.991665
 51
85.520543
  0
ARC
  8
0
  6
CONTINUOUS
 62
     7
 10
-23.685673
 20
-33.517881
 40
0.9375
 50
216.86989
 51
323.13009
  0
ARC
  8
0
  6
CONTINUOUS
 62
     7
 10
-23.685673
 20
-27.142881
 40
0.9375
 50
36.869898
 51
143.1301
  0
ARC
  8
0
  6
CONTINUOUS
 62
     7
 10
-23.685672
 20
-19.642881
 40
0.9375
 50
36.869898
 51
143.1301
  0
ARC
  8
0
  6
CONTINUOUS
 62
     7
 10
-23.685672
 20
-22.452497
 40
9.6028843
 50
274.47945
 51
306.00832
  0
ARC
  8
0
  6
CONTINUOUS
 62
     7
 10
-23.685672
 20
-22.452497
 40
8.1028843
 50
275.31087
 51
306.00832
  0
ARC
  8
0
  6
CONTINUOUS
 62
     7
 10
-23.685673
 20
-30.708266
 40
9.6028843
 50
94.479442
 51
126.00832
  0
ENDBLK
  8
0
  0
BLOCK
  8
0
  2
KOZU7
 70
    64
 10
0
 20
0
  0
POINT
  8
0
  6
CONTINUOUS
 62
     7
 10
0
 20
0
  0
LINE
  8
0
  6
CENTER
 62
     7
 10
-47.928425
 20
0
 11
8.8109465
 21
0
  0
LINE
  8
0
  6
CONTINUOUS
 62
     7
 10
-26.936848
 20
45.5
 11
-9.4802133E-005
 21
45.5
  0
LINE
  8
0
  6
CONTINUOUS
 62
     7
 10
-26.936848
 20
-45.500015
 11
-9.4802133E-005
 21
-45.500015
  0
LINE
  8
0
  6
CONTINUOUS
 62
     7
 10
-30.33707
 20
-43.000015
 11
-16.274908
 21
-43.000015
  0
LINE
  8
0
  6
CONTINUOUS
 62
     7
 10
-12.000095
 20
45.5
 11
-12.000095
 21
-45.500015
  0
LINE
  8
0
  6
CONTINUOUS
 62
     7
 10
0
 20
-45.500015
 11
0
 21
45.5
  0
LINE
  8
0
  6
CONTINUOUS
 62
     7
 10
-30.33707
 20
43
 11
-17.51796
 21
43
  0
ARC
  8
0
  6
CONTINUOUS
 62
     7
 10
227.99991
 20
0
 40
270
 50
172.73497
 51
187.26505
  0
ARC
  8
0
  6
CONTINUOUS
 62
     7
 10
-26.936848
 20
32.5
 40
13
 50
90.000003
 51
172.73497
  0
ARC
  8
0
  6
CONTINUOUS
 62
     7
 10
-26.936848
 20
-32.500015
 40
13
 50
187.26505
 51
269.99996
  0
ARC
  8
0
  6
CONTINUOUS
 62
     7
 10
-30.33707
 20
33.5
 40
9.5
 50
90.000003
 51
172.61138
  0
ARC
  8
0
  6
CONTINUOUS
 62
     7
 10
-30.33707
 20
-33.500015
 40
9.5
 50
187.38869
 51
269.99996
  0
ARC
  8
0
  6
CONTINUOUS
 62
     7
 10
-16.896507
 20
48.967731
 40
6
 50
264.05491
 51
324.69317
  0
ARC
  8
0
  6
CONTINUOUS
 62
     7
 10
-16.896507
 20
-48.967731
 40
6
 50
35.306832
 51
95.945095
  0
TEXT
  8
0
  6
CONTINUOUS
 62
     7
 10
-35.968001
 20
53.525
 40
3.2
 41
0.85127005
  1
２１／２
  0
LINE
  8
0
  6
CONTINUOUS
 62
     7
 10
-23.554913
 20
-41.790443
 11
-23.554913
 21
-40.146977
  0
LINE
  8
0
  6
CONTINUOUS
 62
     7
 10
-22.354913
 20
-41.790443
 11
-22.354913
 21
-40.146977
  0
LINE
  8
0
  6
CONTINUOUS
 62
     7
 10
-22.354912
 20
-31.43391
 11
-22.354912
 21
-29.790443
  0
LINE
  8
0
  6
CONTINUOUS
 62
     7
 10
-23.554912
 20
-31.43391
 11
-23.554912
 21
-29.790443
  0
LINE
  8
0
  6
CONTINUOUS
 62
     7
 10
-22.354912
 20
-38.942616
 11
-22.354912
 21
-35.790443
  0
LINE
  8
0
  6
CONTINUOUS
 62
     7
 10
-23.554912
 20
-38.942616
 11
-23.554912
 21
-35.790443
  0
ARC
  8
0
  6
CONTINUOUS
 62
     7
 10
-25.354912
 20
-35.790443
 40
2.4000001
 50
126.00832
 51
233.99167
  0
ARC
  8
0
  6
CONTINUOUS
 62
     7
 10
-25.354912
 20
-35.790443
 40
3.5999999
 50
126.00832
 51
233.99167
  0
ARC
  8
0
  6
CONTINUOUS
 62
     7
 10
-20.554912
 20
-35.790444
 40
2.4000001
 50
306.00832
 51
53.991676
  0
ARC
  8
0
  6
CONTINUOUS
 62
     7
 10
-20.554912
 20
-35.790444
 40
3.5999999
 50
306.00832
 51
53.991676
  0
ARC
  8
0
  6
CONTINUOUS
 62
     7
 10
-22.954912
 20
-32.488136
 40
7.6823077
 50
233.99167
 51
265.52055
  0
ARC
  8
0
  6
CONTINUOUS
 62
     7
 10
-22.954912
 20
-32.488136
 40
6.4823079
 50
233.99167
 51
264.68912
  0
ARC
  8
0
  6
CONTINUOUS
 62
     7
 10
-22.954912
 20
-39.092751
 40
6.4823079
 50
53.991665
 51
126.00832
  0
ARC
  8
0
  6
CONTINUOUS
 62
     7
 10
-22.954912
 20
-39.092751
 40
7.6823077
 50
53.991665
 51
85.520543
  0
ARC
  8
0
  6
CONTINUOUS
 62
     7
 10
-22.954913
 20
-41.340444
 40
0.75
 50
216.86989
 51
323.13009
  0
ARC
  8
0
  6
CONTINUOUS
 62
     7
 10
-22.954912
 20
-36.240443
 40
0.75
 50
36.869898
 51
143.1301
  0
ARC
  8
0
  6
CONTINUOUS
 62
     7
 10
-22.954912
 20
-30.240443
 40
0.75
 50
36.869898
 51
143.1301
  0
ARC
  8
0
  6
CONTINUOUS
 62
     7
 10
-22.954912
 20
-32.488136
 40
6.4823079
 50
275.31087
 51
306.00832
  0
ARC
  8
0
  6
CONTINUOUS
 62
     7
 10
-22.954912
 20
-32.488136
 40
7.6823077
 50
274.47945
 51
306.00832
  0
ARC
  8
0
  6
CONTINUOUS
 62
     7
 10
-22.954912
 20
-39.092751
 40
7.6823077
 50
94.479442
 51
126.00832
  0
ENDBLK
  8
0
  0
BLOCK
  8
0
  2
KOZU8
 70
    64
 10
0
 20
0
  0
POINT
  8
0
  6
CONTINUOUS
 62
     7
 10
0
 20
0
  0
LINE
  8
0
  6
CENTER
 62
     7
 10
-49.399586
 20
0
 11
12.518206
 21
0
  0
LINE
  8
0
  6
CONTINUOUS
 62
     7
 10
-29.361609
 20
-52.5
 11
9.7296443E-006
 21
-52.5
  0
LINE
  8
0
  6
CONTINUOUS
 62
     7
 10
-29.361609
 20
52.500015
 11
9.7296443E-006
 21
52.500015
  0
LINE
  8
0
  6
CONTINUOUS
 62
     7
 10
-32.388218
 20
49.500015
 11
-20.141409
 21
49.500015
  0
LINE
  8
0
  6
CONTINUOUS
 62
     7
 10
-32.388218
 20
-49.5
 11
-20.141409
 21
-49.5
  0
LINE
  8
0
  6
CONTINUOUS
 62
     7
 10
-12.999995
 20
52.500015
 11
-12.999995
 21
-52.5
  0
LINE
  8
0
  6
CONTINUOUS
 62
     7
 10
0
 20
52.500015
 11
0
 21
-52.5
  0
ARC
  8
0
  6
CONTINUOUS
 62
     7
 10
-20.141424
 20
59.500015
 40
10
 50
270.00001
 51
315.573
  0
ARC
  8
0
  6
CONTINUOUS
 62
     7
 10
-32.388218
 20
39.500015
 40
10
 50
90.000003
 51
172.43408
  0
ARC
  8
0
  6
CONTINUOUS
 62
     7
 10
-32.388218
 20
-39.5
 40
10
 50
187.56593
 51
269.99996
  0
ARC
  8
0
  6
CONTINUOUS
 62
     7
 10
-20.141409
 20
-59.5
 40
10
 50
44.427006
 51
90.000009
  0
ARC
  8
0
  6
CONTINUOUS
 62
     7
 10
-29.361609
 20
-39.5
 40
13
 50
187.64283
 51
269.99996
  0
ARC
  8
0
  6
CONTINUOUS
 62
     7
 10
265
 20
0
 40
310
 50
172.3572
 51
187.64281
  0
ARC
  8
0
  6
CONTINUOUS
 62
     7
 10
-29.361609
 20
39.500015
 40
13
 50
90.000003
 51
172.35721
  0
TEXT
  8
0
  6
CONTINUOUS
 62
     7
 10
-38.067999
 20
62.624998
 40
3.2
 41
0.90047268
  1
３
  0
LINE
  8
0
  6
CONTINUOUS
 62
     7
 10
-28.964433
 20
-48.837242
 11
-28.964433
 21
-46.372042
  0
LINE
  8
0
  6
CONTINUOUS
 62
     7
 10
-27.164433
 20
-48.837242
 11
-27.164433
 21
-46.372042
  0
LINE
  8
0
  6
CONTINUOUS
 62
     7
 10
-27.164432
 20
-33.302442
 11
-27.164431
 21
-30.837242
  0
LINE
  8
0
  6
CONTINUOUS
 62
     7
 10
-28.964432
 20
-33.302442
 11
-28.964431
 21
-30.837242
  0
LINE
  8
0
  6
CONTINUOUS
 62
     7
 10
-27.164433
 20
-44.5655
 11
-27.164432
 21
-39.837242
  0
LINE
  8
0
  6
CONTINUOUS
 62
     7
 10
-28.964433
 20
-44.5655
 11
-28.964432
 21
-39.837242
  0
ARC
  8
0
  6
CONTINUOUS
 62
     7
 10
-31.664432
 20
-39.837242
 40
3.5999999
 50
126.00832
 51
233.99167
  0
ARC
  8
0
  6
CONTINUOUS
 62
     7
 10
-31.664432
 20
-39.837242
 40
5.4000001
 50
126.00832
 51
233.99167
  0
ARC
  8
0
  6
CONTINUOUS
 62
     7
 10
-24.464432
 20
-39.837242
 40
3.5999999
 50
306.00832
 51
53.991676
  0
ARC
  8
0
  6
CONTINUOUS
 62
     7
 10
-24.464432
 20
-39.837242
 40
5.4000001
 50
306.00832
 51
53.991676
  0
ARC
  8
0
  6
CONTINUOUS
 62
     7
 10
-28.064432
 20
-34.88378
 40
11.523461
 50
233.99167
 51
265.52055
  0
ARC
  8
0
  6
CONTINUOUS
 62
     7
 10
-28.064432
 20
-34.88378
 40
9.7234612
 50
233.99167
 51
264.68912
  0
ARC
  8
0
  6
CONTINUOUS
 62
     7
 10
-28.064433
 20
-44.790704
 40
9.7234612
 50
53.991665
 51
126.00832
  0
ARC
  8
0
  6
CONTINUOUS
 62
     7
 10
-28.064433
 20
-44.790704
 40
11.523461
 50
53.991665
 51
85.520543
  0
ARC
  8
0
  6
CONTINUOUS
 62
     7
 10
-28.064433
 20
-48.162242
 40
1.125
 50
216.86989
 51
323.13009
  0
ARC
  8
0
  6
CONTINUOUS
 62
     7
 10
-28.064432
 20
-40.512242
 40
1.125
 50
36.869898
 51
143.1301
  0
ARC
  8
0
  6
CONTINUOUS
 62
     7
 10
-28.064431
 20
-31.512242
 40
1.125
 50
36.869898
 51
143.1301
  0
ARC
  8
0
  6
CONTINUOUS
 62
     7
 10
-28.064432
 20
-34.88378
 40
11.523461
 50
274.47945
 51
306.00832
  0
ARC
  8
0
  6
CONTINUOUS
 62
     7
 10
-28.064432
 20
-34.88378
 40
9.7234612
 50
275.31087
 51
306.00832
  0
ARC
  8
0
  6
CONTINUOUS
 62
     7
 10
-28.064433
 20
-44.790704
 40
11.523461
 50
94.479442
 51
126.00832
  0
ENDBLK
  8
0
  0
BLOCK
  8
0
  2
KOZU9
 70
    64
 10
0
 20
0
  0
POINT
  8
0
  6
CONTINUOUS
 62
     7
 10
0
 20
0
  0
LINE
  8
0
  6
CENTER
 62
     7
 10
-69.171028
 20
0
 11
10.675
 21
0
  0
LINE
  8
0
  6
CONTINUOUS
 62
     7
 10
-42.848675
 20
80.500015
 11
-1.0260591E-005
 21
80.500015
  0
LINE
  8
0
  6
CONTINUOUS
 62
     7
 10
-42.848675
 20
-80.5
 11
-1.0260591E-005
 21
-80.5
  0
LINE
  8
0
  6
CONTINUOUS
 62
     7
 10
-44.219311
 20
77.000015
 11
-25.599344
 21
77.000015
  0
LINE
  8
0
  6
CONTINUOUS
 62
     7
 10
-44.21928
 20
-77
 11
-25.599344
 21
-77
  0
LINE
  8
0
  6
CONTINUOUS
 62
     7
 10
0
 20
80.500015
 11
0
 21
-80.5
  0
LINE
  8
0
  6
CONTINUOUS
 62
     7
 10
-18.000004
 20
14
 11
-18.000004
 21
80.500015
  0
LINE
  8
0
  6
CONTINUOUS
 62
     7
 10
-43.130764
 20
4
 11
-28.000004
 21
4
  0
LINE
  8
0
  6
CONTINUOUS
 62
     7
 10
-18.000004
 20
-14
 11
-18.000004
 21
-80.500015
  0
LINE
  8
0
  6
CONTINUOUS
 62
     7
 10
-43.130764
 20
-4
 11
-28.000004
 21
-4
  0
ARC
  8
0
  6
CONTINUOUS
 62
     7
 10
437
 20
0
 40
495
 50
171.64185
 51
188.35813
  0
ARC
  8
0
  6
CONTINUOUS
 62
     7
 10
-42.848675
 20
70.5
 40
10
 50
89.999982
 51
171.64182
  0
ARC
  8
0
  6
CONTINUOUS
 62
     7
 10
-25.599344
 20
86.999985
 40
10
 50
270
 51
319.45841
  0
ARC
  8
0
  6
CONTINUOUS
 62
     7
 10
-25.599344
 20
-87
 40
10
 50
40.541602
 51
90.000003
  0
ARC
  8
0
  6
CONTINUOUS
 62
     7
 10
-44.21928
 20
-68
 40
9
 50
188.04306
 51
270.00002
  0
ARC
  8
0
  6
CONTINUOUS
 62
     7
 10
-44.219311
 20
68
 40
9
 50
89.999982
 51
171.95694
  0
ARC
  8
0
  6
CONTINUOUS
 62
     7
 10
-42.848675
 20
-70.5
 40
10
 50
188.35815
 51
270.00002
  0
ARC
  8
0
  6
CONTINUOUS
 62
     7
 10
-43.130764
 20
14
 40
10
 50
179.99999
 51
270
  0
ARC
  8
0
  6
CONTINUOUS
 62
     7
 10
-28.000004
 20
14
 40
10
 50
270
 51
360
  0
ARC
  8
0
  6
CONTINUOUS
 62
     7
 10
-28.000004
 20
-14
 40
10
 50
0
 51
90.000003
  0
ARC
  8
0
  6
CONTINUOUS
 62
     7
 10
-43.130764
 20
-14
 40
10
 50
90.000003
 51
180.00001
  0
TEXT
  8
0
  6
CONTINUOUS
 62
     7
 10
-45.067999
 20
92.724997
 40
3.2
 41
0.90047268
  1
５
  0
LINE
  8
0
  6
CONTINUOUS
 62
     7
 10
-37.258702
 20
-75.013397
 11
-37.258701
 21
-71.726465
  0
LINE
  8
0
  6
CONTINUOUS
 62
     7
 10
-34.858702
 20
-75.013397
 11
-34.858701
 21
-71.726465
  0
LINE
  8
0
  6
CONTINUOUS
 62
     7
 10
-34.8587
 20
-54.300329
 11
-34.858699
 21
-51.013397
  0
LINE
  8
0
  6
CONTINUOUS
 62
     7
 10
-37.2587
 20
-54.300329
 11
-37.2587
 21
-51.013397
  0
LINE
  8
0
  6
CONTINUOUS
 62
     7
 10
-34.858701
 20
-69.317743
 11
-34.858701
 21
-63.013397
  0
LINE
  8
0
  6
CONTINUOUS
 62
     7
 10
-37.258701
 20
-69.317743
 11
-37.258701
 21
-63.013397
  0
ARC
  8
0
  6
CONTINUOUS
 62
     7
 10
-40.858701
 20
-63.013397
 40
4.8000002
 50
126.00832
 51
233.99167
  0
ARC
  8
0
  6
CONTINUOUS
 62
     7
 10
-40.858701
 20
-63.013397
 40
7.1999998
 50
126.00832
 51
233.99167
  0
ARC
  8
0
  6
CONTINUOUS
 62
     7
 10
-31.2587
 20
-63.013398
 40
4.8000002
 50
306.00832
 51
53.991676
  0
ARC
  8
0
  6
CONTINUOUS
 62
     7
 10
-31.2587
 20
-63.013398
 40
7.1999998
 50
306.00832
 51
53.991676
  0
ARC
  8
0
  6
CONTINUOUS
 62
     7
 10
-36.0587
 20
-56.408782
 40
15.364615
 50
233.99167
 51
265.52055
  0
ARC
  8
0
  6
CONTINUOUS
 62
     7
 10
-36.0587
 20
-56.408782
 40
12.964616
 50
233.99167
 51
264.68912
  0
ARC
  8
0
  6
CONTINUOUS
 62
     7
 10
-36.058701
 20
-69.618012
 40
15.364615
 50
53.991665
 51
85.520543
  0
ARC
  8
0
  6
CONTINUOUS
 62
     7
 10
-36.058702
 20
-74.113398
 40
1.5
 50
216.86989
 51
323.13009
  0
ARC
  8
0
  6
CONTINUOUS
 62
     7
 10
-36.058701
 20
-63.913397
 40
1.5
 50
36.869898
 51
143.1301
  0
ARC
  8
0
  6
CONTINUOUS
 62
     7
 10
-36.0587
 20
-51.913397
 40
1.5
 50
36.869898
 51
143.1301
  0
ARC
  8
0
  6
CONTINUOUS
 62
     7
 10
-36.058701
 20
-69.618012
 40
12.964616
 50
53.991665
 51
126.00832
  0
ARC
  8
0
  6
CONTINUOUS
 62
     7
 10
-36.058701
 20
-69.618012
 40
15.364615
 50
94.479442
 51
126.00832
  0
ARC
  8
0
  6
CONTINUOUS
 62
     7
 10
-36.0587
 20
-56.408782
 40
12.964616
 50
275.31087
 51
306.00832
  0
ARC
  8
0
  6
CONTINUOUS
 62
     7
 10
-36.0587
 20
-56.408782
 40
15.364615
 50
274.47945
 51
306.00832
  0
ENDBLK
  8
0
  0
BLOCK
  8
0
  2
KOZU10
 70
    64
 10
0
 20
0
  0
POINT
  8
0
  6
CONTINUOUS
 62
     7
 10
0
 20
0
  0
LINE
  8
0
  6
CENTER
 62
     7
 10
-70.622177
 20
0
 11
11.725
 21
0
  0
LINE
  8
0
  6
CONTINUOUS
 62
     7
 10
-47.479324
 20
91.000015
 11
-27.599352
 21
91.000015
  0
LINE
  8
0
  6
CONTINUOUS
 62
     7
 10
-46.976639
 20
-94.5
 11
-1.6471415E-005
 21
-94.5
  0
LINE
  8
0
  6
CONTINUOUS
 62
     7
 10
-47.479324
 20
-91
 11
-27.599352
 21
-91
  0
LINE
  8
0
  6
CONTINUOUS
 62
     7
 10
-46.976639
 20
94.500015
 11
-1.6471415E-005
 21
94.500015
  0
LINE
  8
0
  6
CONTINUOUS
 62
     7
 10
-20.00001
 20
94.500015
 11
-20.00001
 21
14
  0
LINE
  8
0
  6
CONTINUOUS
 62
     7
 10
0
 20
-94.5
 11
0
 21
94.500015
  0
LINE
  8
0
  6
CONTINUOUS
 62
     7
 10
-48.849445
 20
4
 11
-30.00001
 21
4
  0
LINE
  8
0
  6
CONTINUOUS
 62
     7
 10
-20.00001
 20
-94.500015
 11
-20.00001
 21
-14
  0
LINE
  8
0
  6
CONTINUOUS
 62
     7
 10
-48.849445
 20
-4
 11
-30.00001
 21
-4
  0
ARC
  8
0
  6
CONTINUOUS
 62
     7
 10
-47.479324
 20
79.000015
 40
12
 50
89.999982
 51
172.00517
  0
ARC
  8
0
  6
CONTINUOUS
 62
     7
 10
515
 20
0
 40
580
 50
171.64847
 51
188.35152
  0
ARC
  8
0
  6
CONTINUOUS
 62
     7
 10
-47.479324
 20
-79
 40
12
 50
187.99485
 51
270.00002
  0
ARC
  8
0
  6
CONTINUOUS
 62
     7
 10
-27.599352
 20
101.00002
 40
10
 50
270
 51
319.45841
  0
ARC
  8
0
  6
CONTINUOUS
 62
     7
 10
-27.599352
 20
-101
 40
10
 50
40.541602
 51
90.000003
  0
ARC
  8
0
  6
CONTINUOUS
 62
     7
 10
-46.976639
 20
-82.5
 40
12
 50
188.35154
 51
270.00002
  0
ARC
  8
0
  6
CONTINUOUS
 62
     7
 10
-46.976639
 20
82.500015
 40
12
 50
89.999982
 51
171.6485
  0
ARC
  8
0
  6
CONTINUOUS
 62
     7
 10
-30.00001
 20
14
 40
10
 50
270
 51
360
  0
ARC
  8
0
  6
CONTINUOUS
 62
     7
 10
-48.849445
 20
14
 40
10
 50
179.99999
 51
270
  0
ARC
  8
0
  6
CONTINUOUS
 62
     7
 10
-48.849445
 20
-14
 40
10
 50
90.000003
 51
180.00001
  0
ARC
  8
0
  6
CONTINUOUS
 62
     7
 10
-30.00001
 20
-14
 40
10
 50
0
 51
90.000003
  0
TEXT
  8
0
  6
CONTINUOUS
 62
     7
 10
-49.617998
 20
103.925
 40
3.2
 41
0.90047268
  1
６
  0
LINE
  8
0
  6
CONTINUOUS
 62
     7
 10
-40.148739
 20
-89.227753
 11
-40.148739
 21
-85.940821
  0
LINE
  8
0
  6
CONTINUOUS
 62
     7
 10
-37.748739
 20
-89.227753
 11
-37.748739
 21
-85.940821
  0
LINE
  8
0
  6
CONTINUOUS
 62
     7
 10
-37.748737
 20
-68.514685
 11
-37.748737
 21
-65.227753
  0
LINE
  8
0
  6
CONTINUOUS
 62
     7
 10
-40.148737
 20
-68.514685
 11
-40.148737
 21
-65.227753
  0
LINE
  8
0
  6
CONTINUOUS
 62
     7
 10
-37.748739
 20
-83.532098
 11
-37.748738
 21
-77.227753
  0
LINE
  8
0
  6
CONTINUOUS
 62
     7
 10
-40.148739
 20
-83.532098
 11
-40.148738
 21
-77.227753
  0
ARC
  8
0
  6
CONTINUOUS
 62
     7
 10
-43.748738
 20
-77.227752
 40
4.8000002
 50
126.00832
 51
233.99167
  0
ARC
  8
0
  6
CONTINUOUS
 62
     7
 10
-43.748738
 20
-77.227752
 40
7.1999998
 50
126.00832
 51
233.99167
  0
ARC
  8
0
  6
CONTINUOUS
 62
     7
 10
-34.148738
 20
-77.227753
 40
4.8000002
 50
306.00832
 51
53.991676
  0
ARC
  8
0
  6
CONTINUOUS
 62
     7
 10
-34.148738
 20
-77.227753
 40
7.1999998
 50
306.00832
 51
53.991676
  0
ARC
  8
0
  6
CONTINUOUS
 62
     7
 10
-38.948738
 20
-70.623137
 40
15.364615
 50
233.99167
 51
265.52055
  0
ARC
  8
0
  6
CONTINUOUS
 62
     7
 10
-38.948738
 20
-70.623137
 40
12.964616
 50
233.99167
 51
264.68912
  0
ARC
  8
0
  6
CONTINUOUS
 62
     7
 10
-38.948739
 20
-83.832368
 40
15.364615
 50
53.991665
 51
85.520543
  0
ARC
  8
0
  6
CONTINUOUS
 62
     7
 10
-38.948739
 20
-88.327753
 40
1.5
 50
216.86989
 51
323.13009
  0
ARC
  8
0
  6
CONTINUOUS
 62
     7
 10
-38.948738
 20
-78.127753
 40
1.5
 50
36.869898
 51
143.1301
  0
ARC
  8
0
  6
CONTINUOUS
 62
     7
 10
-38.948737
 20
-66.127752
 40
1.5
 50
36.869898
 51
143.1301
  0
ARC
  8
0
  6
CONTINUOUS
 62
     7
 10
-38.948739
 20
-83.832368
 40
12.964616
 50
53.991665
 51
126.00832
  0
ARC
  8
0
  6
CONTINUOUS
 62
     7
 10
-38.948739
 20
-83.832368
 40
15.364615
 50
94.479442
 51
126.00832
  0
ARC
  8
0
  6
CONTINUOUS
 62
     7
 10
-38.948738
 20
-70.623137
 40
12.964616
 50
275.31087
 51
306.00832
  0
ARC
  8
0
  6
CONTINUOUS
 62
     7
 10
-38.948738
 20
-70.623137
 40
15.364615
 50
274.47945
 51
306.00832
  0
ENDBLK
  8
0
  0
BLOCK
  8
0
  2
KOZU11
 70
    64
 10
0
 20
0
  0
POINT
  8
0
  6
CONTINUOUS
 62
     7
 10
0
 20
0
  0
LINE
  8
0
  6
CENTER
 62
     7
 10
-60.294632
 20
0
 11
10
 21
0
  0
LINE
  8
0
  6
CONTINUOUS
 62
     7
 10
-40.486588
 20
-63.499985
 11
-23.141418
 21
-63.499985
  0
LINE
  8
0
  6
CONTINUOUS
 62
     7
 10
-40.486557
 20
63.500031
 11
-23.141418
 21
63.500031
  0
LINE
  8
0
  6
CONTINUOUS
 62
     7
 10
-37.459366
 20
66.500031
 11
-7.7628312E-007
 21
66.500031
  0
LINE
  8
0
  6
CONTINUOUS
 62
     7
 10
-37.459366
 20
-66.499969
 11
-7.7628312E-007
 21
-66.499969
  0
LINE
  8
0
  6
CONTINUOUS
 62
     7
 10
0
 20
66.500031
 11
0
 21
-66.499969
  0
LINE
  8
0
  6
CONTINUOUS
 62
     7
 10
-15.999946
 20
66.500031
 11
-15.999946
 21
14
  0
LINE
  8
0
  6
CONTINUOUS
 62
     7
 10
-41.360683
 20
4
 11
-25.999945
 21
4
  0
LINE
  8
0
  6
CONTINUOUS
 62
     7
 10
-41.360683
 20
-4
 11
-25.999945
 21
-4
  0
LINE
  8
0
  6
CONTINUOUS
 62
     7
 10
-15.999946
 20
-14
 11
-15.999946
 21
-66.499969
  0
ARC
  8
0
  6
CONTINUOUS
 62
     7
 10
-23.141403
 20
73.5
 40
10
 50
269.99999
 51
315.57299
  0
ARC
  8
0
  6
CONTINUOUS
 62
     7
 10
-23.141449
 20
-73.5
 40
10
 50
44.42701
 51
90.000003
  0
ARC
  8
0
  6
CONTINUOUS
 62
     7
 10
-40.486588
 20
-52.499985
 40
11
 50
187.65742
 51
269.99996
  0
ARC
  8
0
  6
CONTINUOUS
 62
     7
 10
-37.459366
 20
-52.499969
 40
14
 50
187.71648
 51
269.99996
  0
ARC
  8
0
  6
CONTINUOUS
 62
     7
 10
-37.459366
 20
52.500031
 40
14
 50
90.000003
 51
172.28352
  0
ARC
  8
0
  6
CONTINUOUS
 62
     7
 10
349.99997
 20
0
 40
405
 50
172.28352
 51
187.71648
  0
ARC
  8
0
  6
CONTINUOUS
 62
     7
 10
-40.486557
 20
52.500031
 40
11
 50
90.000003
 51
172.34261
  0
ARC
  8
0
  6
CONTINUOUS
 62
     7
 10
-25.999945
 20
14
 40
10
 50
270
 51
360
  0
ARC
  8
0
  6
CONTINUOUS
 62
     7
 10
-41.360683
 20
14
 40
10
 50
179.99999
 51
270
  0
ARC
  8
0
  6
CONTINUOUS
 62
     7
 10
-25.999945
 20
-14
 40
10
 50
0
 51
90.000003
  0
ARC
  8
0
  6
CONTINUOUS
 62
     7
 10
-41.360683
 20
-14
 40
10
 50
90.000003
 51
180.00001
  0
TEXT
  8
0
  6
CONTINUOUS
 62
     7
 10
-45.768
 20
74.525
 40
3.2
 41
0.90047268
  1
４
  0
LINE
  8
0
  6
CONTINUOUS
 62
     7
 10
-32.435113
 20
-62.535808
 11
-32.435113
 21
-60.070609
  0
LINE
  8
0
  6
CONTINUOUS
 62
     7
 10
-30.635113
 20
-62.535809
 11
-30.635113
 21
-60.070609
  0
LINE
  8
0
  6
CONTINUOUS
 62
     7
 10
-30.635112
 20
-47.001009
 11
-30.635112
 21
-44.535809
  0
LINE
  8
0
  6
CONTINUOUS
 62
     7
 10
-32.435112
 20
-47.001008
 11
-32.435112
 21
-44.535808
  0
LINE
  8
0
  6
CONTINUOUS
 62
     7
 10
-30.635113
 20
-58.264067
 11
-30.635112
 21
-53.535809
  0
LINE
  8
0
  6
CONTINUOUS
 62
     7
 10
-32.435113
 20
-58.264067
 11
-32.435112
 21
-53.535808
  0
ARC
  8
0
  6
CONTINUOUS
 62
     7
 10
-35.135112
 20
-53.535808
 40
3.5999999
 50
126.00832
 51
233.99167
  0
ARC
  8
0
  6
CONTINUOUS
 62
     7
 10
-35.135112
 20
-53.535808
 40
5.4000001
 50
126.00832
 51
233.99167
  0
ARC
  8
0
  6
CONTINUOUS
 62
     7
 10
-27.935112
 20
-53.535809
 40
3.5999999
 50
306.00832
 51
53.991676
  0
ARC
  8
0
  6
CONTINUOUS
 62
     7
 10
-27.935112
 20
-53.535809
 40
5.4000001
 50
306.00832
 51
53.991676
  0
ARC
  8
0
  6
CONTINUOUS
 62
     7
 10
-31.535112
 20
-48.582347
 40
11.523461
 50
233.99167
 51
265.52055
  0
ARC
  8
0
  6
CONTINUOUS
 62
     7
 10
-31.535112
 20
-48.582347
 40
9.7234612
 50
233.99167
 51
264.68912
  0
ARC
  8
0
  6
CONTINUOUS
 62
     7
 10
-31.535113
 20
-58.48927
 40
9.7234612
 50
53.991665
 51
126.00832
  0
ARC
  8
0
  6
CONTINUOUS
 62
     7
 10
-31.535113
 20
-58.48927
 40
11.523461
 50
53.991665
 51
85.520543
  0
ARC
  8
0
  6
CONTINUOUS
 62
     7
 10
-31.535113
 20
-61.860808
 40
1.125
 50
216.86989
 51
323.13009
  0
ARC
  8
0
  6
CONTINUOUS
 62
     7
 10
-31.535112
 20
-54.210809
 40
1.125
 50
36.869898
 51
143.1301
  0
ARC
  8
0
  6
CONTINUOUS
 62
     7
 10
-31.535112
 20
-45.210809
 40
1.125
 50
36.869898
 51
143.1301
  0
ARC
  8
0
  6
CONTINUOUS
 62
     7
 10
-31.535112
 20
-48.582347
 40
11.523461
 50
274.47945
 51
306.00832
  0
ARC
  8
0
  6
CONTINUOUS
 62
     7
 10
-31.535112
 20
-48.582347
 40
9.7234612
 50
275.31087
 51
306.00832
  0
ARC
  8
0
  6
CONTINUOUS
 62
     7
 10
-31.535113
 20
-58.48927
 40
11.523461
 50
94.479442
 51
126.00832
  0
ENDBLK
  8
0
  0
ENDSEC
  0
SECTION
  2
ENTITIES
  0
POINT
  8
0
  6
CONTINUOUS
 62
     7
 10
-25
 20
0
  0
POINT
  8
0
  6
CONTINUOUS
 62
     7
 10
-297
 20
210
  0
POINT
  8
0
  6
CONTINUOUS
 62
     7
 10
297
 20
210
  0
POINT
  8
0
  6
CONTINUOUS
 62
     7
 10
-297
 20
-210
  0
POINT
  8
0
  6
CONTINUOUS
 62
     7
 10
297
 20
-210
  0
LINE
  8
0
  6
CONTINUOUS
 62
     7
 10
-287
 20
200
 11
-287
 21
-200
  0
LINE
  8
0
  6
CONTINUOUS
 62
     7
 10
287
 20
200
 11
287
 21
-200
  0
LINE
  8
0
  6
CONTINUOUS
 62
     7
 10
-287
 20
200
 11
287
 21
200
  0
LINE
  8
0
  6
CONTINUOUS
 62
     7
 10
-287
 20
-200
 11
287
 21
-200
  0
TEXT
  8
0
  6
CONTINUOUS
 62
     7
 10
-32.8575
 20
176
 40
8
 41
0.84409467
  1
キャップ（バンド付き）
  0
INSERT
  8
0
  6
CONTINUOUS
 62
     7
  2
KOZU10
 10
237.83398
 20
-90.488342
  0
INSERT
  8
0
  6
CONTINUOUS
 62
     7
  2
KOZU9
 10
120.72538
 20
-89.791267
  0
INSERT
  8
0
  6
CONTINUOUS
 62
     7
  2
KOZU11
 10
0.92318135
 20
-89.791267
  0
INSERT
  8
0
  6
CONTINUOUS
 62
     7
  2
KOZU8
 10
-110
 20
-90
  0
INSERT
  8
0
  6
CONTINUOUS
 62
     7
  2
KOZU7
 10
-200
 20
-90
  0
INSERT
  8
0
  6
CONTINUOUS
 62
     7
  2
KOZU6
 10
220
 20
100
  0
INSERT
  8
0
  6
CONTINUOUS
 62
     7
  2
KOZU5
 10
120
 20
100
  0
INSERT
  8
0
  6
CONTINUOUS
 62
     7
  2
KOZU4
 10
30
 20
100
  0
INSERT
  8
0
  6
CONTINUOUS
 62
     7
  2
KOZU3
 10
-50
 20
100
  0
INSERT
  8
0
  6
CONTINUOUS
 62
     7
  2
KOZU2
 10
-120
 20
100
  0
INSERT
  8
0
  6
CONTINUOUS
 62
     7
  2
KOZU1
 10
-190
 20
100
  0
ENDSEC
  0
EOF
